  0
SECTION
  2
HEADER
  9
$ACADVER
  1
AC1009
  9
$INSBASE
 10
0.0
 20
0.0
 30
0.0
  9
$EXTMIN
 10
312.95174012653479
 20
283.94358427735801
 30
-0.0000000349181948
  9
$EXTMAX
 10
1087.8426390308209
 20
987.32462316314115
 30
0.0000000814935747
  9
$LIMMIN
 10
0.0
 20
0.0
  9
$LIMMAX
 10
1422.5
 20
925.0
  9
$ORTHOMODE
 70
     0
  9
$REGENMODE
 70
     1
  9
$FILLMODE
 70
     1
  9
$QTEXTMODE
 70
     0
  9
$MIRRTEXT
 70
     1
  9
$DRAGMODE
 70
     2
  9
$LTSCALE
 40
5.0
  9
$OSMODE
 70
   551
  9
$ATTMODE
 70
     1
  9
$TEXTSIZE
 40
2.5
  9
$TRACEWID
 40
1.0
  9
$TEXTSTYLE
  7
STANDARD
  9
$CLAYER
  8
AM_0
  9
$CELTYPE
  6
BYLAYER
  9
$CECOLOR
 62
   256
  9
$DIMSCALE
 40
1.0
  9
$DIMASZ
 40
2.5
  9
$DIMEXO
 40
1.0
  9
$DIMDLI
 40
8.0
  9
$DIMRND
 40
0.0
  9
$DIMDLE
 40
0.0
  9
$DIMEXE
 40
0.6
  9
$DIMTP
 40
0.1
  9
$DIMTM
 40
0.1
  9
$DIMTXT
 40
2.5
  9
$DIMCEN
 40
0.0
  9
$DIMTSZ
 40
0.0
  9
$DIMTOL
 70
     0
  9
$DIMLIM
 70
     0
  9
$DIMTIH
 70
     0
  9
$DIMTOH
 70
     0
  9
$DIMSE1
 70
     0
  9
$DIMSE2
 70
     0
  9
$DIMTAD
 70
     1
  9
$DIMZIN
 70
     8
  9
$DIMBLK
  1

  9
$DIMASO
 70
     1
  9
$DIMSHO
 70
     1
  9
$DIMPOST
  1

  9
$DIMAPOST
  1
"
  9
$DIMALT
 70
     0
  9
$DIMALTD
 70
     2
  9
$DIMALTF
 40
0.0393701
  9
$DIMLFAC
 40
1.0
  9
$DIMTOFL
 70
     1
  9
$DIMTVP
 40
0.0
  9
$DIMTIX
 70
     0
  9
$DIMSOXD
 70
     0
  9
$DIMSAH
 70
     0
  9
$DIMBLK1
  1

  9
$DIMBLK2
  1

  9
$DIMSTYLE
  2
AM_ISO
  9
$DIMCLRD
 70
   256
  9
$DIMCLRE
 70
   256
  9
$DIMCLRT
 70
     4
  9
$DIMTFAC
 40
0.71
  9
$DIMGAP
 40
0.8
  9
$LUNITS
 70
     2
  9
$LUPREC
 70
     2
  9
$SKETCHINC
 40
1.0
  9
$FILLETRAD
 40
25.0
  9
$AUNITS
 70
     0
  9
$AUPREC
 70
     0
  9
$MENU
  1
.
  9
$ELEVATION
 40
0.0
  9
$PELEVATION
 40
0.0
  9
$THICKNESS
 40
0.0
  9
$LIMCHECK
 70
     0
  9
$BLIPMODE
 70
     0
  9
$CHAMFERA
 40
10.0
  9
$CHAMFERB
 40
5.0
  9
$SKPOLY
 70
     0
  9
$TDCREATE
 40
2452066.5758846882
  9
$TDUPDATE
 40
2458541.473147593
  9
$TDINDWG
 40
0.1101535069
  9
$TDUSRTIMER
 40
0.1101534954
  9
$USRTIMER
 70
     1
  9
$ANGBASE
 50
0.0
  9
$ANGDIR
 70
     0
  9
$PDMODE
 70
     0
  9
$PDSIZE
 40
0.0
  9
$PLINEWID
 40
0.0
  9
$COORDS
 70
     1
  9
$SPLFRAME
 70
     0
  9
$SPLINETYPE
 70
     6
  9
$SPLINESEGS
 70
     8
  9
$ATTDIA
 70
     1
  9
$ATTREQ
 70
     1
  9
$HANDLING
 70
     1
  9
$HANDSEED
  5
3281
  9
$SURFTAB1
 70
     6
  9
$SURFTAB2
 70
     6
  9
$SURFTYPE
 70
     6
  9
$SURFU
 70
     6
  9
$SURFV
 70
     6
  9
$UCSNAME
  2

  9
$UCSORG
 10
0.0
 20
0.0
 30
0.0
  9
$UCSXDIR
 10
1.0
 20
0.0
 30
0.0
  9
$UCSYDIR
 10
0.0
 20
1.0
 30
0.0
  9
$PUCSNAME
  2

  9
$PUCSORG
 10
0.0
 20
0.0
 30
0.0
  9
$PUCSXDIR
 10
1.0
 20
0.0
 30
0.0
  9
$PUCSYDIR
 10
0.0
 20
1.0
 30
0.0
  9
$USERI1
 70
     0
  9
$USERI2
 70
     0
  9
$USERI3
 70
     0
  9
$USERI4
 70
     0
  9
$USERI5
 70
     0
  9
$USERR1
 40
0.0
  9
$USERR2
 40
0.0
  9
$USERR3
 40
0.0
  9
$USERR4
 40
0.0
  9
$USERR5
 40
0.0
  9
$WORLDVIEW
 70
     1
  9
$SHADEDGE
 70
     3
  9
$SHADEDIF
 70
    70
  9
$TILEMODE
 70
     1
  9
$MAXACTVP
 70
    64
  9
$PLIMCHECK
 70
     0
  9
$PEXTMIN
 10
1.0000000000000000E+020
 20
1.0000000000000000E+020
 30
1.0000000000000000E+020
  9
$PEXTMAX
 10
-1.0000000000000000E+020
 20
-1.0000000000000000E+020
 30
-1.0000000000000000E+020
  9
$PLIMMIN
 10
0.0
 20
0.0
  9
$PLIMMAX
 10
420.0
 20
297.0
  9
$UNITMODE
 70
     0
  9
$VISRETAIN
 70
     1
  9
$PLINEGEN
 70
     0
  9
$PSLTSCALE
 70
     1
  0
ENDSEC
  0
SECTION
  2
TABLES
  0
TABLE
  2
VPORT
 70
     1
  0
VPORT
  2
*ACTIVE
 70
     0
 10
0.0
 20
0.0
 11
1.0
 21
1.0
 12
700.39718957867797
 22
635.63410372024964
 13
0.0
 23
0.0
 14
12.5
 24
12.5
 15
50.0
 25
50.0
 16
0.0
 26
0.0
 36
1.0
 17
0.0
 27
0.0
 37
0.0
 40
708.20974166989606
 41
1.7571592210767459
 42
50.0
 43
0.0
 44
0.0
 50
0.0
 51
0.0
 71
     0
 72
   100
 73
     1
 74
     3
 75
     0
 76
     0
 77
     0
 78
     0
  0
ENDTAB
  0
TABLE
  2
LTYPE
 70
    26
  0
LTYPE
  2
CONTINUOUS
 70
     0
  3
Solid line
 72
    65
 73
     0
 40
0.0
  0
LTYPE
  2
AM_ISO02W050
 70
     0
  3
__ __ __ __ __ __ __ __ __ __ __ __ __ __ __
 72
    65
 73
     2
 40
7.5
 49
6.0
 49
-1.5
  0
LTYPE
  2
AM_ISO08W050
 70
     0
  3
____ . ____ . ____ . ____ . ____ . ____ . ____
 72
    65
 73
     4
 40
18.0
 49
12.0
 49
-1.5
 49
3.0
 49
-1.5
  0
LTYPE
  2
AM_ISO09W050
 70
     0
  3
_____ . . _____ . . _____ . . ____ .. ____
 72
    65
 73
     6
 40
22.5
 49
12.0
 49
-1.5
 49
3.0
 49
-1.5
 49
3.0
 49
-1.5
  0
LTYPE
  2
AMCONSTR
 70
     0
  3
_______________________
 72
    65
 73
     2
 40
9999.0
 49
9999.0
 49
0.0
  0
LTYPE
  2
AM_ISO08W050X2
 70
     0
  3
__ . __ . __ . __ . __ . __
 72
    65
 73
     4
 40
9.0
 49
6.0
 49
-0.75
 49
1.5
 49
-0.75
  0
LTYPE
  2
AM_ISO02W050X2
 70
     0
  3
 _ _ _ _ _ _ _ _ _ _ _ _
 72
    65
 73
     2
 40
3.75
 49
3.0
 49
-0.75
  0
LTYPE
  2
AMZIGZAG
 70
     0
  3
/\/-/\/-/\/-/\/-/\/-/\/
 72
    65
 73
     2
 40
11.000099999999991
 49
0.0001
 49
-11.0
  0
LTYPE
  2
ACISOWELD
 70
     0
  3
_ _ _ _ _
 72
    65
 73
     2
 40
2.0
 49
2.0
 49
-1.0
  0
LTYPE
  2
ACISOTGB
 70
     0
  3
__ . . __ . .
 72
    65
 73
     6
 40
9.0
 49
4.0
 49
-1.0
 49
1.0
 49
-1.0
 49
1.0
 49
-1.0
  0
LTYPE
  2
ACISOTGL
 70
     0
  3
_ _ _ _ _
 72
    65
 73
     2
 40
3.0
 49
2.0
 49
-1.0
  0
LTYPE
  2
CENTER
 70
     0
  3
__ . __
 72
    65
 73
     4
 40
7.0
 49
4.0
 49
-1.0
 49
1.0
 49
-1.0
  0
LTYPE
  2
PHANTOM2
 70
     0
  3
Phantom (.5x) ___ _ _ ___ _ _ ___ _ _ ___ _ _
 72
    65
 73
     6
 40
31.75
 49
15.875
 49
-3.174999999999998
 49
3.174999999999998
 49
-3.174999999999998
 49
3.174999999999998
 49
-3.174999999999998
  0
LTYPE
  2
ACANSTGBM
 70
     0
  3
__ . . __ . .
 72
    65
 73
     6
 40
9.0
 49
4.0
 49
-1.0
 49
1.0
 49
-1.0
 49
1.0
 49
-1.0
  0
LTYPE
  2
ACANSTGLM
 70
     0
  3
_ _ _ _ _
 72
    65
 73
     2
 40
3.0
 49
2.0
 49
-1.0
  0
LTYPE
  2
GEN3B
 70
     0
  3
 - - - - -
 72
    65
 73
     2
 40
1.0
 49
0.5
 49
-0.5
  0
LTYPE
  2
GEN7A
 70
     0
  3
__ . __ . __
 72
    65
 73
     4
 40
7.375
 49
4.75
 49
-0.875
 49
0.875
 49
-0.875
  0
LTYPE
  2
ACJISTGB
 70
     0
  3
__ . . __ . .
 72
    65
 73
     6
 40
9.0
 49
4.0
 49
-1.0
 49
1.0
 49
-1.0
 49
1.0
 49
-1.0
  0
LTYPE
  2
ACJISTGL
 70
     0
  3
_ _ _ _ _
 72
    65
 73
     2
 40
3.0
 49
2.0
 49
-1.0
  0
LTYPE
  2
HIDDEN
 70
     0
  3
Hidden __ __ __ __ __ __ __ __ __ __ __ __ __ _
 72
    65
 73
     2
 40
0.375
 49
0.25
 49
-0.125
  0
LTYPE
  2
CENTER2
 70
     0
  3
Center (.5x) ___ _ ___ _ ___ _ ___ _ ___ _ ___
 72
    65
 73
     4
 40
1.125
 49
0.75
 49
-0.125
 49
0.125
 49
-0.125
  0
LTYPE
  2
HIDDEN2
 70
     0
  3
Hidden (.5x) _ _ _ _ _ _ _ _ _ _ _ _ _ _ _ _ _
 72
    65
 73
     2
 40
0.1875
 49
0.125
 49
-0.0625
  0
LTYPE
  2
AMZIGZAG2
 70
     0
  3
/\/-/\/-/\/-/\/-/\/-/\/
 72
    65
 73
     2
 40
0.4401
 49
0.0001
 49
-0.4400000000000002
  0
LTYPE
  2
ACANSTGB
 70
     0
  3
__ . . __ . .
 72
    65
 73
     6
 40
0.35433070866
 49
0.15748031496
 49
-0.03937007874
 49
0.03937007874
 49
-0.03937007874
 49
0.03937007874
 49
-0.03937007874
  0
LTYPE
  2
ACANSTGL
 70
     0
  3
_ _ _ _ _
 72
    65
 73
     2
 40
0.11811023622
 49
0.07874015748
 49
-0.03937007874
  0
ENDTAB
  0
TABLE
  2
LAYER
 70
     6
  0
LAYER
  2
0
 70
     0
 62
     7
  6
CONTINUOUS
  0
LAYER
  2
AM_0
 70
     0
 62
     7
  6
CONTINUOUS
  0
LAYER
  2
AM_5
 70
     0
 62
     2
  6
CONTINUOUS
  0
LAYER
  2
DEFPOINTS
 70
     0
 62
     7
  6
CONTINUOUS
  0
LAYER
  2
ｶｸﾚｾﾝ2
 70
     0
 62
     3
  6
GEN3B
  0
LAYER
  2
ﾁｭｳｼﾝｾﾝ1
 70
     0
 62
     1
  6
GEN7A
  0
ENDTAB
  0
TABLE
  2
STYLE
 70
     9
  0
STYLE
  2
STANDARD
 70
     0
 40
0.0
 41
0.8299999999999999
 50
0.0
 71
     0
 42
2.5
  3
txt.shx
  4
bigfont.shx
  0
STYLE
  2
ANNOTATIVE
 70
     0
 40
0.0
 41
1.0
 50
0.0
 71
     0
 42
0.2
  3
txt
  4

  0
STYLE
  2

 70
     1
 40
0.0
 41
1.0
 50
0.0
 71
     0
 42
2.5
  3
ltypeshp.shx
  4

  0
STYLE
  2
ACISOTS
 70
     0
 40
1.0
 41
1.0
 50
0.0
 71
     0
 42
2.5
  3
isocp.shx
  4
extfont.shx
  0
STYLE
  2
ACISOGDT
 70
     0
 40
0.0
 41
1.0
 50
0.0
 71
     0
 42
2.5
  3
amgdt.shx
  4

  0
STYLE
  2
ACANSTS
 70
     0
 40
1.0
 41
1.0
 50
0.0
 71
     0
 42
2.5
  3
romans.shx
  4
bigfont.shx
  0
STYLE
  2
ACANSGDT
 70
     0
 40
0.0
 41
1.0
 50
0.0
 71
     0
 42
2.5
  3
amgdt.shx
  4

  0
STYLE
  2
ACJISTS
 70
     0
 40
1.0
 41
1.0
 50
0.0
 71
     0
 42
2.5
  3
isocp.shx
  4
bigfont.shx
  0
STYLE
  2
ACJISGDT
 70
     0
 40
0.0
 41
1.0
 50
0.0
 71
     0
 42
2.5
  3
amgdt.shx
  4

  0
ENDTAB
  0
TABLE
  2
VIEW
 70
     6
  0
VIEW
  2
AM_VIEW1
 70
     0
 40
462.5
 10
416.07965009208078
 20
693.75
 41
832.15930018416213
 11
0.0
 21
0.0
 31
1.0
 12
0.0
 22
0.0
 32
0.0
 42
50.0
 43
0.0
 44
0.0
 50
0.0
 71
     0
  0
VIEW
  2
AM_VIEW2
 70
     0
 40
462.5
 10
1006.420349907918
 20
693.75
 41
832.15930018416213
 11
0.0
 21
0.0
 31
1.0
 12
0.0
 22
0.0
 32
0.0
 42
50.0
 43
0.0
 44
0.0
 50
0.0
 71
     0
  0
VIEW
  2
AM_VIEW3
 70
     0
 40
462.5
 10
416.07965009208078
 20
231.25
 41
832.15930018416213
 11
0.0
 21
0.0
 31
1.0
 12
0.0
 22
0.0
 32
0.0
 42
50.0
 43
0.0
 44
0.0
 50
0.0
 71
     0
  0
VIEW
  2
AM_VIEW4
 70
     0
 40
462.5
 10
1006.420349907918
 20
231.25
 41
832.15930018416213
 11
0.0
 21
0.0
 31
1.0
 12
0.0
 22
0.0
 32
0.0
 42
50.0
 43
0.0
 44
0.0
 50
0.0
 71
     0
  0
VIEW
  2
AM_VIEW5
 70
     0
 40
462.5
 10
711.24999999999966
 20
462.5
 41
832.15930018416179
 11
0.0
 21
0.0
 31
1.0
 12
0.0
 22
0.0
 32
0.0
 42
50.0
 43
0.0
 44
0.0
 50
0.0
 71
     0
  0
VIEW
  2
AM_VIEW6
 70
     0
 40
924.99075000000005
 10
711.24999999999966
 20
462.5
 41
1664.3019571823199
 11
0.0
 21
0.0
 31
1.0
 12
0.0
 22
0.0
 32
0.0
 42
50.0
 43
0.0
 44
0.0
 50
0.0
 71
     0
  0
ENDTAB
  0
TABLE
  2
UCS
 70
     0
  0
ENDTAB
  0
TABLE
  2
APPID
 70
    95
  0
APPID
  2
ACAD
 70
     0
  0
APPID
  2
ACADANNOTATIVE
 70
     0
  0
APPID
  2
MCAD_NO_VIS
 70
     0
  0
APPID
  2
ACAD_TEMP_GRAPHIC
 70
     0
  0
APPID
  2
ACATTRIBSERVICES
 70
     0
  0
APPID
  2
GENIUS_GENREC_14
 70
     0
  0
APPID
  2
GENIUS_GENOBJ-N-REC_13
 70
     0
  0
APPID
  2
GENIUS_GENODEF_13
 70
     0
  0
APPID
  2
GENIUS_GENOLIS_13
 70
     0
  0
APPID
  2
GENIUS_GENOBJ-N-TIT_13
 70
     0
  0
APPID
  2
GENIUS_GENOENT_13
 70
     0
  0
APPID
  2
GENIUS_GENTITLE_13
 70
     0
  0
APPID
  2
GENIUS_GENOREF_13
 70
     0
  0
APPID
  2
GENIUS_GENSCREG_15
 70
     0
  0
APPID
  2
GENIUS_GENOBJ-N-SDF_13
 70
     0
  0
APPID
  2
GENIUS_GENFIL_13
 70
     0
  0
APPID
  2
GENIUS_GENOBJ-N-CHA_13
 70
     0
  0
APPID
  2
GENIUS_GENDTOL_13
 70
     0
  0
APPID
  2
GENIUS_GENOBJ-N-FIL_13
 70
     0
  0
APPID
  2
AD_DRAW
 70
     0
  0
APPID
  2
DESIGNERASSEMBLIES
 70
     0
  0
APPID
  2
ASURF_PCURVE_APPNAME
 70
     0
  0
APPID
  2
GENIUS_GE3SECT_13
 70
     0
  0
APPID
  2
GENIUS_GENCFG_13
 70
     0
  0
APPID
  2
GENIUS_GE3CFG0_13
 70
     0
  0
APPID
  2
GENIUS_GENCFG0_13
 70
     0
  0
APPID
  2
GENIUS_GENCFG1_13
 70
     0
  0
APPID
  2
GENIUS_GENCFG2_13
 70
     0
  0
APPID
  2
GENIUS_GENCFG3_13
 70
     0
  0
APPID
  2
GENIUS_GENCFG4_13
 70
     0
  0
APPID
  2
GENIUS_GEVCFG0_13
 70
     0
  0
APPID
  2
GENIUS_GENHINW_13
 70
     0
  0
APPID
  2
GENIUS_FIRSTVISTXT_14
 70
     0
  0
APPID
  2
GENIUS_GENOBJ-N-LEADER_13
 70
     0
  0
APPID
  2
GEV_VCCNULL_SWITCH_OFF
 70
     0
  0
APPID
  2
GENIUS_GEFCFG0_13
 70
     0
  0
APPID
  2
GENIUS_GENZVEED_13
 70
     0
  0
APPID
  2
GENIUS_GENSCREG_13
 70
     0
  0
APPID
  2
GENIUS_DUMCFG0_13
 70
     0
  0
APPID
  2
GEVID936201362
 70
     0
  0
APPID
  2
GEVDC
 70
     0
  0
APPID
  2
GEVCON
 70
     0
  0
APPID
  2
VCC
 70
     0
  0
APPID
  2
GEVPT
 70
     0
  0
APPID
  2
GEVIT
 70
     0
  0
APPID
  2
GENBH
 70
     0
  0
APPID
  2
GEVMK
 70
     0
  0
APPID
  2
GENIUS_GENBH_13
 70
     0
  0
APPID
  2
GENIUS_GENOBJ-NBEHI-BHF_13
 70
     0
  0
APPID
  2
GENIUS_GENOBJ-NBEHI-BHB_13
 70
     0
  0
APPID
  2
GENIUS_GENOBJ-F-DESC_13
 70
     0
  0
APPID
  2
GENIUS_GEFDESC_14
 70
     0
  0
APPID
  2
GENIUS_GENOBJ-F-PART_13
 70
     0
  0
APPID
  2
GENIUS_GEFSTDP_13
 70
     0
  0
APPID
  2
GENIUS_GEFPARTINS_13
 70
     0
  0
APPID
  2
GENIUS_GENTRA_14
 70
     0
  0
APPID
  2
GENIUS_GENINF13_13
 70
     0
  0
APPID
  2
GENIUS_GENOBJ-N-INFOPT_13
 70
     0
  0
APPID
  2
GENIUS_GENOBJ-N-RSSYM_13
 70
     0
  0
APPID
  2
GENIUS_GENSYMENT_13
 70
     0
  0
APPID
  2
GENIUS_GENSCSYM_13
 70
     0
  0
APPID
  2
GENIUS_GEFINFNAM_13
 70
     0
  0
APPID
  2
GENIUS_GENOBJ-N-CEN_13
 70
     0
  0
APPID
  2
GENIUS_GENOBJ-N-CRS_13
 70
     0
  0
APPID
  2
GENIUS_GENOBJ-N-CRC_13
 70
     0
  0
APPID
  2
GENIUS_GENCRC_14
 70
     0
  0
APPID
  2
GEVID942827039
 70
     0
  0
APPID
  2
GEVID942827040
 70
     0
  0
APPID
  2
GEVID942827041
 70
     0
  0
APPID
  2
GENIUS_GENOBJ-F-SCPASSM_13
 70
     0
  0
APPID
  2
GENIUS_GENDIMSH_14
 70
     0
  0
APPID
  2
GEVID942827042
 70
     0
  0
APPID
  2
GEVID946020473
 70
     0
  0
APPID
  2
GEVID946020474
 70
     0
  0
APPID
  2
GEVID946020475
 70
     0
  0
APPID
  2
GENIUS_GENOBJ-N-HTC_13
 70
     0
  0
APPID
  2
GENIUS_GENHATCH_13
 70
     0
  0
APPID
  2
GEVID948854295
 70
     0
  0
APPID
  2
GEVID939402019
 70
     0
  0
APPID
  2
GEVID952919491
 70
     0
  0
APPID
  2
GEVID952919492
 70
     0
  0
APPID
  2
GENIUS_GEFWELD_13
 70
     0
  0
APPID
  2
GENIUS_GENOBJ-F-WELS_13
 70
     0
  0
APPID
  2
GEVID952919493
 70
     0
  0
APPID
  2
GENIUS_GENOBJ-N-RSBK_13
 70
     0
  0
APPID
  2
GENIUS_GENOBJ-N-LIB_13
 70
     0
  0
APPID
  2
GENIUS_GENSCALE_13
 70
     0
  0
APPID
  2
GEVID986376691
 70
     0
  0
APPID
  2
DCO15
 70
     0
  0
APPID
  2
ACAD_DSTYLE_DIMBREAK
 70
     0
  0
APPID
  2
ACAD_DSTYLE_DIMJAG
 70
     0
  0
APPID
  2
ACAD_NAV_VCDISPLAY
 70
     0
  0
APPID
  2
ACADANNOPO
 70
     0
  0
APPID
  2
ACAD_EXEMPT_FROM_CAD_STANDARDS
 70
     0
  0
APPID
  2
ACAD_MLEADERVER
 70
     0
  0
ENDTAB
  0
TABLE
  2
DIMSTYLE
 70
    22
  0
DIMSTYLE
  2
STANDARD
 70
     0
  3

  4

  5

  6

  7

 40
1.0
 41
0.18
 42
0.0625
 43
0.38
 44
0.18
 45
0.0
 46
0.0
 47
0.0
 48
0.0
140
0.18
141
0.09
142
0.0
143
25.399999999999999
144
1.0
145
0.0
146
1.0
147
0.09
 71
     0
 72
     0
 73
     1
 74
     1
 75
     0
 76
     0
 77
     0
 78
     0
170
     0
171
     2
172
     0
173
     0
174
     0
175
     0
176
     0
177
     0
178
     0
  0
DIMSTYLE
  2
ANNOTATIVE
 70
     0
  3

  4

  5

  6

  7

 40
1.0
 41
0.18
 42
0.0625
 43
0.38
 44
0.18
 45
0.0
 46
0.0
 47
0.0
 48
0.0
140
0.18
141
0.09
142
0.0
143
25.399999999999999
144
1.0
145
0.0
146
1.0
147
0.09
 71
     0
 72
     0
 73
     1
 74
     1
 75
     0
 76
     0
 77
     0
 78
     0
170
     0
171
     2
172
     0
173
     0
174
     0
175
     0
176
     0
177
     0
178
     0
  0
DIMSTYLE
  2
AM_ISO
 70
     0
  3

  4
"
  5

  6

  7

 40
1.0
 41
2.5
 42
1.0
 43
8.0
 44
0.6
 45
0.0
 46
0.0
 47
0.1
 48
0.1
140
2.5
141
0.0
142
0.0
143
0.0393701
144
1.0
145
0.0
146
0.71
147
0.8
 71
     0
 72
     0
 73
     0
 74
     0
 75
     0
 76
     0
 77
     1
 78
     8
170
     0
171
     2
172
     1
173
     0
174
     0
175
     0
176
   256
177
   256
178
     4
  0
DIMSTYLE
  2
AM_ISO$3
 70
     0
  3

  4
"
  5

  6

  7

 40
1.0
 41
2.5
 42
1.0
 43
8.0
 44
0.6
 45
0.0
 46
0.0
 47
0.1
 48
0.1
140
2.5
141
0.0
142
0.0
143
0.0393701
144
1.0
145
0.0
146
0.71
147
0.8
 71
     0
 72
     0
 73
     0
 74
     1
 75
     0
 76
     0
 77
     1
 78
     8
170
     0
171
     2
172
     0
173
     0
174
     0
175
     0
176
   256
177
   256
178
     4
  0
DIMSTYLE
  2
AM_ISO$4
 70
     0
  3

  4
"
  5

  6

  7

 40
1.0
 41
2.5
 42
1.0
 43
8.0
 44
0.6
 45
0.0
 46
0.0
 47
0.1
 48
0.1
140
2.5
141
0.0
142
0.0
143
0.0393701
144
1.0
145
0.0
146
0.71
147
0.8
 71
     0
 72
     0
 73
     0
 74
     1
 75
     0
 76
     0
 77
     1
 78
     8
170
     0
171
     2
172
     0
173
     0
174
     0
175
     0
176
   256
177
   256
178
     4
  0
DIMSTYLE
  2
AM_ISO$6
 70
     0
  3

  4
"
  5

  6

  7

 40
1.0
 41
2.5
 42
1.0
 43
8.0
 44
0.6
 45
0.0
 46
0.0
 47
0.1
 48
0.1
140
2.5
141
0.0
142
0.0
143
0.0393701
144
1.0
145
0.0
146
0.71
147
0.8
 71
     0
 72
     0
 73
     0
 74
     0
 75
     0
 76
     0
 77
     0
 78
     8
170
     0
171
     2
172
     1
173
     0
174
     0
175
     0
176
   256
177
   256
178
     4
  0
DIMSTYLE
  2
AM_ISO$7
 70
     0
  3

  4
"
  5

  6

  7

 40
1.0
 41
2.5
 42
1.0
 43
8.0
 44
0.6
 45
0.0
 46
0.0
 47
0.1
 48
0.1
140
2.5
141
0.0
142
0.0
143
0.0393701
144
1.0
145
0.0
146
0.71
147
0.8
 71
     0
 72
     0
 73
     0
 74
     0
 75
     0
 76
     0
 77
     1
 78
     8
170
     0
171
     2
172
     1
173
     0
174
     0
175
     0
176
   256
177
   256
178
     4
  0
DIMSTYLE
  2
AM_ISO$SF
 70
     0
  3

  4
"
  5

  6

  7

 40
1.0
 41
2.5
 42
1.0
 43
10.0
 44
1.0
 45
0.0
 46
0.0
 47
0.1
 48
0.1
140
3.5
141
0.0
142
0.0
143
0.0393701
144
1.0
145
0.0
146
0.71
147
1.5
 71
     0
 72
     0
 73
     0
 74
     0
 75
     1
 76
     1
 77
     1
 78
     8
170
     0
171
     2
172
     1
173
     0
174
     0
175
     0
176
   256
177
   256
178
     2
  0
DIMSTYLE
  2
AM_ISO$SH
 70
     0
  3

  4
"
  5

  6

  7

 40
1.0
 41
2.5
 42
1.0
 43
10.0
 44
1.0
 45
0.0
 46
0.0
 47
0.1
 48
0.1
140
3.5
141
0.0
142
0.0
143
0.0393701
144
2.0
145
0.0
146
0.71
147
1.5
 71
     0
 72
     0
 73
     0
 74
     0
 75
     1
 76
     1
 77
     1
 78
     8
170
     0
171
     2
172
     1
173
     1
174
     0
175
     0
176
   256
177
   256
178
     2
  0
DIMSTYLE
  2
AM_JIS
 70
     0
  3

  4
"
  5

  6

  7

 40
1.0
 41
2.5
 42
1.0
 43
7.0
 44
1.0
 45
0.0
 46
0.0
 47
0.1
 48
0.1000000001
140
2.5
141
0.0
142
0.0
143
0.0393701
144
1.0
145
0.0
146
0.71
147
1.0
 71
     0
 72
     0
 73
     0
 74
     0
 75
     0
 76
     0
 77
     3
 78
     8
170
     0
171
     2
172
     1
173
     0
174
     0
175
     0
176
   256
177
   256
178
     4
  0
DIMSTYLE
  2
AM_JIS$3
 70
     0
  3

  4
"
  5

  6

  7

 40
1.0
 41
2.5
 42
1.0
 43
7.0
 44
1.0
 45
0.0
 46
0.0
 47
0.1
 48
0.1000000001
140
2.5
141
0.0
142
0.0
143
0.0393701
144
1.0
145
0.0
146
0.71
147
1.0
 71
     0
 72
     0
 73
     0
 74
     1
 75
     0
 76
     0
 77
     3
 78
     8
170
     0
171
     2
172
     0
173
     0
174
     0
175
     0
176
   256
177
   256
178
     4
  0
DIMSTYLE
  2
AM_JIS$4
 70
     0
  3

  4
"
  5

  6

  7

 40
1.0
 41
2.5
 42
1.0
 43
7.0
 44
1.0
 45
0.0
 46
0.0
 47
0.1
 48
0.1000000001
140
2.5
141
0.0
142
0.0
143
0.0393701
144
1.0
145
0.0
146
0.71
147
1.0
 71
     0
 72
     0
 73
     0
 74
     0
 75
     0
 76
     0
 77
     3
 78
     8
170
     0
171
     2
172
     0
173
     0
174
     0
175
     0
176
   256
177
   256
178
     4
  0
DIMSTYLE
  2
AM_JIS$6
 70
     0
  3

  4
"
  5

  6

  7

 40
1.0
 41
2.5
 42
1.0
 43
7.0
 44
1.0
 45
0.0
 46
0.0
 47
0.1
 48
0.1000000001
140
2.5
141
0.0
142
0.0
143
0.0393701
144
1.0
145
0.0
146
0.71
147
1.0
 71
     0
 72
     0
 73
     0
 74
     0
 75
     0
 76
     0
 77
     0
 78
     8
170
     0
171
     2
172
     1
173
     0
174
     0
175
     0
176
   256
177
   256
178
     4
  0
DIMSTYLE
  2
AM_JIS$7
 70
     0
  3

  4
"
  5

  6

  7

 40
1.0
 41
2.5
 42
1.0
 43
7.0
 44
1.0
 45
0.0
 46
0.0
 47
0.1
 48
0.1000000001
140
2.5
141
0.0
142
0.0
143
0.0393701
144
1.0
145
0.0
146
0.71
147
1.0
 71
     0
 72
     0
 73
     0
 74
     0
 75
     0
 76
     0
 77
     3
 78
     8
170
     0
171
     2
172
     1
173
     0
174
     0
175
     0
176
   256
177
   256
178
     4
  0
DIMSTYLE
  2
AM_JIS$SF
 70
     0
  3

  4
"
  5

  6

  7

 40
1.0
 41
2.5
 42
1.0
 43
10.0
 44
1.0
 45
0.0
 46
0.0
 47
0.1
 48
0.1
140
3.5
141
0.0
142
0.0
143
0.0393701
144
1.0
145
0.0
146
0.71
147
1.5
 71
     0
 72
     0
 73
     0
 74
     0
 75
     1
 76
     1
 77
     3
 78
     8
170
     0
171
     2
172
     1
173
     0
174
     0
175
     0
176
   256
177
   256
178
     4
  0
DIMSTYLE
  2
AM_JIS$SH
 70
     0
  3

  4
"
  5

  6

  7

 40
1.0
 41
2.5
 42
1.0
 43
10.0
 44
1.0
 45
0.0
 46
0.0
 47
0.1
 48
0.1
140
3.5
141
0.0
142
0.0
143
0.0393701
144
1.0
145
0.0
146
0.71
147
1.5
 71
     0
 72
     0
 73
     0
 74
     0
 75
     1
 76
     0
 77
     3
 78
     8
170
     0
171
     2
172
     1
173
     1
174
     0
175
     0
176
   256
177
   256
178
     4
  0
DIMSTYLE
  2
AM_ANSI
 70
     0
  3

  4
mm
  5

  6

  7

 40
1.0
 41
0.1
 42
0.05
 43
0.5
 44
0.1
 45
0.0
 46
0.0
 47
0.1
 48
0.1
140
0.12
141
0.0
142
0.0
143
25.399999999999999
144
1.0
145
0.0
146
0.71
147
0.06
 71
     0
 72
     0
 73
     1
 74
     1
 75
     0
 76
     0
 77
     0
 78
     7
170
     0
171
     2
172
     0
173
     0
174
     0
175
     0
176
   256
177
   256
178
     2
  0
DIMSTYLE
  2
AM_ANSI$3
 70
     0
  3

  4
mm
  5

  6

  7

 40
1.0
 41
0.1
 42
0.05
 43
0.5
 44
0.1
 45
0.0
 46
0.0
 47
0.1
 48
0.1
140
0.12
141
0.0
142
0.0
143
25.399999999999999
144
1.0
145
0.0
146
0.71
147
0.06
 71
     0
 72
     0
 73
     1
 74
     1
 75
     0
 76
     0
 77
     0
 78
     7
170
     0
171
     2
172
     0
173
     0
174
     0
175
     0
176
   256
177
   256
178
     2
  0
DIMSTYLE
  2
AM_ANSI$4
 70
     0
  3

  4
mm
  5

  6

  7

 40
1.0
 41
0.1
 42
0.05
 43
0.5
 44
0.1
 45
0.0
 46
0.0
 47
0.1
 48
0.1
140
0.12
141
0.0
142
0.0
143
25.399999999999999
144
1.0
145
0.0
146
0.71
147
0.06
 71
     0
 72
     0
 73
     1
 74
     1
 75
     0
 76
     0
 77
     0
 78
     7
170
     0
171
     2
172
     0
173
     0
174
     0
175
     0
176
   256
177
   256
178
     2
  0
DIMSTYLE
  2
AM_ANSI$7
 70
     0
  3

  4
mm
  5

  6

  7

 40
1.0
 41
0.1
 42
0.05
 43
0.5
 44
0.1
 45
0.0
 46
0.0
 47
0.1
 48
0.1
140
0.24
141
0.0
142
0.0
143
25.399999999999999
144
1.0
145
0.0
146
0.71
147
0.06
 71
     0
 72
     0
 73
     1
 74
     1
 75
     0
 76
     0
 77
     0
 78
     7
170
     0
171
     2
172
     0
173
     0
174
     0
175
     0
176
   256
177
   256
178
     2
  0
DIMSTYLE
  2
AM_ANSI$SF
 70
     0
  3

  4
mm
  5

  6

  7

 40
1.0
 41
0.1
 42
0.05
 43
0.5
 44
0.1
 45
0.0
 46
0.0
 47
0.1
 48
0.1
140
0.12
141
0.0
142
0.0
143
25.399999999999999
144
1.0
145
0.0
146
0.71
147
0.06
 71
     0
 72
     0
 73
     1
 74
     1
 75
     1
 76
     1
 77
     0
 78
     7
170
     0
171
     2
172
     0
173
     0
174
     0
175
     0
176
   256
177
   256
178
     2
  0
DIMSTYLE
  2
AM_ANSI$SH
 70
     0
  3

  4
mm
  5

  6

  7

 40
1.0
 41
0.1
 42
0.05
 43
0.5
 44
0.1
 45
0.0
 46
0.0
 47
0.1
 48
0.1
140
0.12
141
0.0
142
0.0
143
25.399999999999999
144
1.0
145
0.0
146
0.71
147
0.06
 71
     0
 72
     0
 73
     1
 74
     1
 75
     1
 76
     1
 77
     0
 78
     7
170
     0
171
     2
172
     0
173
     1
174
     0
175
     0
176
   256
177
   256
178
     2
  0
ENDTAB
  0
ENDSEC
  0
SECTION
  2
BLOCKS
  0
BLOCK
  8
0
  2
$MODEL_SPACE
 70
     0
 10
0.0
 20
0.0
 30
0.0
  3
$MODEL_SPACE
  1

  0
ENDBLK
  5
30F7
  8
0
  0
BLOCK
 67
     1
  8
0
  2
$PAPER_SPACE
 70
     0
 10
0.0
 20
0.0
 30
0.0
  3
$PAPER_SPACE
  1

  0
ENDBLK
  5
30F3
 67
     1
  8
0
  0
BLOCK
  8
0
  2
GENAXEH
 70
     0
 10
0.0
 20
0.0
 30
0.0
  3
GENAXEH
  1

  0
LINE
  5
2E83
  8
0
 10
-1.0
 20
0.0
 30
0.0
 11
1.0
 21
0.0
 31
0.0
  0
ENDBLK
  5
2E84
  8
0
  0
BLOCK
  8
0
  2
_OPEN30
 70
     0
 10
0.0
 20
0.0
 30
0.0
  3
_OPEN30
  1

  0
LINE
  5
2E87
  8
0
 62
     0
 10
-1.0
 20
0.26794919
 30
0.0
 11
0.0
 21
0.0
 31
0.0
  0
LINE
  5
2E88
  8
0
 62
     0
 10
0.0
 20
0.0
 30
0.0
 11
-1.0
 21
-0.26794919
 31
0.0
  0
LINE
  5
2E89
  8
0
 62
     0
 10
0.0
 20
0.0
 30
0.0
 11
-1.0
 21
0.0
 31
0.0
  0
ENDBLK
  5
2E8A
  8
0
  0
BLOCK
  8
0
  2
_NONE
 70
     0
 10
0.0
 20
0.0
 30
0.0
  3
_NONE
  1

  0
ENDBLK
  5
2E8D
  8
0
  0
BLOCK
  8
0
  2
_ACMFILLEDHALF
 70
     0
 10
0.0
 20
0.0
 30
0.0
  3
_ACMFILLEDHALF
  1

  0
TRACE
  5
31ED
  8
AM_0
 62
     0
 10
-0.8
 20
0.0
 30
0.0
 11
-1.0
 21
0.166666666
 31
0.0
 12
0.0
 22
0.0
 32
0.0
 13
0.0
 23
0.0
 33
0.0
  0
LINE
  5
31EE
  8
AM_0
 62
     0
 10
-1.0
 20
0.0
 30
0.0
 11
-0.8
 21
0.0
 31
0.0
  0
ENDBLK
  5
31EC
  8
0
  0
ENDSEC
  0
SECTION
  2
ENTITIES
  0
LINE
  5
2E8F
  8
ﾁｭｳｼﾝｾﾝ1
 10
313.04380480172853
 20
847.26435981170039
 30
0.0
 11
666.48072400808292
 21
847.26435981170039
 31
0.0
  0
LINE
  5
2E90
  8
AM_0
 10
401.46668400808278
 20
773.76435981170039
 30
0.0
 11
401.46668400808278
 21
920.76441981170046
 31
0.0
  0
LINE
  5
2E91
  8
AM_0
 10
477.96675400808277
 20
797.69984981170035
 30
0.0
 11
477.96675400808277
 21
896.8288798117004
 31
0.0
  0
LINE
  5
2E92
  8
AM_0
 10
552.96675400808283
 20
756.26435981170039
 30
0.0
 11
552.96675400808283
 21
938.26435981170061
 31
0.0
  0
LINE
  5
2E93
  8
AM_0
 10
580.96675400808272
 20
887.02174981170015
 30
0.0
 11
580.96675400808272
 21
813.5069798117006
 31
0.0
  0
LINE
  5
2E94
  8
AM_0
 10
462.96675400808289
 20
707.52638981170026
 30
0.0
 11
462.96675400808289
 21
843.26435981170005
 31
0.0
  0
LINE
  5
2E95
  8
AM_0
 10
574.96675400808272
 20
933.14497981170041
 30
0.0
 11
574.96675400808272
 21
761.38380981170042
 31
0.0
  0
LINE
  5
2E96
  8
AM_0
 10
654.96675400808272
 20
826.26435981170005
 30
0.0
 11
654.96675400808272
 21
868.26435981170005
 31
0.0
  0
LINE
  5
2E97
  8
AM_0
 10
584.96675400808272
 20
824.76435981170039
 30
0.0
 11
584.96675400808272
 21
869.76435981170039
 31
0.0
  0
LINE
  5
2E98
  8
AM_0
 10
449.96668400808289
 20
711.05457981170036
 30
0.0
 11
449.96668400808289
 21
837.72492981170035
 31
0.0
  0
LINE
  5
2E99
  8
AM_0
 10
435.96675400808277
 20
733.15638981170014
 30
0.0
 11
435.96675400808277
 21
843.26435981170005
 31
0.0
  0
LINE
  5
2E9A
  8
AM_0
 10
507.05708400808282
 20
724.09028981170036
 30
0.0
 11
525.24592400808285
 21
724.72541981170014
 31
0.0
  0
LINE
  5
2E9B
  8
AM_0
 10
467.96675400808289
 20
707.26435981170039
 30
0.0
 11
577.10633400808285
 21
711.07557981170044
 31
0.0
  0
LINE
  5
2E9C
  8
AM_0
 10
401.46675400808289
 20
773.76429981170043
 30
0.0
 11
431.14125400808291
 21
772.72804981170043
 31
0.0
  0
LINE
  5
2E9D
  8
AM_0
 10
401.46675400808289
 20
807.78968981170033
 30
0.0
 11
435.96675400808277
 21
807.78968981170033
 31
0.0
  0
LINE
  5
2E9E
  8
AM_0
 10
401.46675400808289
 20
785.6856898117004
 30
0.0
 11
435.96675400808277
 21
785.6856898117004
 31
0.0
  0
LINE
  5
2E9F
  8
AM_0
 10
392.75739400808288
 20
711.20588981170044
 30
0.0
 11
467.96675400808289
 21
707.26435981170039
 31
0.0
  0
LINE
  5
2EA0
  8
AM_0
 10
392.6181740080828
 20
755.67219981170035
 30
0.0
 11
435.96681400808302
 21
759.46467981170042
 31
0.0
  0
ARC
  5
2EA1
  8
AM_0
 10
392.96675400808277
 20
715.20045981170006
 30
0.0
 40
4.0
 50
180.00001000000091
 51
266.99999000000008
  0
ARC
  5
2EA2
  8
AM_0
 10
392.96675400808277
 20
751.6873998117004
 30
0.0
 40
4.0
 50
95.00000199999856
 51
180.00001000000091
  0
LINE
  5
2EA3
  8
AM_0
 10
388.96675400808289
 20
715.20045981170006
 30
0.0
 11
388.96675400808289
 21
751.6873998117004
 31
0.0
  0
CIRCLE
  5
2EA4
  8
AM_0
 10
409.96675400808289
 20
732.26435981170039
 30
0.0
 40
9.5
  0
LINE
  5
2EA5
  8
AM_0
 10
477.96675400808277
 20
720.58918981170041
 30
0.0
 11
477.96675400808277
 21
767.69856981170039
 31
0.0
  0
LINE
  5
2EA6
  8
AM_0
 10
462.96668400808289
 20
718.13404981170049
 30
0.0
 11
476.03657400808271
 21
718.5904098117004
 31
0.0
  0
LINE
  5
2EA7
  8
AM_0
 10
438.44575400808299
 20
730.18531981170042
 30
0.0
 11
447.48768400808279
 21
728.59101981170045
 31
0.0
  0
ARC
  5
2EA8
  8
AM_0
 10
452.96668400808278
 20
711.05457981170036
 30
0.0
 40
3.0
 50
180.00001000000091
 51
266.99999000000008
  0
ARC
  5
2EA9
  8
AM_0
 10
446.96675400808289
 20
725.63661981170014
 30
0.0
 40
3.0
 50
0.0
 51
79.999998000001099
  0
ARC
  5
2EAA
  8
AM_0
 10
451.96675400808289
 20
720.51942981170043
 30
0.0
 40
2.0
 50
179.9999899999988
 51
268.00000999999861
  0
LINE
  5
2EAB
  8
AM_0
 10
436.96675400808277
 20
709.86915981170046
 30
0.0
 11
436.96675400808277
 21
717.71790981170045
 31
0.0
  0
ARC
  5
2EAC
  8
AM_0
 10
441.96675400808289
 20
721.55439981170014
 30
0.0
 40
5.0
 50
180.00001000000091
 51
277.13983000000007
  0
LINE
  5
2EAD
  8
AM_0
 10
449.96675400808277
 20
717.51740981170042
 30
0.0
 11
442.58821400808301
 21
716.59315981170039
 31
0.0
  0
LINE
  5
2EAE
  8
AM_0
 10
451.89698400808288
 20
718.52052981170016
 30
0.0
 11
462.96681400808302
 21
718.13398981170042
 31
0.0
  0
ARC
  5
2EAF
  8
AM_0
 10
438.96675400808289
 20
733.13978981170044
 30
0.0
 40
3.0
 50
179.9999899999988
 51
260.00000000000119
  0
ARC
  5
2EB0
  8
AM_0
 10
483.52741400808281
 20
717.98231981170045
 30
0.0
 40
10.0
 50
272.00000000000369
 51
316.51703999999847
  0
LINE
  5
2EB1
  8
AM_0
 10
479.89698400808282
 20
724.7049098117003
 30
0.0
 11
504.50001400808281
 21
725.56403981170035
 31
0.0
  0
LINE
  5
2EB2
  8
AM_0
 10
482.46675400808277
 20
711.02723981170038
 30
0.0
 11
482.46675400808277
 21
723.05958981170045
 31
0.0
  0
ARC
  5
2EB3
  8
AM_0
 10
479.96675400808289
 20
722.70612981170029
 30
0.0
 40
2.0
 50
91.999998000000545
 51
180.00001000000091
  0
ARC
  5
2EB4
  8
AM_0
 10
475.96675400808289
 20
720.58918981170041
 30
0.0
 40
2.0
 50
272.00000000000369
 51
0.0
  0
LINE
  5
2EB5
  8
AM_0
 10
490.7831540080827
 20
711.10090981170015
 30
0.0
 11
500.15034400808298
 21
720.97773981170042
 31
0.0
  0
ARC
  5
2EB6
  8
AM_0
 10
507.40608400808298
 20
714.09632981170046
 30
0.0
 40
10.0
 50
91.999998000000545
 51
136.5170399999985
  0
LINE
  5
2EB7
  8
AM_0
 10
449.96668400808289
 20
795.69984981170035
 30
0.0
 11
475.96675400808289
 21
795.69984981170035
 31
0.0
  0
LINE
  5
2EB8
  8
AM_0
 10
449.96668400808289
 20
769.69856981170017
 30
0.0
 11
475.96675400808289
 21
769.69856981170017
 31
0.0
  0
ARC
  5
2EB9
  8
AM_0
 10
430.96675400808289
 20
767.73109981170035
 30
0.0
 40
5.0
 50
0.0
 51
87.999999999996248
  0
POLYLINE
  5
2EBA
  8
AM_0
 66
     1
 10
0.0
 20
0.0
 30
0.0
  0
VERTEX
  5
2EBB
  8
AM_0
 10
482.89644400808282
 20
767.53286981170015
 30
0.0
 42
0.110757
  0
VERTEX
  5
2EBC
  8
AM_0
 10
495.77739400808269
 20
777.44060981170048
 30
0.0
 42
0.2037583
  0
VERTEX
  5
2EBD
  8
AM_0
 10
498.03511400808299
 20
785.10607981170017
 30
0.0
  0
VERTEX
  5
2EBE
  8
AM_0
 10
483.26531400808312
 20
804.02119981169994
 30
0.0
 42
-1.0
  0
SEQEND
  5
2EBF
  8
AM_0
  0
ARC
  5
2EC0
  8
AM_0
 10
475.96675400808289
 20
797.69984981170035
 30
0.0
 40
2.0
 50
270.0
 51
0.0
  0
LINE
  5
2EC1
  8
AM_0
 10
482.46675400808277
 20
769.69856981170017
 30
0.0
 11
482.46675400808277
 21
795.69984981170035
 31
0.0
  0
ARC
  5
2EC2
  8
AM_0
 10
475.96675400808289
 20
767.69856981170039
 30
0.0
 40
2.0
 50
0.0
 51
90.00000299999769
  0
ARC
  5
2EC3
  8
AM_0
 10
481.99482400808301
 20
769.31812981170037
 30
0.0
 40
2.0
 50
270.0
 51
296.80019999999712
  0
ARC
  5
2EC4
  8
AM_0
 10
481.51637400808278
 20
801.58375981170036
 30
0.0
 40
3.0
 50
54.348324000004709
 51
90.00000299999769
  0
LINE
  5
2EC5
  8
AM_0
 10
584.96675400808272
 20
826.26435981170005
 30
0.0
 11
654.96675400808272
 21
826.26435981170005
 31
0.0
  0
ARC
  5
2EC6
  8
AM_0
 10
569.9667540080826
 20
766.06361981170016
 30
0.0
 40
5.0
 50
272.00000000000369
 51
0.0
  0
ARC
  5
2EC7
  8
AM_0
 10
544.96675400808283
 20
756.26435981170039
 30
0.0
 40
8.0
 50
270.0
 51
0.0
  0
ARC
  5
2EC8
  8
AM_0
 10
524.96675400808283
 20
732.72053981170041
 30
0.0
 40
8.0
 50
272.00000000000369
 51
0.0
  0
LINE
  5
2EC9
  8
AM_0
 10
532.96675400808283
 20
714.71186981170035
 30
0.0
 11
532.96675400808283
 21
732.72053981170041
 31
0.0
  0
ARC
  5
2ECA
  8
AM_0
 10
537.96675400808283
 20
714.71186981170035
 30
0.0
 40
5.0
 50
180.00001000000091
 51
271.99999000000139
  0
ARC
  5
2ECB
  8
AM_0
 10
542.96675400808283
 20
738.26435981169993
 30
0.0
 40
10.0
 50
90.00000299999769
 51
180.00001000000091
  0
LINE
  5
2ECC
  8
AM_0
 10
532.96675400808283
 20
738.26435981169993
 30
0.0
 11
532.96675400808283
 21
732.72053981170041
 31
0.0
  0
LINE
  5
2ECD
  8
AM_0
 10
542.96675400808283
 20
748.26435981170039
 30
0.0
 11
544.96675400808283
 21
748.26435981170039
 31
0.0
  0
CIRCLE
  5
2ECE
  8
AM_0
 10
559.96675400808283
 20
732.26435981170039
 30
0.0
 40
9.5
  0
LINE
  5
2ECF
  8
AM_0
 10
580.96675400808272
 20
715.07313981170034
 30
0.0
 11
580.96675400808272
 21
754.45558981170029
 31
0.0
  0
ARC
  5
2ED0
  8
AM_0
 10
576.96675400808272
 20
715.07313981170034
 30
0.0
 40
4.0
 50
272.00000000000369
 51
0.0
  0
LINE
  5
2ED1
  8
AM_0
 10
560.29176400808285
 20
760.72266981170037
 30
0.0
 11
570.14125400808291
 21
761.06666981170042
 31
0.0
  0
ARC
  5
2ED2
  8
AM_0
 10
560.57093400808299
 20
752.72755981170042
 30
0.0
 40
8.0
 50
91.999998000000545
 51
167.22924999999881
  0
ARC
  5
2ED3
  8
AM_0
 10
576.96675400808272
 20
754.45558981170029
 30
0.0
 40
4.0
 50
0.0
 51
81.786789000000198
  0
ARC
  5
2ED4
  8
AM_0
 10
577.96675400808272
 20
761.38380981170042
 30
0.0
 40
3.0
 50
180.00001000000091
 51
261.78677999999701
  0
ARC
  5
2ED5
  8
AM_0
 10
577.96675400808272
 20
813.5069798117006
 30
0.0
 40
3.0
 50
315.0
 51
0.0
  0
ARC
  5
2ED6
  8
AM_0
 10
577.96675400808272
 20
813.5069798117006
 30
0.0
 40
3.0
 50
315.0
 51
0.0
  0
LINE
  5
2ED7
  8
AM_0
 10
575.84553400808295
 20
807.14301981170036
 30
0.0
 11
580.08814400808285
 21
811.38569981170042
 31
0.0
  0
ARC
  5
2ED8
  8
AM_0
 10
577.96675400808272
 20
805.02174981170015
 30
0.0
 40
3.0
 50
135.0
 51
180.00001000000091
  0
ARC
  5
2ED9
  8
AM_0
 10
577.96675400808272
 20
805.02174981170015
 30
0.0
 40
3.0
 50
135.0
 51
180.00001000000091
  0
LINE
  5
2EDA
  8
AM_0
 10
580.96681400808268
 20
824.76435981170039
 30
0.0
 11
584.96675400808272
 21
824.76435981170039
 31
0.0
  0
LINE
  5
2EDB
  8
AM_0
 10
507.05714400808301
 20
970.43842981170042
 30
0.0
 11
525.24598400808293
 21
969.8032998117003
 31
0.0
  0
LINE
  5
2EDC
  8
AM_0
 10
467.96675400808289
 20
987.26435981169993
 30
0.0
 11
577.10633400808285
 21
983.45313981170045
 31
0.0
  0
CIRCLE
  5
2EDD
  8
AM_0
 10
409.96675400808289
 20
962.26435981170061
 30
0.0
 40
9.5
  0
LINE
  5
2EDE
  8
AM_0
 10
435.96675400808277
 20
851.26429981170031
 30
0.0
 11
435.96675400808277
 21
961.40553981170012
 31
0.0
  0
LINE
  5
2EDF
  8
AM_0
 10
449.96668400808289
 20
856.80378981170054
 30
0.0
 11
449.96668400808289
 21
983.4741398117003
 31
0.0
  0
LINE
  5
2EE0
  8
AM_0
 10
462.96675400808289
 20
851.26429981170031
 30
0.0
 11
462.96675400808289
 21
987.00233981170049
 31
0.0
  0
LINE
  5
2EE1
  8
AM_0
 10
477.96675400808277
 20
973.9395298117006
 30
0.0
 11
477.96675400808277
 21
926.83015981170036
 31
0.0
  0
LINE
  5
2EE2
  8
AM_0
 10
388.96675400808289
 20
979.32826981170047
 30
0.0
 11
388.96675400808289
 21
942.84126981169982
 31
0.0
  0
LINE
  5
2EE3
  8
AM_0
 10
430.46681400808291
 20
851.26429981170031
 30
0.0
 11
463.46681400808302
 21
851.26429981170031
 31
0.0
  0
LINE
  5
2EE4
  8
AM_0
 10
430.46681400808291
 20
843.26435981170005
 30
0.0
 11
463.46681400808302
 21
843.26435981170005
 31
0.0
  0
LINE
  5
2EE5
  8
AM_0
 10
392.6181740080828
 20
938.8565298117004
 30
0.0
 11
435.96681400808302
 21
935.06397981170062
 31
0.0
  0
LINE
  5
2EE6
  8
AM_0
 10
401.46675400808289
 20
920.76441981170046
 30
0.0
 11
431.14125400808291
 21
921.80067981170043
 31
0.0
  0
LINE
  5
2EE7
  8
AM_0
 10
401.46675400808289
 20
886.73902981170045
 30
0.0
 11
435.96675400808277
 21
886.73902981170045
 31
0.0
  0
LINE
  5
2EE8
  8
AM_0
 10
401.46675400808289
 20
908.84297981169993
 30
0.0
 11
435.96675400808277
 21
908.84297981169993
 31
0.0
  0
ARC
  5
2EE9
  8
AM_0
 10
430.46681400808291
 20
847.26435981170039
 30
0.0
 40
3.9999962
 50
90.00000299999769
 51
270.0
  0
ARC
  5
2EEA
  8
AM_0
 10
392.96675400808277
 20
942.84126981169982
 30
0.0
 40
4.0
 50
180.00001000000091
 51
265.00001000000032
  0
POLYLINE
  5
2EEB
  8
AM_0
 66
     1
 10
0.0
 20
0.0
 30
0.0
  0
VERTEX
  5
2EEC
  8
AM_0
 10
482.89644400808282
 20
926.9958498117004
 30
0.0
 42
-0.110757
  0
VERTEX
  5
2EED
  8
AM_0
 10
495.77739400808269
 20
917.08810981170029
 30
0.0
 42
-0.2037583
  0
VERTEX
  5
2EEE
  8
AM_0
 10
498.03511400808299
 20
909.42263981169992
 30
0.0
  0
VERTEX
  5
2EEF
  8
AM_0
 10
483.26531400808312
 20
890.50751981170015
 30
0.0
 42
-1.0
  0
SEQEND
  5
2EF0
  8
AM_0
  0
ARC
  5
2EF1
  8
AM_0
 10
446.96681400808302
 20
847.26435981170039
 30
0.0
 40
10.0
 50
203.5782699999985
 51
336.4217200000013
  0
ARC
  5
2EF2
  8
AM_0
 10
446.96681400808302
 20
847.26435981170039
 30
0.0
 40
10.0
 50
23.57803699999776
 51
156.42196000000081
  0
ARC
  5
2EF3
  8
AM_0
 10
463.46681400808302
 20
847.26435981170039
 30
0.0
 40
3.9999962
 50
270.0
 51
90.00000299999769
  0
ARC
  5
2EF4
  8
AM_0
 10
481.51637400808278
 20
892.94496981170039
 30
0.0
 40
3.0
 50
270.0
 51
305.65166999999718
  0
LINE
  5
2EF5
  8
AM_0
 10
449.96668400808289
 20
924.83015981170036
 30
0.0
 11
475.96675400808289
 21
924.83015981170036
 31
0.0
  0
LINE
  5
2EF6
  8
AM_0
 10
449.96668400808289
 20
898.8288798117004
 30
0.0
 11
475.96675400808289
 21
898.8288798117004
 31
0.0
  0
ARC
  5
2EF7
  8
AM_0
 10
430.96675400808289
 20
926.79762981170029
 30
0.0
 40
5.0
 50
272.00000000000369
 51
0.0
  0
LINE
  5
2EF8
  8
AM_0
 10
482.46675400808277
 20
924.83015981170036
 30
0.0
 11
482.46675400808277
 21
898.8288798117004
 31
0.0
  0
ARC
  5
2EF9
  8
AM_0
 10
475.96675400808289
 20
896.8288798117004
 30
0.0
 40
2.0
 50
0.0
 51
90.00000299999769
  0
ARC
  5
2EFA
  8
AM_0
 10
475.96675400808289
 20
926.83015981170036
 30
0.0
 40
2.0
 50
270.0
 51
0.0
  0
ARC
  5
2EFB
  8
AM_0
 10
481.99482400808301
 20
925.21058981170052
 30
0.0
 40
2.0
 50
63.199809000002318
 51
90.00000299999769
  0
LINE
  5
2EFC
  8
AM_0
 10
392.75739400808288
 20
983.32276981170048
 30
0.0
 11
467.96675400808289
 21
987.26435981169993
 31
0.0
  0
ARC
  5
2EFD
  8
AM_0
 10
392.96675400808277
 20
979.32826981170047
 30
0.0
 40
4.0
 50
92.999999000001679
 51
180.00001000000091
  0
LINE
  5
2EFE
  8
AM_0
 10
462.96675400808289
 20
976.3946698117004
 30
0.0
 11
476.03663400808267
 21
975.93830981170049
 31
0.0
  0
ARC
  5
2EFF
  8
AM_0
 10
452.96668400808278
 20
983.4741398117003
 30
0.0
 40
3.0
 50
92.999999000001679
 51
180.00001000000091
  0
ARC
  5
2F00
  8
AM_0
 10
446.96675400808289
 20
968.89210981170015
 30
0.0
 40
3.0
 50
280.00001000000128
 51
0.0
  0
ARC
  5
2F01
  8
AM_0
 10
451.96675400808289
 20
974.00935981170062
 30
0.0
 40
2.0
 50
91.999998000000545
 51
180.00001000000091
  0
ARC
  5
2F02
  8
AM_0
 10
441.96675400808289
 20
972.97431981170018
 30
0.0
 40
5.0
 50
82.860167000000104
 51
180.00001000000091
  0
LINE
  5
2F03
  8
AM_0
 10
436.96675400808277
 20
984.65955981170032
 30
0.0
 11
436.96675400808277
 21
976.81080981170044
 31
0.0
  0
LINE
  5
2F04
  8
AM_0
 10
449.96668400808289
 20
977.01130981170036
 30
0.0
 11
442.58821400808301
 21
977.93556981169991
 31
0.0
  0
LINE
  5
2F05
  8
AM_0
 10
438.445814008083
 20
964.34339981170035
 30
0.0
 11
447.48768400808279
 21
965.93769981170044
 31
0.0
  0
ARC
  5
2F06
  8
AM_0
 10
438.96675400808289
 20
961.38892981170045
 30
0.0
 40
3.0
 50
99.999999999998593
 51
180.00001000000091
  0
LINE
  5
2F07
  8
AM_0
 10
451.89698400808288
 20
976.00813981170029
 30
0.0
 11
462.96675400808289
 21
976.3946698117004
 31
0.0
  0
ARC
  5
2F08
  8
AM_0
 10
483.52741400808281
 20
976.54633981170036
 30
0.0
 40
10.0
 50
43.482964999999631
 51
87.999999999996248
  0
LINE
  5
2F09
  8
AM_0
 10
479.89698400808282
 20
969.82380981170036
 30
0.0
 11
504.50001400808281
 21
968.96467981170053
 31
0.0
  0
LINE
  5
2F0A
  8
AM_0
 10
482.46675400808277
 20
971.54420981170006
 30
0.0
 11
482.46675400808277
 21
983.49769981169993
 31
0.0
  0
ARC
  5
2F0B
  8
AM_0
 10
479.96675400808289
 20
971.82258981169991
 30
0.0
 40
2.0
 50
180.00001000000091
 51
267.99999999999631
  0
ARC
  5
2F0C
  8
AM_0
 10
475.96675400808289
 20
973.9395298117006
 30
0.0
 40
2.0
 50
0.0
 51
87.999999999996248
  0
LINE
  5
2F0D
  8
AM_0
 10
490.78321400808301
 20
983.42774981170032
 30
0.0
 11
500.15034400808298
 21
973.55097981170047
 31
0.0
  0
ARC
  5
2F0E
  8
AM_0
 10
507.40608400808298
 20
980.43238981170043
 30
0.0
 40
10.0
 50
223.48296000000141
 51
267.99999999999631
  0
CIRCLE
  5
2F0F
  8
AM_0
 10
559.96675400808283
 20
962.26435981170061
 30
0.0
 40
9.5
  0
LINE
  5
2F10
  8
AM_0
 10
532.96675400808283
 20
956.26435981170061
 30
0.0
 11
532.96675400808283
 21
961.80818981170034
 31
0.0
  0
LINE
  5
2F11
  8
ﾁｭｳｼﾝｾﾝ1
 10
559.96675400808283
 20
979.76435981170005
 30
0.0
 11
559.96675400808283
 21
944.76435981170039
 31
0.0
  0
LINE
  5
2F12
  8
AM_0
 10
580.96675400808272
 20
979.45558981170029
 30
0.0
 11
580.96675400808272
 21
940.07313981170034
 31
0.0
  0
LINE
  5
2F13
  8
AM_0
 10
584.96675400808272
 20
868.26435981170005
 30
0.0
 11
654.96675400808272
 21
868.26435981170005
 31
0.0
  0
ARC
  5
2F14
  8
AM_0
 10
577.96675400808272
 20
895.50697981170072
 30
0.0
 40
3.0
 50
180.00001000000091
 51
225.0
  0
ARC
  5
2F15
  8
AM_0
 10
577.96675400808272
 20
895.50697981170072
 30
0.0
 40
3.0
 50
179.9999899999988
 51
225.0
  0
LINE
  5
2F16
  8
AM_0
 10
580.96681400808268
 20
869.76435981170039
 30
0.0
 11
584.96675400808272
 21
869.76435981170039
 31
0.0
  0
LINE
  5
2F17
  8
AM_0
 10
575.84547400808287
 20
893.38569981170042
 30
0.0
 11
580.08814400808285
 21
889.14301981170047
 31
0.0
  0
ARC
  5
2F18
  8
AM_0
 10
577.96675400808272
 20
887.02174981170015
 30
0.0
 40
3.0
 50
0.0
 51
44.999998000001611
  0
ARC
  5
2F19
  8
AM_0
 10
577.96675400808272
 20
887.02174981170015
 30
0.0
 40
3.0
 50
0.0
 51
45.000001000003799
  0
ARC
  5
2F1A
  8
AM_0
 10
544.96675400808283
 20
938.26435981170061
 30
0.0
 40
8.0
 50
0.0
 51
90.00000299999769
  0
ARC
  5
2F1B
  8
AM_0
 10
542.96675400808283
 20
956.26435981170061
 30
0.0
 40
10.0
 50
180.00001000000091
 51
270.0
  0
LINE
  5
2F1C
  8
AM_0
 10
542.96675400808283
 20
946.26435981170061
 30
0.0
 11
544.96675400808283
 21
946.26435981170061
 31
0.0
  0
LINE
  5
2F1D
  8
AM_0
 10
560.29182400808304
 20
933.8060498117004
 30
0.0
 11
570.14125400808291
 21
933.46204981170013
 31
0.0
  0
ARC
  5
2F1E
  8
AM_0
 10
560.57093400808299
 20
941.80116981170045
 30
0.0
 40
8.0
 50
192.7707500000011
 51
267.99999999999631
  0
ARC
  5
2F1F
  8
AM_0
 10
576.96675400808272
 20
940.07313981170034
 30
0.0
 40
4.0
 50
278.2132199999964
 51
0.0
  0
ARC
  5
2F20
  8
AM_0
 10
577.96675400808272
 20
933.14497981170041
 30
0.0
 40
3.0
 50
98.213209000002095
 51
180.00001000000091
  0
ARC
  5
2F21
  8
AM_0
 10
569.9667540080826
 20
928.46510981170036
 30
0.0
 40
5.0
 50
0.0
 51
87.999999999996248
  0
LINE
  5
2F22
  8
AM_0
 10
598.96675400808272
 20
853.26435981169993
 30
0.0
 11
654.96675400808272
 21
853.26435981169993
 31
0.0
  0
LINE
  5
2F23
  8
AM_0
 10
598.96675400808272
 20
841.26435981170039
 30
0.0
 11
654.96675400808272
 21
841.26435981170039
 31
0.0
  0
ARC
  5
2F24
  8
AM_0
 10
598.96675400808272
 20
847.26435981170039
 30
0.0
 40
6.0000037999999991
 50
90.00000299999769
 51
270.0
  0
LINE
  5
2F25
  8
AM_0
 10
598.96675400808272
 20
853.26435981169993
 30
0.0
 11
598.96675400808272
 21
841.26435981170039
 31
0.0
  0
LINE
  5
2F26
  8
ﾁｭｳｼﾝｾﾝ1
 10
542.46675400808283
 20
962.26435981170061
 30
0.0
 11
577.46675400808272
 21
962.26435981170061
 31
0.0
  0
ARC
  5
2F27
  8
AM_0
 10
524.96675400808283
 20
961.80818981170034
 30
0.0
 40
8.0
 50
0.0
 51
87.999999999996248
  0
LINE
  5
2F28
  8
AM_0
 10
532.96675400808283
 20
979.81684981169997
 30
0.0
 11
532.96675400808283
 21
961.80818981170034
 31
0.0
  0
ARC
  5
2F29
  8
AM_0
 10
537.96675400808283
 20
979.81684981169997
 30
0.0
 40
5.0
 50
87.999999999996248
 51
180.00001000000091
  0
ARC
  5
2F2A
  8
AM_0
 10
576.96675400808272
 20
979.45558981170029
 30
0.0
 40
4.0
 50
0.0
 51
87.999999999996248
  0
LINE
  5
2F2B
  8
ﾁｭｳｼﾝｾﾝ1
 10
559.96675400808283
 20
749.76435981169993
 30
0.0
 11
559.96675400808283
 21
714.76435981170039
 31
0.0
  0
LINE
  5
2F2C
  8
ﾁｭｳｼﾝｾﾝ1
 10
542.46675400808283
 20
732.26435981170039
 30
0.0
 11
577.46675400808272
 21
732.26435981170039
 31
0.0
  0
LINE
  5
2F2D
  8
ﾁｭｳｼﾝｾﾝ1
 10
409.96675400808289
 20
749.76435981169993
 30
0.0
 11
409.96675400808289
 21
714.76435981170039
 31
0.0
  0
LINE
  5
2F2E
  8
ﾁｭｳｼﾝｾﾝ1
 10
392.46675400808277
 20
732.26435981170039
 30
0.0
 11
427.46675400808277
 21
732.26435981170039
 31
0.0
  0
LINE
  5
2F2F
  8
ﾁｭｳｼﾝｾﾝ1
 10
409.96675400808289
 20
979.76435981170005
 30
0.0
 11
409.96675400808289
 21
944.76435981170039
 31
0.0
  0
LINE
  5
2F30
  8
ﾁｭｳｼﾝｾﾝ1
 10
392.46675400808277
 20
962.26435981170061
 30
0.0
 11
427.46675400808277
 21
962.26435981170061
 31
0.0
  0
LINE
  5
2F31
  8
AM_0
 10
584.96675400808272
 20
444.9568787617448
 30
0.0
 11
654.96675400808272
 21
444.9568787617448
 31
0.0
  0
LINE
  5
2F32
  8
AM_0
 10
584.96675400808272
 20
486.95690876174478
 30
0.0
 11
654.96675400808272
 21
486.95690876174478
 31
0.0
  0
LINE
  5
2F33
  8
ﾁｭｳｼﾝｾﾝ1
 10
407.35469338990652
 20
465.9568787617448
 30
0.0
 11
662.91115400808314
 21
465.9568787617448
 31
0.0
  0
LINE
  5
2F34
  8
AM_0
 10
462.96680400808282
 20
349.5052787617451
 30
0.0
 11
462.96680400808282
 21
557.95687376174476
 31
0.0
  0
LINE
  5
2F35
  8
AM_0
 10
483.36345400808278
 20
448.4444287617448
 30
0.0
 11
495.50215400808298
 21
434.53100376174478
 31
0.0
  0
LINE
  5
2F36
  8
AM_0
 10
482.46675400808277
 20
440.44470376174479
 30
0.0
 11
482.46675400808277
 21
413.3325487617447
 31
0.0
  0
LINE
  5
2F37
  8
AM_0
 10
532.96680400808293
 20
500.1297237617448
 30
0.0
 11
532.96680400808293
 21
323.95690876174501
 31
0.0
  0
LINE
  5
2F38
  8
AM_0
 10
574.96675400808272
 20
465.9568787617448
 30
0.0
 11
574.96675400808272
 21
319.70287876174501
 31
0.0
  0
LINE
  5
2F39
  8
AM_0
 10
552.96680400808293
 20
369.55474876174492
 30
0.0
 11
552.96680400808293
 21
541.80227376174469
 31
0.0
  0
LINE
  5
2F3A
  8
AM_0
 10
580.96680400808293
 20
465.9568787617448
 30
0.0
 11
580.96680400808293
 21
432.19952376174479
 31
0.0
  0
LINE
  5
2F3B
  8
AM_0
 10
435.96680400808282
 20
316.509303761745
 30
0.0
 11
435.96680400808282
 21
555.95687376174476
 31
0.0
  0
LINE
  5
2F3C
  8
AM_0
 10
449.96675400808277
 20
332.73107876174493
 30
0.0
 11
449.96675400808277
 21
555.57157376174484
 31
0.0
  0
LINE
  5
2F3D
  8
AM_0
 10
401.46675400808277
 20
354.45684876174482
 30
0.0
 11
401.46675400808277
 21
501.45692376174492
 31
0.0
  0
LINE
  5
2F3E
  8
AM_0
 10
333.46675400808277
 20
526.95687876174486
 30
0.0
 11
333.46675400808277
 21
328.9568787617448
 31
0.0
  0
LINE
  5
2F3F
  8
AM_0
 10
323.46675400808277
 20
327.9568787617448
 30
0.0
 11
323.46675400808277
 21
527.95687876174475
 31
0.0
  0
LINE
  5
2F40
  8
AM_0
 10
386.46675400808277
 20
501.4568787617448
 30
0.0
 11
386.46675400808277
 21
354.4568787617448
 31
0.0
  0
LINE
  5
2F41
  8
AM_0
 10
367.46675400808277
 20
366.11212376174478
 30
0.0
 11
367.46675400808277
 21
489.43329076174479
 31
0.0
  0
LINE
  5
2F42
  8
AM_0
 10
367.46675400808277
 20
360.5547997617449
 30
0.0
 11
336.20528600808262
 21
357.81977576174489
 31
0.0
  0
LINE
  5
2F43
  8
ﾁｭｳｼﾝｾﾝ1
 10
313.04380480172853
 20
427.9568787617448
 30
0.0
 11
432.14670151647448
 21
427.9568787617448
 31
0.0
  0
LINE
  5
2F44
  8
AM_0
 10
323.46675400808277
 20
327.9568787617448
 30
0.0
 11
332.46675400808277
 21
327.9568787617448
 31
0.0
  0
ARC
  5
2F45
  8
AM_0
 10
332.46675400808277
 20
328.9568787617448
 30
0.0
 40
1.0
 50
270.0
 51
0.0
  0
ARC
  5
2F46
  8
AM_0
 10
336.46675400808277
 20
354.831191761745
 30
0.0
 40
3.0
 50
94.99999999999973
 51
180.0
  0
LINE
  5
2F47
  8
AM_0
 10
580.96680400808293
 20
311.9569087617449
 30
0.0
 11
580.96680400808293
 21
290.95687376174482
 31
0.0
  0
LINE
  5
2F48
  8
AM_0
 10
388.96675400808277
 20
311.9569087617449
 30
0.0
 11
388.96675400808277
 21
290.95687376174482
 31
0.0
  0
LINE
  5
2F49
  8
ｶｸﾚｾﾝ2
 10
569.46680400808316
 20
315.9568787617448
 30
0.0
 11
569.46680400808316
 21
290.95687376174482
 31
0.0
  0
LINE
  5
2F4A
  8
ｶｸﾚｾﾝ2
 10
550.46680400808282
 20
315.9568787617448
 30
0.0
 11
550.46680400808282
 21
290.95687376174482
 31
0.0
  0
LINE
  5
2F4B
  8
ｶｸﾚｾﾝ2
 10
419.46680400808322
 20
315.9568787617448
 30
0.0
 11
419.46680400808322
 21
290.95687376174482
 31
0.0
  0
LINE
  5
2F4C
  8
ｶｸﾚｾﾝ2
 10
400.46680400808282
 20
315.9568787617448
 30
0.0
 11
400.46680400808282
 21
290.95687376174482
 31
0.0
  0
LINE
  5
2F4D
  8
AM_0
 10
388.96675400808277
 20
290.95687376174482
 30
0.0
 11
580.96680400808293
 21
290.95687376174482
 31
0.0
  0
LINE
  5
2F4E
  8
AM_0
 10
467.9668040080827
 20
401.76879876174479
 30
0.0
 11
477.96680400808282
 21
401.76879876174479
 31
0.0
  0
ARC
  5
2F4F
  8
AM_0
 10
474.96675400808277
 20
408.3465587617448
 30
0.0
 40
3.0000000500000001
 50
0.0
 51
90.00000299999769
  0
LINE
  5
2F50
  8
AM_0
 10
467.9668040080827
 20
401.76879876174479
 30
0.0
 11
467.9668040080827
 21
355.95687876174492
 31
0.0
  0
LINE
  5
2F51
  8
AM_0
 10
392.96680400808282
 20
315.9568787617448
 30
0.0
 11
433.04555400808277
 21
315.9568787617448
 31
0.0
  0
LINE
  5
2F52
  8
AM_0
 10
409.20520400808289
 20
345.217313761745
 30
0.0
 11
433.22815400808292
 21
343.1155687617449
 31
0.0
  0
ARC
  5
2F53
  8
AM_0
 10
392.96680400808282
 20
311.9569087617449
 30
0.0
 40
4.000000049999997
 50
90.00000299999769
 51
180.00001000000091
  0
LINE
  5
2F54
  8
AM_0
 10
386.46675400808277
 20
354.4568787617448
 30
0.0
 11
401.46675400808277
 21
354.4568787617448
 31
0.0
  0
LINE
  5
2F55
  8
AM_0
 10
384.64106500808282
 20
359.05224276174482
 30
0.0
 11
367.46675400808277
 21
360.5547997617449
 31
0.0
  0
ARC
  5
2F56
  8
AM_0
 10
384.46675400808277
 20
357.05985276174482
 30
0.0
 40
2.0
 50
0.0
 51
85.000000000000256
  0
ARC
  5
2F57
  8
AM_0
 10
409.4668040080831
 20
348.20586876174508
 30
0.0
 40
3.0000000500000001
 50
179.9999899999988
 51
265.00000000000028
  0
LINE
  5
2F58
  8
AM_0
 10
406.46675400808277
 20
348.20586876174508
 30
0.0
 11
406.46675400808277
 21
365.95687876174492
 31
0.0
  0
LINE
  5
2F59
  8
AM_0
 10
401.46670400808267
 20
354.45684876174482
 30
0.0
 11
403.57140400808282
 21
354.38335876174477
 31
0.0
  0
ARC
  5
2F5A
  8
AM_0
 10
403.46680400808287
 20
351.38522376174512
 30
0.0
 40
3.0000000500000001
 50
0.0
 51
88.000000000002899
  0
LINE
  5
2F5B
  8
AM_0
 10
466.9188540080828
 20
354.60473376174508
 30
0.0
 11
439.36880400808298
 21
319.0563037617448
 31
0.0
  0
ARC
  5
2F5C
  8
AM_0
 10
433.04555400808277
 20
323.95690876174501
 30
0.0
 40
8.0
 50
270.0
 51
322.22431999999588
  0
ARC
  5
2F5D
  8
AM_0
 10
432.96680400808287
 20
340.12698376174501
 30
0.0
 40
3.0000000500000001
 50
0.0
 51
84.999996999998572
  0
ARC
  5
2F5E
  8
AM_0
 10
462.96680400808282
 20
357.66756876174492
 30
0.0
 40
5.0
 50
322.22431999999588
 51
0.0
  0
LINE
  5
2F5F
  8
AM_0
 10
401.46675400808277
 20
388.48220876174491
 30
0.0
 11
435.96680400808282
 21
388.48220876174491
 31
0.0
  0
LINE
  5
2F60
  8
AM_0
 10
401.46675400808277
 20
366.376918761745
 30
0.0
 11
430.96675400808289
 21
366.376918761745
 31
0.0
  0
LINE
  5
2F61
  8
AM_0
 10
388.3153160080829
 20
366.30687876174483
 30
0.0
 11
399.77475600808282
 21
366.30687876174483
 31
0.0
  0
LINE
  5
2F62
  8
AM_0
 10
462.96680400808282
 20
411.34658876174478
 30
0.0
 11
474.96675400808277
 21
411.34658876174478
 31
0.0
  0
LINE
  5
2F63
  8
AM_0
 10
449.96675400808277
 20
412.94509876174482
 30
0.0
 11
462.96680400808282
 21
412.94509876174482
 31
0.0
  0
ARC
  5
2F64
  8
AM_0
 10
544.96675400808283
 20
369.55474876174492
 30
0.0
 40
8.0
 50
270.0
 51
0.0
  0
ARC
  5
2F65
  8
AM_0
 10
540.96680400808293
 20
323.95690876174501
 30
0.0
 40
8.0
 50
180.00001000000091
 51
270.0
  0
LINE
  5
2F66
  8
AM_0
 10
540.96680400808293
 20
315.9568787617448
 30
0.0
 11
576.96680400808339
 21
315.9568787617448
 31
0.0
  0
ARC
  5
2F67
  8
AM_0
 10
578.96675400808249
 20
319.70287876174501
 30
0.0
 40
4.000000049999997
 50
179.9999899999988
 51
255.52248999999699
  0
ARC
  5
2F68
  8
AM_0
 10
576.96680400808339
 20
311.9569087617449
 30
0.0
 40
4.000000049999997
 50
0.0
 51
90.00000299999769
  0
LINE
  5
2F69
  8
AM_0
 10
544.96675400808283
 20
361.5547487617448
 30
0.0
 11
536.4501040080828
 21
361.5547487617448
 31
0.0
  0
LINE
  5
2F6A
  8
AM_0
 10
477.96680400808282
 20
408.3465587617448
 30
0.0
 11
477.96680400808282
 21
401.76879876174479
 31
0.0
  0
ARC
  5
2F6B
  8
AM_0
 10
487.96680400808282
 20
427.9568787617448
 30
0.0
 40
10.0
 50
306.82304000000198
 51
41.102821999997772
  0
LINE
  5
2F6C
  8
AM_0
 10
480.72445400808277
 20
410.041928761745
 30
0.0
 11
493.9602540080831
 21
419.9519037617448
 31
0.0
  0
ARC
  5
2F6D
  8
AM_0
 10
577.96680400808293
 20
423.71426376174492
 30
0.0
 40
3.0000000500000001
 50
135.0
 51
180.00001000000091
  0
LINE
  5
2F6E
  8
AM_0
 10
575.84545400808292
 20
425.835538761745
 30
0.0
 11
580.08810400808295
 21
430.07818376174481
 31
0.0
  0
ARC
  5
2F6F
  8
AM_0
 10
577.96680400808293
 20
432.19952376174479
 30
0.0
 40
3.0000000500000001
 50
315.0
 51
0.0
  0
LINE
  5
2F70
  8
AM_0
 10
367.46675400808277
 20
495.35895776174482
 30
0.0
 11
336.20528600808262
 21
498.093981761745
 31
0.0
  0
ARC
  5
2F71
  8
AM_0
 10
336.46675400808277
 20
501.08256576174477
 30
0.0
 40
3.0
 50
180.0
 51
265.00000000000028
  0
LINE
  5
2F72
  8
AM_0
 10
323.46675400808277
 20
527.95687876174475
 30
0.0
 11
332.46675400808277
 21
527.95687876174475
 31
0.0
  0
ARC
  5
2F73
  8
AM_0
 10
332.46675400808277
 20
526.95687876174486
 30
0.0
 40
1.0
 50
0.0
 51
90.0
  0
CIRCLE
  5
2F74
  8
AM_0
 10
446.9668040080831
 20
578.45687376174487
 30
0.0
 40
12.5
  0
ARC
  5
2F75
  8
AM_0
 10
446.9668040080831
 20
578.45687376174487
 30
0.0
 40
20.500000499999992
 50
304.61364000000401
 51
235.3863500000021
  0
ARC
  5
2F76
  8
AM_0
 10
474.96675400808277
 20
445.96865876174479
 30
0.0
 40
3.0000000500000001
 50
270.0
 51
0.0
  0
ARC
  5
2F77
  8
AM_0
 10
474.96675400808277
 20
529.28117376174475
 30
0.0
 40
3.0000000500000001
 50
0.0
 51
90.00000299999769
  0
LINE
  5
2F78
  8
AM_0
 10
451.22280400808302
 20
549.20042376174479
 30
0.0
 11
477.96680400808282
 21
549.20042376174479
 31
0.0
  0
LINE
  5
2F79
  8
AM_0
 10
462.96680400808282
 20
550.54017376174477
 30
0.0
 11
481.65825400808308
 21
550.54017376174477
 31
0.0
  0
ARC
  5
2F7A
  8
AM_0
 10
475.9668040080827
 20
555.50167376174488
 30
0.0
 40
2.0000000500000001
 50
0.0
 51
88.000000000002899
  0
ARC
  5
2F7B
  8
AM_0
 10
479.96675400808311
 20
554.07822376174477
 30
0.0
 40
2.0000000500000001
 50
179.9999899999988
 51
268.00000999999861
  0
LINE
  5
2F7C
  8
AM_0
 10
401.46675400808277
 20
467.43154876174481
 30
0.0
 11
435.96680400808282
 21
467.43154876174481
 31
0.0
  0
LINE
  5
2F7D
  8
AM_0
 10
401.46670400808267
 20
501.45687376174482
 30
0.0
 11
431.14125400808291
 21
502.49312376174481
 31
0.0
  0
LINE
  5
2F7E
  8
AM_0
 10
401.46675400808277
 20
489.536928761745
 30
0.0
 11
430.96675400808289
 21
489.536928761745
 31
0.0
  0
LINE
  5
2F7F
  8
AM_0
 10
388.3153160080829
 20
489.60687876174478
 30
0.0
 11
399.77475600808282
 21
489.60687876174478
 31
0.0
  0
LINE
  5
2F80
  8
AM_0
 10
386.46675400808277
 20
501.4568787617448
 30
0.0
 11
401.46675400808277
 21
501.4568787617448
 31
0.0
  0
LINE
  5
2F81
  8
AM_0
 10
384.64106500808282
 20
496.86151576174478
 30
0.0
 11
367.46675400808277
 21
495.35895776174482
 31
0.0
  0
ARC
  5
2F82
  8
AM_0
 10
384.46675400808277
 20
498.85390476174479
 30
0.0
 40
2.0
 50
274.99999999999972
 51
0.0
  0
LINE
  5
2F83
  8
AM_0
 10
462.96680400808282
 20
442.96865876174479
 30
0.0
 11
474.96675400808277
 21
442.96865876174479
 31
0.0
  0
LINE
  5
2F84
  8
AM_0
 10
449.96675400808277
 20
442.96865876174479
 30
0.0
 11
462.96680400808282
 21
442.96865876174479
 31
0.0
  0
ARC
  5
2F85
  8
AM_0
 10
430.96680400808282
 20
507.49012376174483
 30
0.0
 40
5.0
 50
271.99999999999687
 51
0.0
  0
ARC
  5
2F86
  8
AM_0
 10
446.9668040080831
 20
549.58462376174509
 30
0.0
 40
3.0000000500000001
 50
279.99999999999852
 51
0.0
  0
ARC
  5
2F87
  8
AM_0
 10
438.96675400808277
 20
542.08147376174475
 30
0.0
 40
3.0000000500000001
 50
99.999999999998593
 51
180.00001000000091
  0
LINE
  5
2F88
  8
AM_0
 10
438.4458040080832
 20
545.03592376174481
 30
0.0
 11
447.48765400808293
 21
546.630273761745
 31
0.0
  0
LINE
  5
2F89
  8
AM_0
 10
462.96680400808282
 20
532.28117376174475
 30
0.0
 11
474.96675400808277
 21
532.28117376174475
 31
0.0
  0
LINE
  5
2F8A
  8
AM_0
 10
449.96675400808277
 20
532.28117376174475
 30
0.0
 11
462.96680400808282
 21
532.28117376174475
 31
0.0
  0
LINE
  5
2F8B
  8
AM_0
 10
439.1496540080829
 20
564.45692376174475
 30
0.0
 11
454.78390400808308
 21
564.45692376174475
 31
0.0
  0
LINE
  5
2F8C
  8
AM_0
 10
436.64390400808321
 20
557.45692376174475
 30
0.0
 11
451.29945400808322
 21
557.45692376174475
 31
0.0
  0
LINE
  5
2F8D
  8
AM_0
 10
446.96675400808277
 20
565.95692376174475
 30
0.0
 11
454.47015400808277
 21
564.57157376174473
 31
0.0
  0
ARC
  5
2F8E
  8
AM_0
 10
451.9668040080831
 20
555.57157376174484
 30
0.0
 40
2.0000000500000001
 50
91.999998000000545
 51
180.00001000000091
  0
LINE
  5
2F8F
  8
AM_0
 10
439.46330400808313
 20
564.57157376174473
 30
0.0
 11
446.96675400808277
 21
565.95692376174475
 31
0.0
  0
ARC
  5
2F90
  8
AM_0
 10
437.96680400808282
 20
555.95687376174476
 30
0.0
 40
2.0000000500000001
 50
131.4096200000032
 51
180.00001000000091
  0
ARC
  5
2F91
  8
AM_0
 10
433.04980400808302
 20
558.2933737617451
 30
0.0
 40
4.000000049999997
 50
347.9293300000017
 51
55.386359000001512
  0
ARC
  5
2F92
  8
AM_0
 10
439.64495400808312
 20
563.588173761745
 30
0.0
 40
1.0
 50
100.4607200000025
 51
164.99998999999869
  0
LINE
  5
2F93
  8
AM_0
 10
436.96675400808277
 20
557.45692376174475
 30
0.0
 11
438.67895400808288
 21
563.84702376174505
 31
0.0
  0
LINE
  5
2F94
  8
AM_0
 10
462.96680400808282
 20
557.956823761745
 30
0.0
 11
476.03660400808309
 21
557.50047376174496
 31
0.0
  0
ARC
  5
2F95
  8
AM_0
 10
454.28865400808297
 20
563.588173761745
 30
0.0
 40
1.0
 50
15.000000000000741
 51
79.539281000002589
  0
LINE
  5
2F96
  8
AM_0
 10
449.96675400808277
 20
550.54017376174477
 30
0.0
 11
462.96680400808282
 21
550.54017376174477
 31
0.0
  0
LINE
  5
2F97
  8
AM_0
 10
451.89690400808291
 20
557.57032376174482
 30
0.0
 11
462.96670400808313
 21
557.95687376174476
 31
0.0
  0
LINE
  5
2F98
  8
AM_0
 10
460.96680400808282
 20
557.95692376174475
 30
0.0
 11
462.96680400808282
 21
557.95692376174475
 31
0.0
  0
LINE
  5
2F99
  8
AM_0
 10
460.96680400808282
 20
557.887073761745
 30
0.0
 11
460.96680400808282
 21
557.95692376174475
 31
0.0
  0
LINE
  5
2F9A
  8
AM_0
 10
456.88960400808321
 20
557.74467376174482
 30
0.0
 11
455.25450400808302
 21
563.84687376174497
 31
0.0
  0
ARC
  5
2F9B
  8
AM_0
 10
460.88375400808297
 20
558.2933737617451
 30
0.0
 40
4.000000049999997
 50
124.6136499999977
 51
187.86825000000209
  0
LINE
  5
2F9C
  8
AM_0
 10
477.96680400808282
 20
445.96865876174479
 30
0.0
 11
477.96680400808282
 21
529.28117376174475
 31
0.0
  0
ARC
  5
2F9D
  8
AM_0
 10
542.96680400808293
 20
500.1297237617448
 30
0.0
 40
10.0
 50
90.00000299999769
 51
180.00001000000091
  0
LINE
  5
2F9E
  8
AM_0
 10
574.96675400808272
 20
465.9568787617448
 30
0.0
 11
574.96675400808272
 21
522.95687376174476
 31
0.0
  0
LINE
  5
2F9F
  8
AM_0
 10
575.84540400808294
 20
512.07822376174477
 30
0.0
 11
580.08810400808295
 21
507.83552376174481
 31
0.0
  0
ARC
  5
2FA0
  8
AM_0
 10
481.10285400808289
 20
446.4721687617448
 30
0.0
 40
3.0000000500000001
 50
41.102821999997772
 51
90.00000299999769
  0
LINE
  5
2FA1
  8
AM_0
 10
584.96675400808272
 20
443.45687876174492
 30
0.0
 11
584.96675400808272
 21
488.4568787617448
 31
0.0
  0
LINE
  5
2FA2
  8
AM_0
 10
580.96680400808293
 20
465.9568787617448
 30
0.0
 11
580.96680400808293
 21
505.71427376174478
 31
0.0
  0
LINE
  5
2FA3
  8
AM_0
 10
580.96680400808293
 20
443.45687876174492
 30
0.0
 11
584.96675400808272
 21
443.45687876174492
 31
0.0
  0
LINE
  5
2FA4
  8
AM_0
 10
548.02510400808308
 20
510.12972376174491
 30
0.0
 11
542.96680400808293
 21
510.12972376174491
 31
0.0
  0
LINE
  5
2FA5
  8
AM_0
 10
580.96680400808293
 20
488.4568787617448
 30
0.0
 11
584.96675400808272
 21
488.4568787617448
 31
0.0
  0
ARC
  5
2FA6
  8
AM_0
 10
577.96680400808293
 20
505.71427376174478
 30
0.0
 40
3.0000000500000001
 50
0.0
 51
45.000001000003799
  0
LINE
  5
2FA7
  8
AM_0
 10
479.89700400808289
 20
552.07942376174469
 30
0.0
 11
545.24600400808265
 21
549.79737376174478
 31
0.0
  0
LINE
  5
2FA8
  8
AM_0
 10
483.16575400808267
 20
550.13387376174489
 30
0.0
 11
492.99180400808302
 21
544.42277376174468
 31
0.0
  0
LINE
  5
2FA9
  8
AM_0
 10
482.46675400808277
 20
527.43252376174485
 30
0.0
 11
482.46675400808277
 21
548.6057237617448
 31
0.0
  0
ARC
  5
2FAA
  8
AM_0
 10
487.96680400808282
 20
535.77707376174487
 30
0.0
 40
10.0
 50
288.46820999999818
 51
59.83387800000353
  0
ARC
  5
2FAB
  8
AM_0
 10
481.97905400808298
 20
526.39717376174485
 30
0.0
 40
3.0000000500000001
 50
270.0
 51
288.46821999999901
  0
LINE
  5
2FAC
  8
AM_0
 10
479.33315400808289
 20
522.3507237617448
 30
0.0
 11
491.1345040080829
 21
526.29212376174485
 31
0.0
  0
ARC
  5
2FAD
  8
AM_0
 10
481.65825400808308
 20
547.540173761745
 30
0.0
 40
3.0000000500000001
 50
59.83387800000353
 51
90.00000299999769
  0
LINE
  5
2FAE
  8
AM_0
 10
477.96680400808282
 20
550.54017376174477
 30
0.0
 11
477.96680400808282
 21
555.50167376174488
 31
0.0
  0
ARC
  5
2FAF
  8
AM_0
 10
544.96675400808283
 20
541.80227376174469
 30
0.0
 40
8.0
 50
0.0
 51
88.000000000002899
  0
LINE
  5
2FB0
  8
AM_0
 10
560.96680400808293
 20
525.95687376174476
 30
0.0
 11
571.96680400808339
 21
525.95687376174476
 31
0.0
  0
ARC
  5
2FB1
  8
AM_0
 10
560.96680400808293
 20
533.9568737617451
 30
0.0
 40
8.0
 50
180.00001000000091
 51
270.0
  0
ARC
  5
2FB2
  8
AM_0
 10
571.96680400808339
 20
522.95687376174476
 30
0.0
 40
3.0000000500000001
 50
0.0
 51
90.00000299999769
  0
ARC
  5
2FB3
  8
AM_0
 10
577.96680400808293
 20
514.1994737617448
 30
0.0
 40
3.0000000500000001
 50
179.9999899999988
 51
225.0
  0
LINE
  5
2FB4
  8
AM_0
 10
1080.500659008082
 20
435.02795376174481
 30
0.0
 11
1067.160784008081
 21
448.36782876174482
 31
0.0
  0
LINE
  5
2FB5
  8
AM_0
 10
806.35855400808305
 20
435.02792376174477
 30
0.0
 11
819.69845400808299
 21
448.36782876174482
 31
0.0
  0
LINE
  5
2FB6
  8
AM_0
 10
819.88465400808332
 20
443.34844876174481
 30
0.0
 11
803.46790400808277
 21
311.57500876174493
 31
0.0
  0
LINE
  5
2FB7
  8
AM_0
 10
849.42957900808278
 20
509.59172376174479
 30
0.0
 11
849.42957900808278
 21
393.94701876174491
 31
0.0
  0
LINE
  5
2FB8
  8
AM_0
 10
1066.9745340080831
 20
443.34847876174513
 30
0.0
 11
1083.391254008081
 21
311.57503876174508
 31
0.0
  0
LINE
  5
2FB9
  8
AM_0
 10
1037.429579008081
 20
509.59172376174479
 30
0.0
 11
1037.429579008081
 21
390.34225376174481
 31
0.0
  0
CIRCLE
  5
2FBA
  8
AM_0
 10
943.42957900808244
 20
465.9568787617448
 30
0.0
 40
41.000000499999992
  0
ARC
  5
2FBB
  8
AM_0
 10
943.42957900808244
 20
437.9568787617448
 30
0.0
 40
88.0
 50
0.0
 51
186.52497999999721
  0
LINE
  5
2FBC
  8
ﾁｭｳｼﾝｾﾝ1
 10
943.42957900808244
 20
600.49952376174497
 30
0.0
 11
943.42957900808244
 21
289.9873037617449
 31
0.0
  0
LINE
  5
2FBD
  8
AM_0
 10
1028.429579008081
 20
290.95687376174482
 30
0.0
 11
1083.429584008082
 21
290.95687376174482
 31
0.0
  0
ARC
  5
2FBE
  8
AM_0
 10
943.42957900808244
 20
393.94701876174491
 30
0.0
 40
93.999994999999984
 50
339.95001999999999
 51
20.049975999999841
  0
ARC
  5
2FBF
  8
AM_0
 10
1039.429579008081
 20
323.95690876174501
 30
0.0
 40
8.0
 50
180.00001000000091
 51
270.0
  0
ARC
  5
2FC0
  8
AM_0
 10
1036.1295640080821
 20
311.9569087617449
 30
0.0
 40
4.000000049999997
 50
90.00000299999769
 51
180.00001000000091
  0
LINE
  5
2FC1
  8
ﾁｭｳｼﾝｾﾝ1
 10
799.164004008083
 20
427.9568787617448
 30
0.0
 11
1087.2840440080811
 21
427.9568787617448
 31
0.0
  0
LINE
  5
2FC2
  8
AM_0
 10
808.42955400808285
 20
315.9568787617448
 30
0.0
 11
850.729564008083
 21
315.9568787617448
 31
0.0
  0
LINE
  5
2FC3
  8
AM_0
 10
803.42955400808285
 20
290.95687376174482
 30
0.0
 11
858.42957900808278
 21
290.95687376174482
 31
0.0
  0
LINE
  5
2FC4
  8
AM_0
 10
806.35855400808305
 20
420.8858037617448
 30
0.0
 11
814.16950400808309
 21
413.07482876174481
 31
0.0
  0
LINE
  5
2FC5
  8
AM_0
 10
803.42955400808285
 20
310.9568787617448
 30
0.0
 11
803.42955400808285
 21
290.95687376174482
 31
0.0
  0
ARC
  5
2FC6
  8
AM_0
 10
808.42955400808285
 20
310.9568787617448
 30
0.0
 40
5.0
 50
90.00000299999769
 51
180.00001000000091
  0
ARC
  5
2FC7
  8
AM_0
 10
813.42955400808307
 20
427.9568787617448
 30
0.0
 40
10.0
 50
135.0
 51
225.0
  0
LINE
  5
2FC8
  8
AM_0
 10
1032.1295640080821
 20
311.9569087617449
 30
0.0
 11
1032.1295640080821
 21
290.95687376174482
 31
0.0
  0
ARC
  5
2FC9
  8
AM_0
 10
1024.429579008081
 20
291.95690876174501
 30
0.0
 40
4.000000049999997
 50
0.0
 51
80.511702000002984
  0
LINE
  5
2FCA
  8
AM_0
 10
854.72959900808291
 20
311.9569087617449
 30
0.0
 11
854.72959900808291
 21
290.95687376174482
 31
0.0
  0
ARC
  5
2FCB
  8
AM_0
 10
862.4295490080832
 20
291.95690876174501
 30
0.0
 40
4.000000049999997
 50
99.488295999997277
 51
180.00001000000091
  0
LINE
  5
2FCC
  8
ｶｸﾚｾﾝ2
 10
837.92955400808285
 20
315.9568787617448
 30
0.0
 11
837.92955400808285
 21
290.95687376174482
 31
0.0
  0
LINE
  5
2FCD
  8
ｶｸﾚｾﾝ2
 10
818.92955400808307
 20
315.9568787617448
 30
0.0
 11
818.92955400808307
 21
290.95687376174482
 31
0.0
  0
LINE
  5
2FCE
  8
AM_0
 10
858.42957900808278
 20
291.95690876174501
 30
0.0
 11
858.42957900808278
 21
290.95687376174482
 31
0.0
  0
LINE
  5
2FCF
  8
AM_0
 10
1028.429579008081
 20
291.95690876174501
 30
0.0
 11
1028.429579008081
 21
290.95687376174482
 31
0.0
  0
LINE
  5
2FD0
  8
AM_0
 10
876.4295790080829
 20
310.9568787617448
 30
0.0
 11
1010.429579008083
 21
310.9568787617448
 31
0.0
  0
LINE
  5
2FD1
  8
AM_0
 10
873.07511900808288
 20
305.68755876174492
 30
0.0
 11
1013.784044008082
 21
305.68755876174492
 31
0.0
  0
LINE
  5
2FD2
  8
AM_0
 10
862.4295490080832
 20
295.95687376174482
 30
0.0
 11
1024.7953640080821
 21
295.95687376174482
 31
0.0
  0
LINE
  5
2FD3
  8
AM_0
 10
855.42957900808278
 20
427.9568787617448
 30
0.0
 11
855.42957900808278
 21
323.95690876174501
 31
0.0
  0
ARC
  5
2FD4
  8
AM_0
 10
943.42957900808244
 20
393.94701876174491
 30
0.0
 40
93.999994999999984
 50
179.9999899999988
 51
200.5819600000012
  0
ARC
  5
2FD5
  8
AM_0
 10
860.45139900808283
 20
303.79272376174492
 30
0.0
 40
8.0
 50
279.48829999999663
 51
357.00553999999892
  0
ARC
  5
2FD6
  8
AM_0
 10
850.729564008083
 20
311.9569087617449
 30
0.0
 40
4.000000049999997
 50
0.0
 51
90.00000299999769
  0
ARC
  5
2FD7
  8
AM_0
 10
847.4295490080832
 20
323.95690876174501
 30
0.0
 40
8.0
 50
270.0
 51
0.0
  0
ARC
  5
2FD8
  8
AM_0
 10
876.4295790080829
 20
302.95687376174487
 30
0.0
 40
8.0
 50
90.00000299999769
 51
177.00553999999889
  0
ARC
  5
2FD9
  8
AM_0
 10
873.07511900808288
 20
300.68755876174481
 30
0.0
 40
5.0
 50
90.00000299999769
 51
166.1807799999996
  0
ARC
  5
2FDA
  8
AM_0
 10
809.54660400808291
 20
410.62670876174479
 30
0.0
 40
5.0
 50
7.375508100000534
 51
45.000001000003799
  0
ARC
  5
2FDB
  8
AM_0
 10
943.42957900808244
 20
427.9568787617448
 30
0.0
 40
130.0
 50
187.37550999999999
 51
189.6244599999979
  0
ARC
  5
2FDC
  8
AM_0
 10
810.63390400808305
 20
409.5393037617448
 30
0.0
 40
5.0
 50
352.89851999999883
 51
45.000001000003799
  0
LINE
  5
2FDD
  8
AM_0
 10
1031.429579008081
 20
437.9568787617448
 30
0.0
 11
1031.429579008081
 21
323.95690876174501
 31
0.0
  0
ARC
  5
2FDE
  8
AM_0
 10
1010.429579008083
 20
302.95687376174487
 30
0.0
 40
8.0
 50
2.9944644000003162
 51
90.00000299999769
  0
ARC
  5
2FDF
  8
AM_0
 10
1026.4077290080811
 20
303.79272376174492
 30
0.0
 40
8.0
 50
182.9944600000008
 51
260.5117000000032
  0
ARC
  5
2FE0
  8
AM_0
 10
1013.784044008082
 20
300.68755876174481
 30
0.0
 40
5.0
 50
13.819217000001251
 51
90.00000299999769
  0
ARC
  5
2FE1
  8
AM_0
 10
1036.429579008081
 20
360.00591876174491
 30
0.0
 40
5.0
 50
159.95003000000011
 51
180.00001000000091
  0
ARC
  5
2FE2
  8
AM_0
 10
1036.429579008081
 20
427.888153761745
 30
0.0
 40
5.0
 50
179.9999899999988
 51
200.04996999999969
  0
LINE
  5
2FE3
  8
ﾁｭｳｼﾝｾﾝ1
 10
1058.429579008081
 20
319.80703376174489
 30
0.0
 11
1058.429579008081
 21
283.98134876174493
 31
0.0
  0
LINE
  5
2FE4
  8
AM_0
 10
1083.429584008082
 20
310.9568787617448
 30
0.0
 11
1083.429584008082
 21
290.95687376174482
 31
0.0
  0
LINE
  5
2FE5
  8
ｶｸﾚｾﾝ2
 10
1067.929579008081
 20
315.9568787617448
 30
0.0
 11
1067.929579008081
 21
290.95687376174482
 31
0.0
  0
LINE
  5
2FE6
  8
ｶｸﾚｾﾝ2
 10
1048.929579008081
 20
315.9568787617448
 30
0.0
 11
1048.929579008081
 21
290.95687376174482
 31
0.0
  0
LINE
  5
2FE7
  8
AM_0
 10
1039.429579008081
 20
315.9568787617448
 30
0.0
 11
1078.4295840080831
 21
315.9568787617448
 31
0.0
  0
ARC
  5
2FE8
  8
AM_0
 10
1078.4295840080831
 20
310.9568787617448
 30
0.0
 40
5.0
 50
0.0
 51
90.00000299999769
  0
LINE
  5
2FE9
  8
AM_0
 10
1080.500659008082
 20
420.88583376174472
 30
0.0
 11
1072.6896840080831
 21
413.07485876174479
 31
0.0
  0
ARC
  5
2FEA
  8
AM_0
 10
943.42957900808244
 20
427.9568787617448
 30
0.0
 40
130.0
 50
350.37554999999838
 51
352.62448999999958
  0
ARC
  5
2FEB
  8
AM_0
 10
1077.3126090080821
 20
410.62670876174479
 30
0.0
 40
5.0
 50
135.0
 51
172.6244899999997
  0
ARC
  5
2FEC
  8
AM_0
 10
1076.225204008083
 20
409.5393037617448
 30
0.0
 40
5.0
 50
135.0
 51
187.1014900000016
  0
ARC
  5
2FED
  8
AM_0
 10
1073.4295840080831
 20
427.9568787617448
 30
0.0
 40
10.0
 50
315.0
 51
45.000001000003799
  0
ARC
  5
2FEE
  8
AM_0
 10
943.42957900808244
 20
427.9568787617448
 30
0.0
 40
130.0
 50
7.375507199997366
 51
52.624493999996417
  0
ARC
  5
2FEF
  8
AM_0
 10
943.42957900808244
 20
427.9568787617448
 30
0.0
 40
124.5
 50
7.1014839000006411
 51
172.89851999999871
  0
ARC
  5
2FF0
  8
AM_0
 10
943.42957900808244
 20
427.9568787617448
 30
0.0
 40
130.0
 50
127.3755000000037
 51
172.6244899999997
  0
LINE
  5
2FF1
  8
AM_0
 10
598.96675400808272
 20
489.9568787617448
 30
0.0
 11
654.96675400808272
 21
489.9568787617448
 31
0.0
  0
LINE
  5
2FF2
  8
AM_0
 10
598.96675400808272
 20
489.9568787617448
 30
0.0
 11
598.96675400808272
 21
486.95690876174478
 31
0.0
  0
LINE
  5
2FF3
  8
AM_0
 10
654.96675400808272
 20
444.9568787617448
 30
0.0
 11
654.96675400808272
 21
489.9568787617448
 31
0.0
  0
LINE
  5
2FF4
  8
AM_0
 10
939.42957900808278
 20
594.95687376174487
 30
0.0
 11
939.42957900808278
 21
561.45687376174487
 31
0.0
  0
LINE
  5
2FF5
  8
AM_0
 10
947.4295490080832
 20
594.95687376174487
 30
0.0
 11
947.4295490080832
 21
561.45687376174487
 31
0.0
  0
ARC
  5
2FF6
  8
AM_0
 10
943.42957900808244
 20
427.9568787617448
 30
0.0
 40
130.0
 50
67.375506000002574
 51
112.62449000000299
  0
LINE
  5
2FF7
  8
ﾁｭｳｼﾝｾﾝ1
 10
864.26487301364909
 20
465.9568787617448
 30
0.0
 11
1022.594285002516
 21
465.9568787617448
 31
0.0
  0
ARC
  5
2FF8
  8
AM_0
 10
809.54660400808291
 20
445.28704876174481
 30
0.0
 40
5.0
 50
315.0
 51
352.62448999999958
  0
ARC
  5
2FF9
  8
AM_0
 10
816.16285400808283
 20
451.90337876174482
 30
0.0
 40
5.0
 50
315.0
 51
349.34382000000329
  0
LINE
  5
2FFA
  8
AM_0
 10
868.77036900808275
 20
543.12837376174468
 30
0.0
 11
863.88761900808288
 21
524.90572376174475
 31
0.0
  0
ARC
  5
2FFB
  8
AM_0
 10
859.05793400808318
 20
526.19982376174494
 30
0.0
 40
5.0
 50
310.6561800000004
 51
344.99999999999909
  0
ARC
  5
2FFC
  8
AM_0
 10
861.47968900808303
 20
535.23787376174505
 30
0.0
 40
5.0
 50
307.37551000000269
 51
344.99999999999909
  0
LINE
  5
2FFD
  8
AM_0
 10
881.01780400808275
 20
550.19947376174468
 30
0.0
 11
899.2404290080832
 21
545.31672376174481
 31
0.0
  0
ARC
  5
2FFE
  8
AM_0
 10
878.4295790080829
 20
540.540173761745
 30
0.0
 40
10.0
 50
74.99999899999662
 51
164.99998999999869
  0
ARC
  5
2FFF
  8
AM_0
 10
900.534499008083
 20
550.14632376174495
 30
0.0
 40
5.0
 50
254.99999999999821
 51
289.34382000000068
  0
ARC
  5
3000
  8
AM_0
 10
891.4964440080829
 20
552.56807376174481
 30
0.0
 40
5.0
 50
254.99999999999821
 51
292.62449000000288
  0
ARC
  5
3001
  8
AM_0
 10
943.42957900808244
 20
465.9568787617448
 30
0.0
 40
20.9999985
 50
106.6015499999988
 51
73.398451999997818
  0
CIRCLE
  5
3002
  8
AM_5
 10
943.42957900808244
 20
465.9568787617448
 30
0.0
 40
5.0
  0
CIRCLE
  5
3003
  8
AM_0
 10
943.42957900808244
 20
465.9568787617448
 30
0.0
 40
3.5000000500000001
  0
LINE
  5
3004
  8
AM_0
 10
937.4295490080832
 20
489.9568787617448
 30
0.0
 11
949.42957900808278
 21
489.9568787617448
 31
0.0
  0
LINE
  5
3005
  8
AM_0
 10
937.4295490080832
 20
481.95690876174478
 30
0.0
 11
949.42957900808278
 21
481.95690876174478
 31
0.0
  0
LINE
  5
3006
  8
AM_0
 10
937.4295490080832
 20
489.9568787617448
 30
0.0
 11
937.4295490080832
 21
481.95690876174478
 31
0.0
  0
LINE
  5
3007
  8
AM_0
 10
949.42957900808278
 20
489.9568787617448
 30
0.0
 11
949.42957900808278
 21
481.95690876174478
 31
0.0
  0
LINE
  5
3008
  8
AM_0
 10
947.42957900808278
 20
565.21842376174482
 30
0.0
 11
950.93296900808321
 21
564.57157376174473
 31
0.0
  0
LINE
  5
3009
  8
AM_0
 10
939.42957900808278
 20
565.21837376174494
 30
0.0
 11
935.92616400808231
 21
564.57152376174497
 31
0.0
  0
LINE
  5
300A
  8
AM_0
 10
933.46104400808304
 20
557.57412376174489
 30
0.0
 11
935.14182900808294
 21
563.84702376174505
 31
0.0
  0
ARC
  5
300B
  8
AM_0
 10
936.10773900808272
 20
563.58812376174501
 30
0.0
 40
1.0
 50
100.4607200000025
 51
164.99998999999869
  0
ARC
  5
300C
  8
AM_0
 10
937.4295490080832
 20
561.45687376174487
 30
0.0
 40
2.0000000500000001
 50
270.0
 51
0.0
  0
ARC
  5
300D
  8
AM_0
 10
949.42957900808278
 20
561.45687376174487
 30
0.0
 40
2.0000000500000001
 50
179.9999899999988
 51
270.0
  0
LINE
  5
300E
  8
AM_0
 10
953.39820900808309
 20
557.5740737617449
 30
0.0
 11
951.71738900808305
 21
563.84687376174497
 31
0.0
  0
ARC
  5
300F
  8
AM_0
 10
950.75144900808334
 20
563.58812376174501
 30
0.0
 40
1.0
 50
15.000000000000741
 51
79.539281000002589
  0
LINE
  5
3010
  8
AM_0
 10
1005.841414008082
 20
550.19942376174481
 30
0.0
 11
987.61878900808301
 21
545.31667376174494
 31
0.0
  0
ARC
  5
3011
  8
AM_0
 10
1008.429579008081
 20
540.540173761745
 30
0.0
 40
10.0
 50
15.000000000000741
 51
105.00000000000161
  0
ARC
  5
3012
  8
AM_0
 10
986.32465900808324
 20
550.14632376174495
 30
0.0
 40
5.0
 50
250.65617999999921
 51
285.00000000000148
  0
LINE
  5
3013
  8
AM_0
 10
1018.088854008083
 20
543.12837376174468
 30
0.0
 11
1022.971574008081
 21
524.90572376174475
 31
0.0
  0
ARC
  5
3014
  8
AM_0
 10
1027.801224008083
 20
526.19982376174494
 30
0.0
 40
5.0
 50
195.00001000000111
 51
229.34381999999951
  0
ARC
  5
3015
  8
AM_0
 10
1025.3794690080831
 20
535.23787376174505
 30
0.0
 40
5.0
 50
195.00001000000111
 51
232.62449999999609
  0
ARC
  5
3016
  8
AM_0
 10
995.36271400808334
 20
552.56807376174481
 30
0.0
 40
5.0
 50
247.37550999999681
 51
285.00000000000148
  0
ARC
  5
3017
  8
AM_0
 10
943.42957900808244
 20
594.95687376174487
 30
0.0
 40
4.000000049999997
 50
359.999989999999
 51
179.9999899999988
  0
ARC
  5
3018
  8
AM_0
 10
1070.6963040080821
 20
451.90337876174482
 30
0.0
 40
5.0
 50
190.6561799999964
 51
225.0
  0
ARC
  5
3019
  8
AM_0
 10
1077.3126090080821
 20
445.28704876174481
 30
0.0
 40
5.0
 50
187.37550999999999
 51
225.0
  0
LINE
  5
301A
  8
AM_0
 10
388.3153160080829
 20
388.41216876174491
 30
0.0
 11
399.77475600808282
 21
388.41216876174491
 31
0.0
  0
LINE
  5
301B
  8
AM_0
 10
388.3153160080829
 20
467.3615087617448
 30
0.0
 11
399.77475600808282
 21
467.3615087617448
 31
0.0
  0
LINE
  5
301C
  8
AM_0
 10
386.46668400808289
 20
920.76438981170031
 30
0.0
 11
386.46668400808289
 21
773.76438981170043
 31
0.0
  0
LINE
  5
301D
  8
AM_0
 10
323.46668400808289
 20
747.26438981170043
 30
0.0
 11
323.46668400808289
 21
947.2643898117002
 31
0.0
  0
LINE
  5
301E
  8
AM_0
 10
333.46668400808278
 20
946.2643898117002
 30
0.0
 11
333.46668400808278
 21
748.26438981170043
 31
0.0
  0
ARC
  5
301F
  8
AM_0
 10
332.46668400808289
 20
748.26438981170043
 30
0.0
 40
1.0
 50
270.0
 51
0.0
  0
LINE
  5
3020
  8
AM_0
 10
323.46668400808289
 20
747.26438981170043
 30
0.0
 11
332.46668400808289
 21
747.26438981170043
 31
0.0
  0
LINE
  5
3021
  8
AM_0
 10
384.64099500808288
 20
778.35975381170044
 30
0.0
 11
367.46668400808289
 21
779.86231081170047
 31
0.0
  0
LINE
  5
3022
  8
AM_0
 10
367.46668400808289
 20
785.41963481170035
 30
0.0
 11
367.46668400808289
 21
908.74080181169995
 31
0.0
  0
LINE
  5
3023
  8
AM_0
 10
367.46668400808289
 20
779.86231081170047
 30
0.0
 11
336.20521600808269
 21
777.12728681170017
 31
0.0
  0
ARC
  5
3024
  8
AM_0
 10
336.46668400808289
 20
774.13870281170045
 30
0.0
 40
3.0
 50
94.99999999999973
 51
180.0
  0
ARC
  5
3025
  8
AM_0
 10
384.46668400808289
 20
776.36736381170044
 30
0.0
 40
2.0
 50
0.0
 51
85.000000000000256
  0
LINE
  5
3026
  8
AM_0
 10
386.46668400808289
 20
773.76438981170043
 30
0.0
 11
401.46668400808278
 21
773.76438981170043
 31
0.0
  0
LINE
  5
3027
  8
AM_0
 10
388.31524600808302
 20
785.61438981170045
 30
0.0
 11
399.77468600808288
 21
785.61438981170045
 31
0.0
  0
LINE
  5
3028
  8
AM_0
 10
388.31524600808302
 20
807.71967981170042
 30
0.0
 11
399.77468600808288
 21
807.71967981170042
 31
0.0
  0
LINE
  5
3029
  8
AM_0
 10
388.31524600808302
 20
886.66901981170031
 30
0.0
 11
399.77468600808288
 21
886.66901981170031
 31
0.0
  0
LINE
  5
302A
  8
AM_0
 10
388.31524600808302
 20
908.9143898117004
 30
0.0
 11
399.77468600808288
 21
908.9143898117004
 31
0.0
  0
LINE
  5
302B
  8
AM_0
 10
384.64099500808288
 20
916.16902681170041
 30
0.0
 11
367.46668400808289
 21
914.66646881169993
 31
0.0
  0
LINE
  5
302C
  8
AM_0
 10
367.46668400808289
 20
914.66646881169993
 30
0.0
 11
336.20521600808269
 21
917.40149281170045
 31
0.0
  0
ARC
  5
302D
  8
AM_0
 10
336.46668400808289
 20
920.39007681170006
 30
0.0
 40
3.0
 50
180.0
 51
265.00000000000028
  0
ARC
  5
302E
  8
AM_0
 10
332.46668400808289
 20
946.2643898117002
 30
0.0
 40
1.0
 50
0.0
 51
90.0
  0
LINE
  5
302F
  8
AM_0
 10
323.46668400808289
 20
947.2643898117002
 30
0.0
 11
332.46668400808289
 21
947.2643898117002
 31
0.0
  0
LINE
  5
3030
  8
AM_0
 10
386.46668400808289
 20
920.76438981170031
 30
0.0
 11
401.46668400808278
 21
920.76438981170031
 31
0.0
  0
ARC
  5
3031
  8
AM_0
 10
384.46668400808289
 20
918.16141581170029
 30
0.0
 40
2.0
 50
274.99999999999972
 51
0.0
  0
LINE
  5
3032
  8
ﾁｭｳｼﾝｾﾝ1
 10
828.42955400808285
 20
319.80703376174489
 30
0.0
 11
828.42955400808285
 21
283.98134876174493
 31
0.0
  0
LINE
  5
3033
  8
ﾁｭｳｼﾝｾﾝ1
 10
559.96680400808293
 20
319.80703376174489
 30
0.0
 11
559.96680400808293
 21
283.98134876174493
 31
0.0
  0
LINE
  5
3034
  8
ﾁｭｳｼﾝｾﾝ1
 10
409.9668040080827
 20
319.80703376174489
 30
0.0
 11
409.9668040080827
 21
283.98134876174493
 31
0.0
  0
TEXT
  5
3212
  8
AM_0
 10
822.75526051961344
 20
874.96549473027437
 30
0.0
 40
15.0
  1
VX15-060A~VX15-100A
  0
ENDSEC
  0
EOF
