  0
SECTION
  2
HEADER
  9
$ACADVER
  1
AC1009
  9
$INSBASE
 10
0.0
 20
0.0
 30
0.0
  9
$EXTMIN
 10
292.2228658958602
 20
273.63527378550629
 30
-0.0015258207003583
  9
$EXTMAX
 10
1186.060603317525
 20
1116.100847891943
 30
0.0000000349246037
  9
$LIMMIN
 10
0.0
 20
0.0
  9
$LIMMAX
 10
1422.5
 20
925.0
  9
$ORTHOMODE
 70
     0
  9
$REGENMODE
 70
     1
  9
$FILLMODE
 70
     1
  9
$QTEXTMODE
 70
     0
  9
$MIRRTEXT
 70
     1
  9
$DRAGMODE
 70
     2
  9
$LTSCALE
 40
5.0
  9
$OSMODE
 70
   551
  9
$ATTMODE
 70
     1
  9
$TEXTSIZE
 40
2.5
  9
$TRACEWID
 40
1.0
  9
$TEXTSTYLE
  7
STANDARD
  9
$CLAYER
  8
AM_0
  9
$CELTYPE
  6
BYLAYER
  9
$CECOLOR
 62
   256
  9
$DIMSCALE
 40
1.0
  9
$DIMASZ
 40
2.5
  9
$DIMEXO
 40
1.0
  9
$DIMDLI
 40
8.0
  9
$DIMRND
 40
0.0
  9
$DIMDLE
 40
0.0
  9
$DIMEXE
 40
0.6
  9
$DIMTP
 40
0.1
  9
$DIMTM
 40
0.1
  9
$DIMTXT
 40
2.5
  9
$DIMCEN
 40
0.0
  9
$DIMTSZ
 40
0.0
  9
$DIMTOL
 70
     0
  9
$DIMLIM
 70
     0
  9
$DIMTIH
 70
     0
  9
$DIMTOH
 70
     0
  9
$DIMSE1
 70
     0
  9
$DIMSE2
 70
     0
  9
$DIMTAD
 70
     1
  9
$DIMZIN
 70
     8
  9
$DIMBLK
  1

  9
$DIMASO
 70
     1
  9
$DIMSHO
 70
     1
  9
$DIMPOST
  1

  9
$DIMAPOST
  1
"
  9
$DIMALT
 70
     0
  9
$DIMALTD
 70
     2
  9
$DIMALTF
 40
0.0393701
  9
$DIMLFAC
 40
1.0
  9
$DIMTOFL
 70
     1
  9
$DIMTVP
 40
0.0
  9
$DIMTIX
 70
     0
  9
$DIMSOXD
 70
     0
  9
$DIMSAH
 70
     0
  9
$DIMBLK1
  1

  9
$DIMBLK2
  1

  9
$DIMSTYLE
  2
AM_ISO
  9
$DIMCLRD
 70
   256
  9
$DIMCLRE
 70
   256
  9
$DIMCLRT
 70
     4
  9
$DIMTFAC
 40
0.71
  9
$DIMGAP
 40
0.8
  9
$LUNITS
 70
     2
  9
$LUPREC
 70
     2
  9
$SKETCHINC
 40
1.0
  9
$FILLETRAD
 40
25.0
  9
$AUNITS
 70
     0
  9
$AUPREC
 70
     0
  9
$MENU
  1
.
  9
$ELEVATION
 40
0.0
  9
$PELEVATION
 40
0.0
  9
$THICKNESS
 40
0.0
  9
$LIMCHECK
 70
     0
  9
$BLIPMODE
 70
     0
  9
$CHAMFERA
 40
10.0
  9
$CHAMFERB
 40
5.0
  9
$SKPOLY
 70
     0
  9
$TDCREATE
 40
2452066.5854886342
  9
$TDUPDATE
 40
2458541.4735852429
  9
$TDINDWG
 40
0.1281029861
  9
$TDUSRTIMER
 40
0.1281026042
  9
$USRTIMER
 70
     1
  9
$ANGBASE
 50
0.0
  9
$ANGDIR
 70
     0
  9
$PDMODE
 70
     0
  9
$PDSIZE
 40
0.0
  9
$PLINEWID
 40
0.0
  9
$COORDS
 70
     1
  9
$SPLFRAME
 70
     0
  9
$SPLINETYPE
 70
     6
  9
$SPLINESEGS
 70
     8
  9
$ATTDIA
 70
     1
  9
$ATTREQ
 70
     1
  9
$HANDLING
 70
     1
  9
$HANDSEED
  5
30AA
  9
$SURFTAB1
 70
     6
  9
$SURFTAB2
 70
     6
  9
$SURFTYPE
 70
     6
  9
$SURFU
 70
     6
  9
$SURFV
 70
     6
  9
$UCSNAME
  2

  9
$UCSORG
 10
0.0
 20
0.0
 30
0.0
  9
$UCSXDIR
 10
1.0
 20
0.0
 30
0.0
  9
$UCSYDIR
 10
0.0
 20
1.0
 30
0.0
  9
$PUCSNAME
  2

  9
$PUCSORG
 10
0.0
 20
0.0
 30
0.0
  9
$PUCSXDIR
 10
1.0
 20
0.0
 30
0.0
  9
$PUCSYDIR
 10
0.0
 20
1.0
 30
0.0
  9
$USERI1
 70
     0
  9
$USERI2
 70
     0
  9
$USERI3
 70
     0
  9
$USERI4
 70
     0
  9
$USERI5
 70
     0
  9
$USERR1
 40
0.0
  9
$USERR2
 40
0.0
  9
$USERR3
 40
0.0
  9
$USERR4
 40
0.0
  9
$USERR5
 40
0.0
  9
$WORLDVIEW
 70
     1
  9
$SHADEDGE
 70
     3
  9
$SHADEDIF
 70
    70
  9
$TILEMODE
 70
     1
  9
$MAXACTVP
 70
    64
  9
$PLIMCHECK
 70
     0
  9
$PEXTMIN
 10
1.0000000000000000E+020
 20
1.0000000000000000E+020
 30
1.0000000000000000E+020
  9
$PEXTMAX
 10
-1.0000000000000000E+020
 20
-1.0000000000000000E+020
 30
-1.0000000000000000E+020
  9
$PLIMMIN
 10
0.0
 20
0.0
  9
$PLIMMAX
 10
420.0
 20
297.0
  9
$UNITMODE
 70
     0
  9
$VISRETAIN
 70
     1
  9
$PLINEGEN
 70
     0
  9
$PSLTSCALE
 70
     1
  0
ENDSEC
  0
SECTION
  2
TABLES
  0
TABLE
  2
VPORT
 70
     1
  0
VPORT
  2
*ACTIVE
 70
     0
 10
0.0
 20
0.0
 11
1.0
 21
1.0
 12
739.14173460669292
 22
694.86806083872489
 13
0.0
 23
0.0
 14
12.5
 24
12.5
 15
50.0
 25
50.0
 16
0.0
 26
0.0
 36
1.0
 17
0.0
 27
0.0
 37
0.0
 40
848.24909063348355
 41
1.7571592210767459
 42
50.0
 43
0.0
 44
0.0
 50
0.0
 51
0.0
 71
     0
 72
   100
 73
     1
 74
     3
 75
     0
 76
     0
 77
     0
 78
     0
  0
ENDTAB
  0
TABLE
  2
LTYPE
 70
    27
  0
LTYPE
  2
CONTINUOUS
 70
     0
  3
Solid line
 72
    65
 73
     0
 40
0.0
  0
LTYPE
  2
AM_ISO02W050
 70
     0
  3
__ __ __ __ __ __ __ __ __ __ __ __ __ __ __
 72
    65
 73
     2
 40
7.5
 49
6.0
 49
-1.5
  0
LTYPE
  2
AM_ISO08W050
 70
     0
  3
____ . ____ . ____ . ____ . ____ . ____ . ____
 72
    65
 73
     4
 40
18.0
 49
12.0
 49
-1.5
 49
3.0
 49
-1.5
  0
LTYPE
  2
AM_ISO09W050
 70
     0
  3
_____ . . _____ . . _____ . . ____ .. ____
 72
    65
 73
     6
 40
22.5
 49
12.0
 49
-1.5
 49
3.0
 49
-1.5
 49
3.0
 49
-1.5
  0
LTYPE
  2
AMCONSTR
 70
     0
  3
_______________________
 72
    65
 73
     2
 40
9999.0
 49
9999.0
 49
0.0
  0
LTYPE
  2
AM_ISO08W050X2
 70
     0
  3
__ . __ . __ . __ . __ . __
 72
    65
 73
     4
 40
9.0
 49
6.0
 49
-0.75
 49
1.5
 49
-0.75
  0
LTYPE
  2
AM_ISO02W050X2
 70
     0
  3
 _ _ _ _ _ _ _ _ _ _ _ _
 72
    65
 73
     2
 40
3.75
 49
3.0
 49
-0.75
  0
LTYPE
  2
AMZIGZAG
 70
     0
  3
/\/-/\/-/\/-/\/-/\/-/\/
 72
    65
 73
     2
 40
11.000099999999991
 49
0.0001
 49
-11.0
  0
LTYPE
  2
ACISOWELD
 70
     0
  3
_ _ _ _ _
 72
    65
 73
     2
 40
2.0
 49
2.0
 49
-1.0
  0
LTYPE
  2
ACISOTGB
 70
     0
  3
__ . . __ . .
 72
    65
 73
     6
 40
9.0
 49
4.0
 49
-1.0
 49
1.0
 49
-1.0
 49
1.0
 49
-1.0
  0
LTYPE
  2
ACISOTGL
 70
     0
  3
_ _ _ _ _
 72
    65
 73
     2
 40
3.0
 49
2.0
 49
-1.0
  0
LTYPE
  2
CENTER
 70
     0
  3
__ . __
 72
    65
 73
     4
 40
7.0
 49
4.0
 49
-1.0
 49
1.0
 49
-1.0
  0
LTYPE
  2
PHANTOM2
 70
     0
  3
Phantom (.5x) ___ _ _ ___ _ _ ___ _ _ ___ _ _
 72
    65
 73
     6
 40
31.75
 49
15.875
 49
-3.174999999999998
 49
3.174999999999998
 49
-3.174999999999998
 49
3.174999999999998
 49
-3.174999999999998
  0
LTYPE
  2
ACANSTGBM
 70
     0
  3
__ . . __ . .
 72
    65
 73
     6
 40
9.0
 49
4.0
 49
-1.0
 49
1.0
 49
-1.0
 49
1.0
 49
-1.0
  0
LTYPE
  2
ACANSTGLM
 70
     0
  3
_ _ _ _ _
 72
    65
 73
     2
 40
3.0
 49
2.0
 49
-1.0
  0
LTYPE
  2
GEN7
 70
     0
  3
____ . ____ . ____ . ____ . ____ . ____ . ____
 72
    65
 73
     4
 40
14.25
 49
9.75
 49
-1.5
 49
1.5
 49
-1.5
  0
LTYPE
  2
GEN3B
 70
     0
  3
 - - - - -
 72
    65
 73
     2
 40
1.0
 49
0.5
 49
-0.5
  0
LTYPE
  2
GEN7A
 70
     0
  3
__ . __ . __
 72
    65
 73
     4
 40
7.375
 49
4.75
 49
-0.875
 49
0.875
 49
-0.875
  0
LTYPE
  2
ACJISTGB
 70
     0
  3
__ . . __ . .
 72
    65
 73
     6
 40
9.0
 49
4.0
 49
-1.0
 49
1.0
 49
-1.0
 49
1.0
 49
-1.0
  0
LTYPE
  2
ACJISTGL
 70
     0
  3
_ _ _ _ _
 72
    65
 73
     2
 40
3.0
 49
2.0
 49
-1.0
  0
LTYPE
  2
HIDDEN
 70
     0
  3
Hidden __ __ __ __ __ __ __ __ __ __ __ __ __ _
 72
    65
 73
     2
 40
0.375
 49
0.25
 49
-0.125
  0
LTYPE
  2
CENTER2
 70
     0
  3
Center (.5x) ___ _ ___ _ ___ _ ___ _ ___ _ ___
 72
    65
 73
     4
 40
1.125
 49
0.75
 49
-0.125
 49
0.125
 49
-0.125
  0
LTYPE
  2
HIDDEN2
 70
     0
  3
Hidden (.5x) _ _ _ _ _ _ _ _ _ _ _ _ _ _ _ _ _
 72
    65
 73
     2
 40
0.1875
 49
0.125
 49
-0.0625
  0
LTYPE
  2
AMZIGZAG2
 70
     0
  3
/\/-/\/-/\/-/\/-/\/-/\/
 72
    65
 73
     2
 40
0.4401
 49
0.0001
 49
-0.4400000000000002
  0
LTYPE
  2
ACANSTGB
 70
     0
  3
__ . . __ . .
 72
    65
 73
     6
 40
0.35433070866
 49
0.15748031496
 49
-0.03937007874
 49
0.03937007874
 49
-0.03937007874
 49
0.03937007874
 49
-0.03937007874
  0
LTYPE
  2
ACANSTGL
 70
     0
  3
_ _ _ _ _
 72
    65
 73
     2
 40
0.11811023622
 49
0.07874015748
 49
-0.03937007874
  0
ENDTAB
  0
TABLE
  2
LAYER
 70
     7
  0
LAYER
  2
0
 70
     0
 62
     7
  6
CONTINUOUS
  0
LAYER
  2
AM_0
 70
     0
 62
     7
  6
CONTINUOUS
  0
LAYER
  2
AM_5
 70
     0
 62
     2
  6
CONTINUOUS
  0
LAYER
  2
DEFPOINTS
 70
     0
 62
     7
  6
CONTINUOUS
  0
LAYER
  2
ｶｸﾚｾﾝ2
 70
     0
 62
     3
  6
GEN3B
  0
LAYER
  2
ﾁｭｳｼﾝｾﾝ
 70
     0
 62
     1
  6
GEN7
  0
LAYER
  2
ﾁｭｳｼﾝｾﾝ1
 70
     0
 62
     1
  6
GEN7A
  0
ENDTAB
  0
TABLE
  2
STYLE
 70
     9
  0
STYLE
  2
STANDARD
 70
     0
 40
0.0
 41
0.8299999999999999
 50
0.0
 71
     0
 42
2.5
  3
txt.shx
  4
bigfont.shx
  0
STYLE
  2
ANNOTATIVE
 70
     0
 40
0.0
 41
1.0
 50
0.0
 71
     0
 42
0.2
  3
txt
  4

  0
STYLE
  2

 70
     1
 40
0.0
 41
1.0
 50
0.0
 71
     0
 42
2.5
  3
ltypeshp.shx
  4

  0
STYLE
  2
ACISOTS
 70
     0
 40
1.0
 41
1.0
 50
0.0
 71
     0
 42
2.5
  3
isocp.shx
  4
extfont.shx
  0
STYLE
  2
ACISOGDT
 70
     0
 40
0.0
 41
1.0
 50
0.0
 71
     0
 42
2.5
  3
amgdt.shx
  4

  0
STYLE
  2
ACANSTS
 70
     0
 40
1.0
 41
1.0
 50
0.0
 71
     0
 42
2.5
  3
romans.shx
  4
bigfont.shx
  0
STYLE
  2
ACANSGDT
 70
     0
 40
0.0
 41
1.0
 50
0.0
 71
     0
 42
2.5
  3
amgdt.shx
  4

  0
STYLE
  2
ACJISTS
 70
     0
 40
1.0
 41
1.0
 50
0.0
 71
     0
 42
2.5
  3
isocp.shx
  4
bigfont.shx
  0
STYLE
  2
ACJISGDT
 70
     0
 40
0.0
 41
1.0
 50
0.0
 71
     0
 42
2.5
  3
amgdt.shx
  4

  0
ENDTAB
  0
TABLE
  2
VIEW
 70
     6
  0
VIEW
  2
AM_VIEW1
 70
     0
 40
462.5
 10
416.07965009208078
 20
693.75
 41
832.15930018416213
 11
0.0
 21
0.0
 31
1.0
 12
0.0
 22
0.0
 32
0.0
 42
50.0
 43
0.0
 44
0.0
 50
0.0
 71
     0
  0
VIEW
  2
AM_VIEW2
 70
     0
 40
462.5
 10
1006.420349907918
 20
693.75
 41
832.15930018416213
 11
0.0
 21
0.0
 31
1.0
 12
0.0
 22
0.0
 32
0.0
 42
50.0
 43
0.0
 44
0.0
 50
0.0
 71
     0
  0
VIEW
  2
AM_VIEW3
 70
     0
 40
462.5
 10
416.07965009208078
 20
231.25
 41
832.15930018416213
 11
0.0
 21
0.0
 31
1.0
 12
0.0
 22
0.0
 32
0.0
 42
50.0
 43
0.0
 44
0.0
 50
0.0
 71
     0
  0
VIEW
  2
AM_VIEW4
 70
     0
 40
462.5
 10
1006.420349907918
 20
231.25
 41
832.15930018416213
 11
0.0
 21
0.0
 31
1.0
 12
0.0
 22
0.0
 32
0.0
 42
50.0
 43
0.0
 44
0.0
 50
0.0
 71
     0
  0
VIEW
  2
AM_VIEW5
 70
     0
 40
462.5
 10
711.24999999999966
 20
462.5
 41
832.15930018416179
 11
0.0
 21
0.0
 31
1.0
 12
0.0
 22
0.0
 32
0.0
 42
50.0
 43
0.0
 44
0.0
 50
0.0
 71
     0
  0
VIEW
  2
AM_VIEW6
 70
     0
 40
924.99075000000005
 10
711.24999999999966
 20
462.5
 41
1664.3019571823199
 11
0.0
 21
0.0
 31
1.0
 12
0.0
 22
0.0
 32
0.0
 42
50.0
 43
0.0
 44
0.0
 50
0.0
 71
     0
  0
ENDTAB
  0
TABLE
  2
UCS
 70
     0
  0
ENDTAB
  0
TABLE
  2
APPID
 70
    95
  0
APPID
  2
ACAD
 70
     0
  0
APPID
  2
ACADANNOTATIVE
 70
     0
  0
APPID
  2
MCAD_NO_VIS
 70
     0
  0
APPID
  2
ACAD_TEMP_GRAPHIC
 70
     0
  0
APPID
  2
ACATTRIBSERVICES
 70
     0
  0
APPID
  2
GENIUS_GENREC_14
 70
     0
  0
APPID
  2
GENIUS_GENOBJ-N-REC_13
 70
     0
  0
APPID
  2
GENIUS_GENODEF_13
 70
     0
  0
APPID
  2
GENIUS_GENOLIS_13
 70
     0
  0
APPID
  2
GENIUS_GENOBJ-N-TIT_13
 70
     0
  0
APPID
  2
GENIUS_GENOENT_13
 70
     0
  0
APPID
  2
GENIUS_GENTITLE_13
 70
     0
  0
APPID
  2
GENIUS_GENOREF_13
 70
     0
  0
APPID
  2
GENIUS_GENSCREG_15
 70
     0
  0
APPID
  2
GENIUS_GENOBJ-N-SDF_13
 70
     0
  0
APPID
  2
GENIUS_GENFIL_13
 70
     0
  0
APPID
  2
GENIUS_GENOBJ-N-CHA_13
 70
     0
  0
APPID
  2
GENIUS_GENDTOL_13
 70
     0
  0
APPID
  2
GENIUS_GENOBJ-N-FIL_13
 70
     0
  0
APPID
  2
AD_DRAW
 70
     0
  0
APPID
  2
DESIGNERASSEMBLIES
 70
     0
  0
APPID
  2
ASURF_PCURVE_APPNAME
 70
     0
  0
APPID
  2
GENIUS_GE3SECT_13
 70
     0
  0
APPID
  2
GENIUS_GENCFG_13
 70
     0
  0
APPID
  2
GENIUS_GE3CFG0_13
 70
     0
  0
APPID
  2
GENIUS_GENCFG0_13
 70
     0
  0
APPID
  2
GENIUS_GENCFG1_13
 70
     0
  0
APPID
  2
GENIUS_GENCFG2_13
 70
     0
  0
APPID
  2
GENIUS_GENCFG3_13
 70
     0
  0
APPID
  2
GENIUS_GENCFG4_13
 70
     0
  0
APPID
  2
GENIUS_GEVCFG0_13
 70
     0
  0
APPID
  2
GENIUS_GENHINW_13
 70
     0
  0
APPID
  2
GENIUS_FIRSTVISTXT_14
 70
     0
  0
APPID
  2
GENIUS_GENOBJ-N-LEADER_13
 70
     0
  0
APPID
  2
GEV_VCCNULL_SWITCH_OFF
 70
     0
  0
APPID
  2
GENIUS_GEFCFG0_13
 70
     0
  0
APPID
  2
GENIUS_GENZVEED_13
 70
     0
  0
APPID
  2
GENIUS_GENSCREG_13
 70
     0
  0
APPID
  2
GENIUS_DUMCFG0_13
 70
     0
  0
APPID
  2
GEVID936201362
 70
     0
  0
APPID
  2
GEVDC
 70
     0
  0
APPID
  2
GEVCON
 70
     0
  0
APPID
  2
VCC
 70
     0
  0
APPID
  2
GEVPT
 70
     0
  0
APPID
  2
GEVIT
 70
     0
  0
APPID
  2
GENBH
 70
     0
  0
APPID
  2
GEVMK
 70
     0
  0
APPID
  2
GENIUS_GENBH_13
 70
     0
  0
APPID
  2
GENIUS_GENOBJ-NBEHI-BHF_13
 70
     0
  0
APPID
  2
GENIUS_GENOBJ-NBEHI-BHB_13
 70
     0
  0
APPID
  2
GENIUS_GENOBJ-F-DESC_13
 70
     0
  0
APPID
  2
GENIUS_GEFDESC_14
 70
     0
  0
APPID
  2
GENIUS_GENOBJ-F-PART_13
 70
     0
  0
APPID
  2
GENIUS_GEFSTDP_13
 70
     0
  0
APPID
  2
GENIUS_GEFPARTINS_13
 70
     0
  0
APPID
  2
GENIUS_GENTRA_14
 70
     0
  0
APPID
  2
GENIUS_GENINF13_13
 70
     0
  0
APPID
  2
GENIUS_GENOBJ-N-INFOPT_13
 70
     0
  0
APPID
  2
GENIUS_GENOBJ-N-RSSYM_13
 70
     0
  0
APPID
  2
GENIUS_GENSYMENT_13
 70
     0
  0
APPID
  2
GENIUS_GENSCSYM_13
 70
     0
  0
APPID
  2
GENIUS_GEFINFNAM_13
 70
     0
  0
APPID
  2
GENIUS_GENOBJ-N-CEN_13
 70
     0
  0
APPID
  2
GENIUS_GENOBJ-N-CRS_13
 70
     0
  0
APPID
  2
GENIUS_GENOBJ-N-CRC_13
 70
     0
  0
APPID
  2
GENIUS_GENCRC_14
 70
     0
  0
APPID
  2
GEVID942827039
 70
     0
  0
APPID
  2
GEVID942827040
 70
     0
  0
APPID
  2
GEVID942827041
 70
     0
  0
APPID
  2
GENIUS_GENOBJ-F-SCPASSM_13
 70
     0
  0
APPID
  2
GENIUS_GENDIMSH_14
 70
     0
  0
APPID
  2
GEVID942827042
 70
     0
  0
APPID
  2
GEVID946020473
 70
     0
  0
APPID
  2
GEVID946020474
 70
     0
  0
APPID
  2
GEVID946020475
 70
     0
  0
APPID
  2
GENIUS_GENOBJ-N-HTC_13
 70
     0
  0
APPID
  2
GENIUS_GENHATCH_13
 70
     0
  0
APPID
  2
GEVID948854295
 70
     0
  0
APPID
  2
GEVID939402019
 70
     0
  0
APPID
  2
GEVID952919491
 70
     0
  0
APPID
  2
GEVID952919492
 70
     0
  0
APPID
  2
GENIUS_GEFWELD_13
 70
     0
  0
APPID
  2
GENIUS_GENOBJ-F-WELS_13
 70
     0
  0
APPID
  2
GEVID952919493
 70
     0
  0
APPID
  2
GENIUS_GENOBJ-N-RSBK_13
 70
     0
  0
APPID
  2
GENIUS_GENOBJ-N-LIB_13
 70
     0
  0
APPID
  2
GENIUS_GENSCALE_13
 70
     0
  0
APPID
  2
GEVID986376691
 70
     0
  0
APPID
  2
DCO15
 70
     0
  0
APPID
  2
ACAD_DSTYLE_DIMBREAK
 70
     0
  0
APPID
  2
ACAD_DSTYLE_DIMJAG
 70
     0
  0
APPID
  2
ACAD_NAV_VCDISPLAY
 70
     0
  0
APPID
  2
ACADANNOPO
 70
     0
  0
APPID
  2
ACAD_EXEMPT_FROM_CAD_STANDARDS
 70
     0
  0
APPID
  2
ACAD_MLEADERVER
 70
     0
  0
ENDTAB
  0
TABLE
  2
DIMSTYLE
 70
    22
  0
DIMSTYLE
  2
STANDARD
 70
     0
  3

  4

  5

  6

  7

 40
1.0
 41
0.18
 42
0.0625
 43
0.38
 44
0.18
 45
0.0
 46
0.0
 47
0.0
 48
0.0
140
0.18
141
0.09
142
0.0
143
25.399999999999999
144
1.0
145
0.0
146
1.0
147
0.09
 71
     0
 72
     0
 73
     1
 74
     1
 75
     0
 76
     0
 77
     0
 78
     0
170
     0
171
     2
172
     0
173
     0
174
     0
175
     0
176
     0
177
     0
178
     0
  0
DIMSTYLE
  2
ANNOTATIVE
 70
     0
  3

  4

  5

  6

  7

 40
1.0
 41
0.18
 42
0.0625
 43
0.38
 44
0.18
 45
0.0
 46
0.0
 47
0.0
 48
0.0
140
0.18
141
0.09
142
0.0
143
25.399999999999999
144
1.0
145
0.0
146
1.0
147
0.09
 71
     0
 72
     0
 73
     1
 74
     1
 75
     0
 76
     0
 77
     0
 78
     0
170
     0
171
     2
172
     0
173
     0
174
     0
175
     0
176
     0
177
     0
178
     0
  0
DIMSTYLE
  2
AM_ISO
 70
     0
  3

  4
"
  5

  6

  7

 40
1.0
 41
2.5
 42
1.0
 43
8.0
 44
0.6
 45
0.0
 46
0.0
 47
0.1
 48
0.1
140
2.5
141
0.0
142
0.0
143
0.0393701
144
1.0
145
0.0
146
0.71
147
0.8
 71
     0
 72
     0
 73
     0
 74
     0
 75
     0
 76
     0
 77
     1
 78
     8
170
     0
171
     2
172
     1
173
     0
174
     0
175
     0
176
   256
177
   256
178
     4
  0
DIMSTYLE
  2
AM_ISO$3
 70
     0
  3

  4
"
  5

  6

  7

 40
1.0
 41
2.5
 42
1.0
 43
8.0
 44
0.6
 45
0.0
 46
0.0
 47
0.1
 48
0.1
140
2.5
141
0.0
142
0.0
143
0.0393701
144
1.0
145
0.0
146
0.71
147
0.8
 71
     0
 72
     0
 73
     0
 74
     1
 75
     0
 76
     0
 77
     1
 78
     8
170
     0
171
     2
172
     0
173
     0
174
     0
175
     0
176
   256
177
   256
178
     4
  0
DIMSTYLE
  2
AM_ISO$4
 70
     0
  3

  4
"
  5

  6

  7

 40
1.0
 41
2.5
 42
1.0
 43
8.0
 44
0.6
 45
0.0
 46
0.0
 47
0.1
 48
0.1
140
2.5
141
0.0
142
0.0
143
0.0393701
144
1.0
145
0.0
146
0.71
147
0.8
 71
     0
 72
     0
 73
     0
 74
     1
 75
     0
 76
     0
 77
     1
 78
     8
170
     0
171
     2
172
     0
173
     0
174
     0
175
     0
176
   256
177
   256
178
     4
  0
DIMSTYLE
  2
AM_ISO$6
 70
     0
  3

  4
"
  5

  6

  7

 40
1.0
 41
2.5
 42
1.0
 43
8.0
 44
0.6
 45
0.0
 46
0.0
 47
0.1
 48
0.1
140
2.5
141
0.0
142
0.0
143
0.0393701
144
1.0
145
0.0
146
0.71
147
0.8
 71
     0
 72
     0
 73
     0
 74
     0
 75
     0
 76
     0
 77
     0
 78
     8
170
     0
171
     2
172
     1
173
     0
174
     0
175
     0
176
   256
177
   256
178
     4
  0
DIMSTYLE
  2
AM_ISO$7
 70
     0
  3

  4
"
  5

  6

  7

 40
1.0
 41
2.5
 42
1.0
 43
8.0
 44
0.6
 45
0.0
 46
0.0
 47
0.1
 48
0.1
140
2.5
141
0.0
142
0.0
143
0.0393701
144
1.0
145
0.0
146
0.71
147
0.8
 71
     0
 72
     0
 73
     0
 74
     0
 75
     0
 76
     0
 77
     1
 78
     8
170
     0
171
     2
172
     1
173
     0
174
     0
175
     0
176
   256
177
   256
178
     4
  0
DIMSTYLE
  2
AM_ISO$SF
 70
     0
  3

  4
"
  5

  6

  7

 40
1.0
 41
2.5
 42
1.0
 43
10.0
 44
1.0
 45
0.0
 46
0.0
 47
0.1
 48
0.1
140
3.5
141
0.0
142
0.0
143
0.0393701
144
1.0
145
0.0
146
0.71
147
1.5
 71
     0
 72
     0
 73
     0
 74
     0
 75
     1
 76
     1
 77
     1
 78
     8
170
     0
171
     2
172
     1
173
     0
174
     0
175
     0
176
   256
177
   256
178
     2
  0
DIMSTYLE
  2
AM_ISO$SH
 70
     0
  3

  4
"
  5

  6

  7

 40
1.0
 41
2.5
 42
1.0
 43
10.0
 44
1.0
 45
0.0
 46
0.0
 47
0.1
 48
0.1
140
3.5
141
0.0
142
0.0
143
0.0393701
144
2.0
145
0.0
146
0.71
147
1.5
 71
     0
 72
     0
 73
     0
 74
     0
 75
     1
 76
     1
 77
     1
 78
     8
170
     0
171
     2
172
     1
173
     1
174
     0
175
     0
176
   256
177
   256
178
     2
  0
DIMSTYLE
  2
AM_JIS
 70
     0
  3

  4
"
  5

  6

  7

 40
1.0
 41
2.5
 42
1.0
 43
7.0
 44
1.0
 45
0.0
 46
0.0
 47
0.1
 48
0.1000000001
140
2.5
141
0.0
142
0.0
143
0.0393701
144
1.0
145
0.0
146
0.71
147
1.0
 71
     0
 72
     0
 73
     0
 74
     0
 75
     0
 76
     0
 77
     3
 78
     8
170
     0
171
     2
172
     1
173
     0
174
     0
175
     0
176
   256
177
   256
178
     4
  0
DIMSTYLE
  2
AM_JIS$3
 70
     0
  3

  4
"
  5

  6

  7

 40
1.0
 41
2.5
 42
1.0
 43
7.0
 44
1.0
 45
0.0
 46
0.0
 47
0.1
 48
0.1000000001
140
2.5
141
0.0
142
0.0
143
0.0393701
144
1.0
145
0.0
146
0.71
147
1.0
 71
     0
 72
     0
 73
     0
 74
     1
 75
     0
 76
     0
 77
     3
 78
     8
170
     0
171
     2
172
     0
173
     0
174
     0
175
     0
176
   256
177
   256
178
     4
  0
DIMSTYLE
  2
AM_JIS$4
 70
     0
  3

  4
"
  5

  6

  7

 40
1.0
 41
2.5
 42
1.0
 43
7.0
 44
1.0
 45
0.0
 46
0.0
 47
0.1
 48
0.1000000001
140
2.5
141
0.0
142
0.0
143
0.0393701
144
1.0
145
0.0
146
0.71
147
1.0
 71
     0
 72
     0
 73
     0
 74
     0
 75
     0
 76
     0
 77
     3
 78
     8
170
     0
171
     2
172
     0
173
     0
174
     0
175
     0
176
   256
177
   256
178
     4
  0
DIMSTYLE
  2
AM_JIS$6
 70
     0
  3

  4
"
  5

  6

  7

 40
1.0
 41
2.5
 42
1.0
 43
7.0
 44
1.0
 45
0.0
 46
0.0
 47
0.1
 48
0.1000000001
140
2.5
141
0.0
142
0.0
143
0.0393701
144
1.0
145
0.0
146
0.71
147
1.0
 71
     0
 72
     0
 73
     0
 74
     0
 75
     0
 76
     0
 77
     0
 78
     8
170
     0
171
     2
172
     1
173
     0
174
     0
175
     0
176
   256
177
   256
178
     4
  0
DIMSTYLE
  2
AM_JIS$7
 70
     0
  3

  4
"
  5

  6

  7

 40
1.0
 41
2.5
 42
1.0
 43
7.0
 44
1.0
 45
0.0
 46
0.0
 47
0.1
 48
0.1000000001
140
2.5
141
0.0
142
0.0
143
0.0393701
144
1.0
145
0.0
146
0.71
147
1.0
 71
     0
 72
     0
 73
     0
 74
     0
 75
     0
 76
     0
 77
     3
 78
     8
170
     0
171
     2
172
     1
173
     0
174
     0
175
     0
176
   256
177
   256
178
     4
  0
DIMSTYLE
  2
AM_JIS$SF
 70
     0
  3

  4
"
  5

  6

  7

 40
1.0
 41
2.5
 42
1.0
 43
10.0
 44
1.0
 45
0.0
 46
0.0
 47
0.1
 48
0.1
140
3.5
141
0.0
142
0.0
143
0.0393701
144
1.0
145
0.0
146
0.71
147
1.5
 71
     0
 72
     0
 73
     0
 74
     0
 75
     1
 76
     1
 77
     3
 78
     8
170
     0
171
     2
172
     1
173
     0
174
     0
175
     0
176
   256
177
   256
178
     4
  0
DIMSTYLE
  2
AM_JIS$SH
 70
     0
  3

  4
"
  5

  6

  7

 40
1.0
 41
2.5
 42
1.0
 43
10.0
 44
1.0
 45
0.0
 46
0.0
 47
0.1
 48
0.1
140
3.5
141
0.0
142
0.0
143
0.0393701
144
1.0
145
0.0
146
0.71
147
1.5
 71
     0
 72
     0
 73
     0
 74
     0
 75
     1
 76
     0
 77
     3
 78
     8
170
     0
171
     2
172
     1
173
     1
174
     0
175
     0
176
   256
177
   256
178
     4
  0
DIMSTYLE
  2
AM_ANSI
 70
     0
  3

  4
mm
  5

  6

  7

 40
1.0
 41
0.1
 42
0.05
 43
0.5
 44
0.1
 45
0.0
 46
0.0
 47
0.1
 48
0.1
140
0.12
141
0.0
142
0.0
143
25.399999999999999
144
1.0
145
0.0
146
0.71
147
0.06
 71
     0
 72
     0
 73
     1
 74
     1
 75
     0
 76
     0
 77
     0
 78
     7
170
     0
171
     2
172
     0
173
     0
174
     0
175
     0
176
   256
177
   256
178
     2
  0
DIMSTYLE
  2
AM_ANSI$3
 70
     0
  3

  4
mm
  5

  6

  7

 40
1.0
 41
0.1
 42
0.05
 43
0.5
 44
0.1
 45
0.0
 46
0.0
 47
0.1
 48
0.1
140
0.12
141
0.0
142
0.0
143
25.399999999999999
144
1.0
145
0.0
146
0.71
147
0.06
 71
     0
 72
     0
 73
     1
 74
     1
 75
     0
 76
     0
 77
     0
 78
     7
170
     0
171
     2
172
     0
173
     0
174
     0
175
     0
176
   256
177
   256
178
     2
  0
DIMSTYLE
  2
AM_ANSI$4
 70
     0
  3

  4
mm
  5

  6

  7

 40
1.0
 41
0.1
 42
0.05
 43
0.5
 44
0.1
 45
0.0
 46
0.0
 47
0.1
 48
0.1
140
0.12
141
0.0
142
0.0
143
25.399999999999999
144
1.0
145
0.0
146
0.71
147
0.06
 71
     0
 72
     0
 73
     1
 74
     1
 75
     0
 76
     0
 77
     0
 78
     7
170
     0
171
     2
172
     0
173
     0
174
     0
175
     0
176
   256
177
   256
178
     2
  0
DIMSTYLE
  2
AM_ANSI$7
 70
     0
  3

  4
mm
  5

  6

  7

 40
1.0
 41
0.1
 42
0.05
 43
0.5
 44
0.1
 45
0.0
 46
0.0
 47
0.1
 48
0.1
140
0.24
141
0.0
142
0.0
143
25.399999999999999
144
1.0
145
0.0
146
0.71
147
0.06
 71
     0
 72
     0
 73
     1
 74
     1
 75
     0
 76
     0
 77
     0
 78
     7
170
     0
171
     2
172
     0
173
     0
174
     0
175
     0
176
   256
177
   256
178
     2
  0
DIMSTYLE
  2
AM_ANSI$SF
 70
     0
  3

  4
mm
  5

  6

  7

 40
1.0
 41
0.1
 42
0.05
 43
0.5
 44
0.1
 45
0.0
 46
0.0
 47
0.1
 48
0.1
140
0.12
141
0.0
142
0.0
143
25.399999999999999
144
1.0
145
0.0
146
0.71
147
0.06
 71
     0
 72
     0
 73
     1
 74
     1
 75
     1
 76
     1
 77
     0
 78
     7
170
     0
171
     2
172
     0
173
     0
174
     0
175
     0
176
   256
177
   256
178
     2
  0
DIMSTYLE
  2
AM_ANSI$SH
 70
     0
  3

  4
mm
  5

  6

  7

 40
1.0
 41
0.1
 42
0.05
 43
0.5
 44
0.1
 45
0.0
 46
0.0
 47
0.1
 48
0.1
140
0.12
141
0.0
142
0.0
143
25.399999999999999
144
1.0
145
0.0
146
0.71
147
0.06
 71
     0
 72
     0
 73
     1
 74
     1
 75
     1
 76
     1
 77
     0
 78
     7
170
     0
171
     2
172
     0
173
     1
174
     0
175
     0
176
   256
177
   256
178
     2
  0
ENDTAB
  0
ENDSEC
  0
SECTION
  2
BLOCKS
  0
BLOCK
  8
0
  2
$MODEL_SPACE
 70
     0
 10
0.0
 20
0.0
 30
0.0
  3
$MODEL_SPACE
  1

  0
ENDBLK
  5
2F1C
  8
0
  0
BLOCK
 67
     1
  8
0
  2
$PAPER_SPACE
 70
     0
 10
0.0
 20
0.0
 30
0.0
  3
$PAPER_SPACE
  1

  0
ENDBLK
  5
2F18
 67
     1
  8
0
  0
BLOCK
  8
0
  2
GENAXEH
 70
     0
 10
0.0
 20
0.0
 30
0.0
  3
GENAXEH
  1

  0
LINE
  5
2CFD
  8
0
 10
-1.0
 20
0.0
 30
0.0
 11
1.0
 21
0.0
 31
0.0
  0
ENDBLK
  5
2CFE
  8
0
  0
BLOCK
  8
0
  2
_OPEN30
 70
     0
 10
0.0
 20
0.0
 30
0.0
  3
_OPEN30
  1

  0
LINE
  5
2D01
  8
0
 62
     0
 10
-1.0
 20
0.26794919
 30
0.0
 11
0.0
 21
0.0
 31
0.0
  0
LINE
  5
2D02
  8
0
 62
     0
 10
0.0
 20
0.0
 30
0.0
 11
-1.0
 21
-0.26794919
 31
0.0
  0
LINE
  5
2D03
  8
0
 62
     0
 10
0.0
 20
0.0
 30
0.0
 11
-1.0
 21
0.0
 31
0.0
  0
ENDBLK
  5
2D04
  8
0
  0
BLOCK
  8
0
  2
_NONE
 70
     0
 10
0.0
 20
0.0
 30
0.0
  3
_NONE
  1

  0
ENDBLK
  5
2D07
  8
0
  0
BLOCK
  8
0
  2
_ACMFILLEDHALF
 70
     0
 10
0.0
 20
0.0
 30
0.0
  3
_ACMFILLEDHALF
  1

  0
TRACE
  5
3014
  8
AM_0
 62
     0
 10
-0.8
 20
0.0
 30
0.0
 11
-1.0
 21
0.166666666
 31
0.0
 12
0.0
 22
0.0
 32
0.0
 13
0.0
 23
0.0
 33
0.0
  0
LINE
  5
3015
  8
AM_0
 62
     0
 10
-1.0
 20
0.0
 30
0.0
 11
-0.8
 21
0.0
 31
0.0
  0
ENDBLK
  5
3013
  8
0
  0
ENDSEC
  0
SECTION
  2
ENTITIES
  0
LINE
  5
2D09
  8
ﾁｭｳｼﾝｾﾝ
 10
292.24297335532782
 20
951.06678563803541
 30
0.0
 11
682.96159533456569
 21
951.06678563803541
 31
0.0
  0
ARC
  5
2D0A
  8
AM_0
 10
409.53280533456592
 20
937.83802563803545
 30
0.0
 40
5.0
 50
0.0
 51
41.409624000000257
  0
LINE
  5
2D0B
  8
AM_0
 10
442.53280533456592
 20
946.06678563803541
 30
0.0
 11
442.53280533456592
 21
818.06678563803541
 31
0.0
  0
LINE
  5
2D0C
  8
AM_0
 10
394.0327453345659
 20
844.61109563803575
 30
0.0
 11
394.0327453345659
 21
1057.5224756380351
 31
0.0
  0
LINE
  5
2D0D
  8
AM_0
 10
467.5327453345659
 20
818.9397656380354
 30
0.0
 11
467.5327453345659
 21
1083.1937356380349
 31
0.0
  0
LINE
  5
2D0E
  8
AM_0
 10
557.53280533456598
 20
842.94465563803533
 30
0.0
 11
557.53280533456598
 21
1059.188855638035
 31
0.0
  0
LINE
  5
2D0F
  8
AM_0
 10
584.53280533456575
 20
1048.437755638035
 30
0.0
 11
584.53280533456575
 21
853.6958156380357
 31
0.0
  0
LINE
  5
2D10
  8
AM_0
 10
589.53280533456575
 20
1009.135385638034
 30
0.0
 11
589.53280533456575
 21
892.99817563803526
 31
0.0
  0
LINE
  5
2D11
  8
AM_0
 10
595.53274533456602
 20
981.0667856380353
 30
0.0
 11
595.53274533456602
 21
921.06678563803541
 31
0.0
  0
LINE
  5
2D12
  8
AM_0
 10
677.53274533456602
 20
978.56678563803553
 30
0.0
 11
677.53274533456602
 21
923.56678563803541
 31
0.0
  0
LINE
  5
2D13
  8
AM_0
 10
378.53280533456598
 20
877.56678563803575
 30
0.0
 11
378.53280533456598
 21
1024.5667856380351
 31
0.0
  0
LINE
  5
2D14
  8
AM_0
 10
471.67751533456573
 20
823.08454563803559
 30
0.0
 11
521.37276533456577
 21
824.8198956380354
 31
0.0
  0
LINE
  5
2D15
  8
AM_0
 10
447.53274533456579
 20
786.06672563803545
 30
0.0
 11
584.70730533456572
 21
790.85700563803516
 31
0.0
  0
ARC
  5
2D16
  8
AM_0
 10
364.53280533456598
 20
793.96827563803538
 30
0.0
 40
5.0
 50
180.00001000000091
 51
268.00000000000261
  0
LINE
  5
2D17
  8
AM_0
 10
415.06905533456592
 20
787.40876563803545
 30
0.0
 11
445.53280533456598
 21
798.17981563803539
 31
0.0
  0
LINE
  5
2D18
  8
AM_0
 10
447.53280533456592
 20
786.06678563803541
 30
0.0
 11
364.3583053345659
 21
788.97132563803541
 31
0.0
  0
LINE
  5
2D19
  8
AM_0
 10
442.53280533456592
 20
818.06678563803541
 30
0.0
 11
419.35830533456578
 21
818.87604563803541
 31
0.0
  0
LINE
  5
2D1A
  8
AM_0
 10
418.53280533456592
 20
799.24006563803539
 30
0.0
 11
445.53286533456571
 21
808.78644563803527
 31
0.0
  0
LINE
  5
2D1B
  8
AM_0
 10
414.53280533456592
 20
823.87299563803526
 30
0.0
 11
414.53280533456592
 21
937.83802563803545
 31
0.0
  0
CIRCLE
  5
2D1C
  8
AM_0
 10
389.53280533456598
 20
818.56678563803575
 30
0.0
 40
9.5
  0
LINE
  5
2D1D
  8
AM_0
 10
363.66451533456598
 20
841.27851563803574
 30
0.0
 11
394.0327453345659
 21
846.63324563803531
 31
0.0
  0
LINE
  5
2D1E
  8
AM_0
 10
359.53280533456598
 20
793.96827563803538
 30
0.0
 11
359.53280533456598
 21
836.35450563803545
 31
0.0
  0
ARC
  5
2D1F
  8
AM_0
 10
364.53280533456598
 20
836.35450563803545
 30
0.0
 40
5.0
 50
99.999999999998593
 51
180.0
  0
ARC
  5
2D20
  8
AM_0
 10
417.53280533456592
 20
802.0684956380353
 30
0.0
 40
3.0
 50
180.00001000000091
 51
289.47202999999712
  0
ARC
  5
2D21
  8
AM_0
 10
419.53280533456598
 20
823.87299563803526
 30
0.0
 40
5.0
 50
180.00001000000091
 51
268.00000000000261
  0
LINE
  5
2D22
  8
AM_0
 10
409.70730533456577
 20
839.23529563803527
 30
0.0
 11
398.85824533456571
 21
839.61414563803544
 31
0.0
  0
ARC
  5
2D23
  8
AM_0
 10
399.0327453345659
 20
844.61109563803575
 30
0.0
 40
5.0
 50
180.00001000000091
 51
268.00000000000261
  0
ARC
  5
2D24
  8
AM_0
 10
409.53280533456592
 20
834.23829563803554
 30
0.0
 40
5.0
 50
0.0
 51
88.000000000002785
  0
LINE
  5
2D25
  8
AM_0
 10
378.5327453345659
 20
877.56672563803545
 30
0.0
 11
389.20730533456577
 21
877.19397563803545
 31
0.0
  0
LINE
  5
2D26
  8
AM_0
 10
378.53280533456598
 20
911.59205563803539
 30
0.0
 11
394.0327453345659
 21
911.59205563803539
 31
0.0
  0
LINE
  5
2D27
  8
AM_0
 10
378.53280533456598
 20
889.48682563803538
 30
0.0
 11
394.0327453345659
 21
889.48682563803538
 31
0.0
  0
ARC
  5
2D28
  8
AM_0
 10
389.0327453345659
 20
872.19703563803546
 30
0.0
 40
5.0
 50
0.0
 51
88.000000000002785
  0
LINE
  5
2D29
  8
AM_0
 10
467.53280533456592
 20
818.9397656380354
 30
0.0
 11
471.67751533456573
 21
823.08454563803559
 31
0.0
  0
LINE
  5
2D2A
  8
AM_0
 10
442.5327453345659
 20
818.06678563803541
 30
0.0
 11
467.5327453345659
 21
818.9397656380354
 31
0.0
  0
ARC
  5
2D2B
  8
AM_0
 10
444.53280533456598
 20
811.61487563803541
 30
0.0
 40
3.0
 50
289.47202000000181
 51
0.0
  0
LINE
  5
2D2C
  8
AM_0
 10
447.53280533456592
 20
801.00818563803546
 30
0.0
 11
447.53280533456592
 21
818.24134563803545
 31
0.0
  0
ARC
  5
2D2D
  8
AM_0
 10
444.53280533456598
 20
801.00818563803546
 30
0.0
 40
3.0
 50
289.47202000000181
 51
0.0
  0
ARC
  5
2D2E
  8
AM_0
 10
529.53280533456586
 20
793.9332956380357
 30
0.0
 40
5.0
 50
180.00001000000091
 51
271.99999000000139
  0
ARC
  5
2D2F
  8
AM_0
 10
584.53280533456575
 20
795.85395563803559
 30
0.0
 40
5.0
 50
271.9999999999971
 51
0.0
  0
LINE
  5
2D30
  8
AM_0
 10
589.53280533456575
 20
921.06678563803541
 30
0.0
 11
595.53274533456602
 21
921.06678563803541
 31
0.0
  0
ARC
  5
2D31
  8
AM_0
 10
549.53280533456598
 20
842.94465563803533
 30
0.0
 40
8.0
 50
271.9999999999971
 51
0.0
  0
CIRCLE
  5
2D32
  8
AM_0
 10
559.53280533456575
 20
818.56678563803575
 30
0.0
 40
9.5
  0
LINE
  5
2D33
  8
ﾁｭｳｼﾝｾﾝ1
 10
540.03280533456575
 20
818.56678563803575
 30
0.0
 11
579.03280533456598
 21
818.56678563803575
 31
0.0
  0
ARC
  5
2D34
  8
AM_0
 10
521.19820533456607
 20
829.81690563803545
 30
0.0
 40
5.0
 50
271.9999999999971
 51
334.42648000000293
  0
ARC
  5
2D35
  8
AM_0
 10
536.53280533456598
 20
822.47852563803542
 30
0.0
 40
12.0
 50
91.999998000000545
 51
180.00001000000091
  0
LINE
  5
2D36
  8
AM_0
 10
524.53280533456598
 20
793.9332956380357
 30
0.0
 11
524.53280533456598
 21
822.47852563803542
 31
0.0
  0
LINE
  5
2D37
  8
AM_0
 10
536.11397533456591
 20
834.47120563803549
 30
0.0
 11
549.811975334566
 21
834.94953563803529
 31
0.0
  0
LINE
  5
2D38
  8
AM_0
 10
589.53280533456575
 20
795.85395563803559
 30
0.0
 11
589.53280533456575
 21
846.27955563803528
 31
0.0
  0
LINE
  5
2D39
  8
ﾁｭｳｼﾝｾﾝ1
 10
559.53280533456575
 20
799.06678563803541
 30
0.0
 11
559.53280533456575
 21
838.06678563803541
 31
0.0
  0
LINE
  5
2D3A
  8
AM_0
 10
565.25362533456575
 20
851.33637563803529
 30
0.0
 11
576.811975334566
 21
851.73999563803545
 31
0.0
  0
ARC
  5
2D3B
  8
AM_0
 10
565.53280533456598
 20
843.34125563803548
 30
0.0
 40
8.0
 50
91.999998000000545
 51
180.00001000000091
  0
ARC
  5
2D3C
  8
AM_0
 10
576.53280533456575
 20
859.73511563803527
 30
0.0
 40
8.0
 50
271.9999999999971
 51
0.0
  0
ARC
  5
2D3D
  8
AM_0
 10
587.53280533456586
 20
853.6958156380357
 30
0.0
 40
3.0
 50
180.00001000000091
 51
247.97569000000061
  0
ARC
  5
2D3E
  8
AM_0
 10
584.53280533456575
 20
846.27955563803528
 30
0.0
 40
5.0
 50
0.0
 51
67.975688999996393
  0
ARC
  5
2D3F
  8
AM_0
 10
586.53280533456598
 20
888.96082563803543
 30
0.0
 40
2.0
 50
91.999998000000545
 51
180.00001000000091
  0
ARC
  5
2D40
  8
AM_0
 10
587.53280533456586
 20
892.99817563803526
 30
0.0
 40
2.0
 50
271.9999999999971
 51
0.0
  0
LINE
  5
2D41
  8
AM_0
 10
586.46297533456595
 20
890.95960563803555
 30
0.0
 11
587.60262533456591
 21
890.99939563803594
 31
0.0
  0
LINE
  5
2D42
  8
AM_0
 10
595.53274533456602
 20
923.56678563803541
 30
0.0
 11
677.53274533456602
 21
923.56678563803541
 31
0.0
  0
LINE
  5
2D43
  8
AM_0
 10
447.53280533456592
 20
1116.0667856380351
 30
0.0
 11
584.70730533456572
 21
1111.276495638034
 31
0.0
  0
LINE
  5
2D44
  8
AM_0
 10
471.67751533456573
 20
1079.0489556380351
 30
0.0
 11
521.37276533456577
 21
1077.3136056380349
 31
0.0
  0
CIRCLE
  5
2D45
  8
AM_0
 10
389.53280533456598
 20
1083.5667856380351
 30
0.0
 40
9.5
  0
LINE
  5
2D46
  8
AM_0
 10
359.53280533456598
 20
1108.1652956380351
 30
0.0
 11
359.53280533456598
 21
1065.779065638035
 31
0.0
  0
LINE
  5
2D47
  8
AM_0
 10
447.53280533456592
 20
1101.1253156380351
 30
0.0
 11
447.53280533456592
 21
1083.8921656380351
 31
0.0
  0
ARC
  5
2D48
  8
AM_0
 10
424.53280533456598
 20
951.06678563803541
 30
0.0
 40
12.5
 50
203.5781799999973
 51
336.42183000000068
  0
ARC
  5
2D49
  8
AM_0
 10
424.53280533456598
 20
951.06678563803541
 30
0.0
 40
12.5
 50
23.578179999997531
 51
156.42182000000241
  0
LINE
  5
2D4A
  8
AM_0
 10
404.53280533456592
 20
956.0667856380353
 30
0.0
 11
444.53280533456598
 21
956.0667856380353
 31
0.0
  0
LINE
  5
2D4B
  8
AM_0
 10
404.53280533456592
 20
946.06678563803541
 30
0.0
 11
444.53280533456598
 21
946.06678563803541
 31
0.0
  0
LINE
  5
2D4C
  8
AM_0
 10
442.5327453345659
 20
1084.0667856380351
 30
0.0
 11
419.35830533456578
 21
1083.257455638035
 31
0.0
  0
LINE
  5
2D4D
  8
AM_0
 10
414.53280533456592
 20
964.29554563803583
 30
0.0
 11
414.53280533456592
 21
1078.2605056380351
 31
0.0
  0
LINE
  5
2D4E
  8
AM_0
 10
378.53280533456598
 20
990.54145563803547
 30
0.0
 11
394.0327453345659
 21
990.54145563803547
 31
0.0
  0
ARC
  5
2D4F
  8
AM_0
 10
404.53280533456592
 20
951.06678563803541
 30
0.0
 40
5.0
 50
90.00000299999769
 51
270.0
  0
ARC
  5
2D50
  8
AM_0
 10
424.53280533456598
 20
951.06678563803541
 30
0.0
 40
15.0
 50
138.590370000001
 51
160.52876999999901
  0
ARC
  5
2D51
  8
AM_0
 10
424.53280533456598
 20
951.06678563803541
 30
0.0
 40
15.0
 50
199.4712300000005
 51
221.4096299999988
  0
ARC
  5
2D52
  8
AM_0
 10
409.53280533456592
 20
964.29554563803583
 30
0.0
 40
5.0
 50
318.59037000000097
 51
0.0
  0
LINE
  5
2D53
  8
AM_0
 10
363.66457533456571
 20
1060.8549856380339
 30
0.0
 11
394.03280533456598
 21
1055.500255638035
 31
0.0
  0
LINE
  5
2D54
  8
AM_0
 10
378.5327453345659
 20
1024.5667856380351
 30
0.0
 11
389.20724533456598
 21
1024.9395256380351
 31
0.0
  0
LINE
  5
2D55
  8
AM_0
 10
378.53280533456598
 20
1012.646795638035
 30
0.0
 11
394.0327453345659
 21
1012.646795638035
 31
0.0
  0
ARC
  5
2D56
  8
AM_0
 10
364.53280533456598
 20
1065.779065638035
 30
0.0
 40
5.0
 50
180.00001000000091
 51
259.99998999999872
  0
ARC
  5
2D57
  8
AM_0
 10
389.0327453345659
 20
1029.9364756380351
 30
0.0
 40
5.0
 50
271.9999999999971
 51
0.0
  0
LINE
  5
2D58
  8
AM_0
 10
409.70724533456593
 20
1062.8982656380349
 30
0.0
 11
398.85824533456571
 21
1062.5194156380351
 31
0.0
  0
ARC
  5
2D59
  8
AM_0
 10
399.0327453345659
 20
1057.5224756380351
 30
0.0
 40
5.0
 50
91.999998000000545
 51
180.00001000000091
  0
ARC
  5
2D5A
  8
AM_0
 10
409.53280533456592
 20
1067.8952156380351
 30
0.0
 40
5.0
 50
271.9999999999971
 51
0.0
  0
ARC
  5
2D5B
  8
AM_0
 10
419.53280533456598
 20
1078.2605056380351
 30
0.0
 40
5.0
 50
91.999998000000545
 51
180.00001000000091
  0
LINE
  5
2D5C
  8
AM_0
 10
442.53280533456592
 20
1084.0667856380351
 30
0.0
 11
442.53280533456592
 21
956.0667856380353
 31
0.0
  0
ARC
  5
2D5D
  8
AM_0
 10
444.53280533456598
 20
951.06678563803541
 30
0.0
 40
5.0
 50
270.0
 51
90.00000299999769
  0
LINE
  5
2D5E
  8
AM_0
 10
467.53280533456592
 20
1083.1937356380349
 30
0.0
 11
471.67751533456573
 21
1079.049025638034
 31
0.0
  0
LINE
  5
2D5F
  8
AM_0
 10
442.53280533456592
 20
1084.0667256380341
 30
0.0
 11
467.53280533456592
 21
1083.1937356380349
 31
0.0
  0
LINE
  5
2D60
  8
AM_0
 10
415.06905533456592
 20
1114.724805638034
 30
0.0
 11
445.53280533456598
 21
1103.9537456380349
 31
0.0
  0
LINE
  5
2D61
  8
AM_0
 10
418.53280533456592
 20
1102.893445638035
 30
0.0
 11
445.53286533456571
 21
1093.347055638035
 31
0.0
  0
LINE
  5
2D62
  8
AM_0
 10
447.53280533456592
 20
1116.0667856380351
 30
0.0
 11
364.35824533456571
 21
1113.1622456380351
 31
0.0
  0
ARC
  5
2D63
  8
AM_0
 10
364.53280533456598
 20
1108.1652956380351
 30
0.0
 40
5.0
 50
91.999998000000545
 51
180.00001000000091
  0
ARC
  5
2D64
  8
AM_0
 10
417.53280533456592
 20
1100.065015638035
 30
0.0
 40
3.0
 50
70.527972999999633
 51
180.00001000000091
  0
ARC
  5
2D65
  8
AM_0
 10
444.53280533456598
 20
1101.1253156380351
 30
0.0
 40
3.0
 50
0.0
 51
70.527972999999633
  0
ARC
  5
2D66
  8
AM_0
 10
444.53280533456598
 20
1090.518625638035
 30
0.0
 40
3.0
 50
0.0
 51
70.527972999999633
  0
CIRCLE
  5
2D67
  8
AM_0
 10
559.53280533456575
 20
1083.5667856380351
 30
0.0
 40
9.5
  0
LINE
  5
2D68
  8
AM_0
 10
589.53280533456575
 20
1106.279555638034
 30
0.0
 11
589.53280533456575
 21
1055.8539556380349
 31
0.0
  0
LINE
  5
2D69
  8
AM_0
 10
524.53280533456598
 20
1108.200205638035
 30
0.0
 11
524.53280533456598
 21
1079.6550356380351
 31
0.0
  0
LINE
  5
2D6A
  8
AM_0
 10
589.53280533456575
 20
981.0667856380353
 30
0.0
 11
595.53274533456602
 21
981.0667856380353
 31
0.0
  0
ARC
  5
2D6B
  8
AM_0
 10
586.53280533456598
 20
1013.172735638035
 30
0.0
 40
2.0
 50
180.00001000000091
 51
268.00000000000261
  0
ARC
  5
2D6C
  8
AM_0
 10
587.53280533456586
 20
1009.135385638034
 30
0.0
 40
2.0
 50
0.0
 51
88.000000000002785
  0
LINE
  5
2D6D
  8
AM_0
 10
586.46297533456595
 20
1011.173955638035
 30
0.0
 11
587.60262533456591
 21
1011.134165638035
 31
0.0
  0
ARC
  5
2D6E
  8
AM_0
 10
549.53280533456598
 20
1059.188855638035
 30
0.0
 40
8.0
 50
0.0
 51
88.000000000002785
  0
ARC
  5
2D6F
  8
AM_0
 10
536.53280533456598
 20
1079.6550356380351
 30
0.0
 40
12.0
 50
180.00001000000091
 51
268.00000000000261
  0
ARC
  5
2D70
  8
AM_0
 10
521.19820533456607
 20
1072.316655638034
 30
0.0
 40
5.0
 50
25.5735169999985
 51
88.000000000002785
  0
LINE
  5
2D71
  8
AM_0
 10
536.11397533456591
 20
1067.662305638034
 30
0.0
 11
549.81203533456585
 21
1067.183965638035
 31
0.0
  0
ARC
  5
2D72
  8
AM_0
 10
587.53280533456586
 20
1048.437755638035
 30
0.0
 40
3.0
 50
112.0243099999992
 51
180.00001000000091
  0
ARC
  5
2D73
  8
AM_0
 10
576.53280533456575
 20
1042.3983856380351
 30
0.0
 40
8.0
 50
0.0
 51
88.000000000002785
  0
ARC
  5
2D74
  8
AM_0
 10
565.53280533456598
 20
1058.792245638034
 30
0.0
 40
8.0
 50
180.00001000000091
 51
268.00000000000261
  0
LINE
  5
2D75
  8
AM_0
 10
565.25362533456575
 20
1050.7971256380349
 30
0.0
 11
576.811975334566
 21
1050.3935056380351
 31
0.0
  0
ARC
  5
2D76
  8
AM_0
 10
584.53280533456575
 20
1055.8539556380349
 30
0.0
 40
5.0
 50
292.02430999999922
 51
0.0
  0
LINE
  5
2D77
  8
AM_0
 10
615.53280533456598
 20
959.06678563803541
 30
0.0
 11
677.53274533456602
 21
959.06678563803541
 31
0.0
  0
LINE
  5
2D78
  8
AM_0
 10
615.53280533456598
 20
943.06672563803545
 30
0.0
 11
677.53274533456602
 21
943.06672563803545
 31
0.0
  0
LINE
  5
2D79
  8
AM_0
 10
595.53274533456602
 20
978.56678563803553
 30
0.0
 11
677.53274533456602
 21
978.56678563803553
 31
0.0
  0
ARC
  5
2D7A
  8
AM_0
 10
615.53280533456598
 20
951.06672563803545
 30
0.0
 40
8.0000113999999982
 50
90.00000299999769
 51
270.0
  0
LINE
  5
2D7B
  8
AM_0
 10
615.53274533456602
 20
959.06678563803541
 30
0.0
 11
615.53274533456602
 21
943.06672563803545
 31
0.0
  0
ARC
  5
2D7C
  8
AM_0
 10
529.53280533456586
 20
1108.200205638035
 30
0.0
 40
5.0
 50
88.000000000002785
 51
180.00001000000091
  0
ARC
  5
2D7D
  8
AM_0
 10
584.53280533456575
 20
1106.279555638034
 30
0.0
 40
5.0
 50
0.0
 51
88.000000000002785
  0
LINE
  5
2D7E
  8
ﾁｭｳｼﾝｾﾝ1
 10
540.03280533456575
 20
1083.5667856380351
 30
0.0
 11
579.03280533456598
 21
1083.5667856380351
 31
0.0
  0
LINE
  5
2D7F
  8
ﾁｭｳｼﾝｾﾝ1
 10
559.53280533456575
 20
1064.0667856380351
 30
0.0
 11
559.53280533456575
 21
1103.0667856380351
 31
0.0
  0
LINE
  5
2D80
  8
ﾁｭｳｼﾝｾﾝ1
 10
370.03280533456598
 20
1083.5667856380351
 30
0.0
 11
409.03280533456592
 21
1083.5667856380351
 31
0.0
  0
LINE
  5
2D81
  8
ﾁｭｳｼﾝｾﾝ1
 10
389.53280533456598
 20
1064.0667856380351
 30
0.0
 11
389.53280533456598
 21
1103.0667856380351
 31
0.0
  0
LINE
  5
2D82
  8
ﾁｭｳｼﾝｾﾝ1
 10
370.03280533456598
 20
818.56678563803575
 30
0.0
 11
409.03280533456592
 21
818.56678563803575
 31
0.0
  0
LINE
  5
2D83
  8
ﾁｭｳｼﾝｾﾝ1
 10
389.53280533456598
 20
799.06678563803541
 30
0.0
 11
389.53280533456598
 21
838.06678563803541
 31
0.0
  0
LINE
  5
2D84
  8
AM_0
 10
595.5327453345659
 20
452.14635736432422
 30
0.0
 11
677.5327453345659
 21
452.14635736432422
 31
0.0
  0
LINE
  5
2D85
  8
ﾁｭｳｼﾝｾﾝ
 10
403.6901453345659
 20
479.64635736432427
 30
0.0
 11
682.96159533456569
 21
479.64635736432427
 31
0.0
  0
LINE
  5
2D86
  8
AM_0
 10
595.5327453345659
 20
507.1463573643241
 30
0.0
 11
677.5327453345659
 21
507.1463573643241
 31
0.0
  0
LINE
  5
2D87
  8
AM_0
 10
414.53274533456522
 20
598.74764236432429
 30
0.0
 11
414.53274533456522
 21
310.7802023643244
 31
0.0
  0
LINE
  5
2D88
  8
AM_0
 10
394.03274533456567
 20
539.31214236432425
 30
0.0
 11
394.03274533456567
 21
330.75212736432428
 31
0.0
  0
LINE
  5
2D89
  8
AM_0
 10
378.53279533456538
 20
361.14635236432429
 30
0.0
 11
378.53279533456538
 21
508.1463573643241
 31
0.0
  0
LINE
  5
2D8A
  8
AM_0
 10
442.5327453345659
 20
601.64634236432425
 30
0.0
 11
442.5327453345659
 21
369.04027236432432
 31
0.0
  0
LINE
  5
2D8B
  8
AM_0
 10
524.53274533456545
 20
516.60399736432419
 30
0.0
 11
524.53274533456545
 21
319.64635236432429
 31
0.0
  0
LINE
  5
2D8C
  8
AM_0
 10
557.5327453345659
 20
583.97354236432432
 30
0.0
 11
557.5327453345659
 21
335.95336236432439
 31
0.0
  0
LINE
  5
2D8D
  8
AM_0
 10
447.53274533456567
 20
471.75234236432431
 30
0.0
 11
447.53274533456567
 21
381.88533736432441
 31
0.0
  0
LINE
  5
2D8E
  8
AM_0
 10
589.53274533456556
 20
537.71499236432419
 30
0.0
 11
589.53274533456556
 21
421.57775236432411
 31
0.0
  0
LINE
  5
2D8F
  8
AM_0
 10
584.53274533456545
 20
560.06464236432453
 30
0.0
 11
584.53274533456545
 21
313.30660236432431
 31
0.0
  0
LINE
  5
2D90
  8
AM_0
 10
595.5327453345659
 20
509.64635736432427
 30
0.0
 11
595.5327453345659
 21
449.64635736432422
 31
0.0
  0
LINE
  5
2D91
  8
AM_0
 10
310.53279533456538
 20
533.64635236432434
 30
0.0
 11
310.53279533456538
 21
335.6463523643244
 31
0.0
  0
LINE
  5
2D92
  8
AM_0
 10
300.53279533456549
 20
334.6463523643244
 30
0.0
 11
300.53279533456549
 21
534.64635236432434
 31
0.0
  0
LINE
  5
2D93
  8
AM_0
 10
344.53279533456549
 20
372.80159736432449
 30
0.0
 11
344.53279533456549
 21
496.12276436432433
 31
0.0
  0
LINE
  5
2D94
  8
AM_0
 10
363.53279533456549
 20
508.14635236432417
 30
0.0
 11
363.53279533456549
 21
361.14635236432429
 31
0.0
  0
LINE
  5
2D95
  8
AM_0
 10
359.53274533456528
 20
279.6463523643244
 30
0.0
 11
589.53274533456556
 21
279.6463523643244
 31
0.0
  0
LINE
  5
2D96
  8
AM_0
 10
364.53274533456528
 20
309.6463523643244
 30
0.0
 11
411.36214533456553
 21
309.6463523643244
 31
0.0
  0
LINE
  5
2D97
  8
ﾁｭｳｼﾝｾﾝ
 10
292.24297335532782
 20
434.64635236432429
 30
0.0
 11
452.29689533456582
 21
434.64635236432429
 31
0.0
  0
LINE
  5
2D98
  8
AM_0
 10
363.53279533456549
 20
361.14635236432429
 30
0.0
 11
378.53279533456538
 21
361.14635236432429
 31
0.0
  0
LINE
  5
2D99
  8
AM_0
 10
365.38135733456568
 20
372.99635236432442
 30
0.0
 11
376.84079733456548
 21
372.99635236432442
 31
0.0
  0
ARC
  5
2D9A
  8
AM_0
 10
364.53274533456528
 20
304.6463523643244
 30
0.0
 40
5.0
 50
90.00000299999769
 51
180.00001000000091
  0
LINE
  5
2D9B
  8
AM_0
 10
359.53274533456528
 20
304.6463523643244
 30
0.0
 11
359.53274533456528
 21
279.6463523643244
 31
0.0
  0
LINE
  5
2D9C
  8
AM_0
 10
344.53279533456549
 20
367.2442733643245
 30
0.0
 11
313.27132733456523
 21
364.50924936432432
 31
0.0
  0
LINE
  5
2D9D
  8
AM_0
 10
300.53279533456549
 20
334.6463523643244
 30
0.0
 11
309.53279533456549
 21
334.6463523643244
 31
0.0
  0
ARC
  5
2D9E
  8
AM_0
 10
309.53279533456549
 20
335.6463523643244
 30
0.0
 40
1.0
 50
270.0
 51
0.0
  0
ARC
  5
2D9F
  8
AM_0
 10
313.53279533456549
 20
361.52066536432449
 30
0.0
 40
3.0
 50
95.0
 51
180.0
  0
LINE
  5
2DA0
  8
AM_0
 10
361.70710633456548
 20
365.7417163643243
 30
0.0
 11
344.53279533456549
 21
367.2442733643245
 31
0.0
  0
ARC
  5
2DA1
  8
AM_0
 10
361.53279533456549
 20
363.74932636432442
 30
0.0
 40
2.0
 50
0.0
 51
84.999999999999986
  0
ARC
  5
2DA2
  8
AM_0
 10
411.36214533456553
 20
314.6463523643244
 30
0.0
 40
5.0
 50
270.0
 51
334.75946999999809
  0
LINE
  5
2DA3
  8
ﾁｭｳｼﾝｾﾝ1
 10
389.53274533456528
 20
313.55422236432429
 30
0.0
 11
389.53274533456528
 21
276.6463523643244
 31
0.0
  0
LINE
  5
2DA4
  8
AM_0
 10
407.73879533456562
 20
309.64638236432432
 30
0.0
 11
396.12874533456568
 21
324.62621236432432
 31
0.0
  0
ARC
  5
2DA5
  8
AM_0
 10
589.53274533456556
 20
313.30660236432431
 30
0.0
 40
5.0
 50
179.9999899999988
 51
240.00000999999969
  0
ARC
  5
2DA6
  8
AM_0
 10
584.53274533456545
 20
304.6463523643244
 30
0.0
 40
5.0
 50
0.0
 51
90.00000299999769
  0
ARC
  5
2DA7
  8
AM_0
 10
534.53274533456545
 20
319.64635236432429
 30
0.0
 40
10.0
 50
179.9999899999988
 51
270.0
  0
LINE
  5
2DA8
  8
ﾁｭｳｼﾝｾﾝ1
 10
559.53274533456545
 20
313.55422236432429
 30
0.0
 11
559.53274533456545
 21
276.6463523643244
 31
0.0
  0
LINE
  5
2DA9
  8
ｶｸﾚｾﾝ2
 10
380.03274533456567
 20
309.6463523643244
 30
0.0
 11
380.03274533456567
 21
279.6463523643244
 31
0.0
  0
LINE
  5
2DAA
  8
ｶｸﾚｾﾝ2
 10
399.03274533456567
 20
309.6463523643244
 30
0.0
 11
399.03274533456567
 21
279.6463523643244
 31
0.0
  0
LINE
  5
2DAB
  8
AM_0
 10
534.53274533456545
 20
309.6463523643244
 30
0.0
 11
584.53274533456545
 21
309.6463523643244
 31
0.0
  0
LINE
  5
2DAC
  8
ｶｸﾚｾﾝ2
 10
550.0327453345659
 20
309.6463523643244
 30
0.0
 11
550.0327453345659
 21
279.6463523643244
 31
0.0
  0
LINE
  5
2DAD
  8
ｶｸﾚｾﾝ2
 10
569.03274533456556
 20
309.6463523643244
 30
0.0
 11
569.03274533456556
 21
279.6463523643244
 31
0.0
  0
LINE
  5
2DAE
  8
AM_0
 10
589.53274533456556
 20
304.6463523643244
 30
0.0
 11
589.53274533456556
 21
279.6463523643244
 31
0.0
  0
LINE
  5
2DAF
  8
AM_0
 10
415.88479533456541
 20
312.51424236432428
 30
0.0
 11
446.57804533456562
 21
377.62114736432432
 31
0.0
  0
ARC
  5
2DB0
  8
AM_0
 10
404.0327453345659
 20
330.75212736432428
 30
0.0
 40
10.0
 50
179.9999899999988
 51
217.7772300000029
  0
ARC
  5
2DB1
  8
AM_0
 10
389.03274533456567
 20
355.77663236432431
 30
0.0
 40
5.0
 50
0.0
 51
88.000000000002785
  0
LINE
  5
2DB2
  8
AM_0
 10
378.53279533456538
 20
361.14632236432442
 30
0.0
 11
389.20724533456558
 21
360.77358236432428
 31
0.0
  0
LINE
  5
2DB3
  8
AM_0
 10
378.53279533456538
 20
373.06639736432442
 30
0.0
 11
394.03274533456567
 21
373.06639736432442
 31
0.0
  0
ARC
  5
2DB4
  8
AM_0
 10
437.5327453345659
 20
381.88533736432441
 30
0.0
 40
10.0
 50
334.75946999999809
 51
0.0
  0
LINE
  5
2DB5
  8
AM_0
 10
378.53279533456538
 20
395.17168236432423
 30
0.0
 11
394.03274533456567
 21
395.17168236432423
 31
0.0
  0
LINE
  5
2DB6
  8
AM_0
 10
524.53274533456545
 20
325.95336236432428
 30
0.0
 11
547.53274533456567
 21
325.95336236432428
 31
0.0
  0
ARC
  5
2DB7
  8
AM_0
 10
547.53274533456567
 20
335.95336236432439
 30
0.0
 40
10.0
 50
270.0
 51
0.0
  0
ARC
  5
2DB8
  8
AM_0
 10
586.5327453345659
 20
417.54039736432418
 30
0.0
 40
2.0000000500000001
 50
91.999998000000545
 51
180.00001000000091
  0
LINE
  5
2DB9
  8
AM_0
 10
586.46294533456557
 20
419.53911736432411
 30
0.0
 11
587.60249533456545
 21
419.57891236432431
 31
0.0
  0
ARC
  5
2DBA
  8
AM_0
 10
587.5327453345659
 20
421.57775236432411
 30
0.0
 40
2.0000000500000001
 50
271.99999999999687
 51
0.0
  0
LINE
  5
2DBB
  8
AM_0
 10
589.53274533456556
 20
449.64635736432422
 30
0.0
 11
595.5327453345659
 21
449.64635736432422
 31
0.0
  0
LINE
  5
2DBC
  8
AM_0
 10
365.38135733456568
 20
496.29635236432449
 30
0.0
 11
376.84079733456548
 21
496.29635236432449
 31
0.0
  0
LINE
  5
2DBD
  8
AM_0
 10
363.53279533456549
 20
508.14635236432417
 30
0.0
 11
378.53279533456538
 21
508.14635236432417
 31
0.0
  0
LINE
  5
2DBE
  8
AM_0
 10
344.53279533456549
 20
502.0484313643243
 30
0.0
 11
313.27132733456523
 21
504.78345536432442
 31
0.0
  0
ARC
  5
2DBF
  8
AM_0
 10
313.53279533456549
 20
507.77203936432448
 30
0.0
 40
3.0
 50
180.0
 51
265.00000000000028
  0
LINE
  5
2DC0
  8
AM_0
 10
361.70710633456548
 20
503.55098936432432
 30
0.0
 11
344.53279533456549
 21
502.0484313643243
 31
0.0
  0
ARC
  5
2DC1
  8
AM_0
 10
361.53279533456549
 20
505.5433783643245
 30
0.0
 40
2.0
 50
274.99999999999972
 51
0.0
  0
LINE
  5
2DC2
  8
AM_0
 10
300.53279533456549
 20
534.64635236432434
 30
0.0
 11
309.53279533456549
 21
534.64635236432434
 31
0.0
  0
ARC
  5
2DC3
  8
AM_0
 10
309.53279533456549
 20
533.64635236432434
 30
0.0
 40
1.0
 50
0.0
 51
90.0
  0
ARC
  5
2DC4
  8
AM_0
 10
416.5327453345659
 20
598.74764236432429
 30
0.0
 40
2.0000000500000001
 50
91.999998000000545
 51
180.00001000000091
  0
LINE
  5
2DC5
  8
AM_0
 10
409.53274533456522
 20
599.64639236432436
 30
0.0
 11
409.53274533456522
 21
569.57904236432432
 31
0.0
  0
ARC
  5
2DC6
  8
AM_0
 10
462.5327453345659
 20
595.94489236432435
 30
0.0
 40
5.0
 50
34.887349999997149
 51
88.000000000002785
  0
LINE
  5
2DC7
  8
AM_0
 10
470.56104533456568
 20
596.66754236432439
 30
0.0
 11
547.8817953345656
 21
593.96744236432448
 31
0.0
  0
LINE
  5
2DC8
  8
AM_0
 10
467.5327453345659
 20
595.94489236432435
 30
0.0
 11
467.5327453345659
 21
471.75234236432431
 31
0.0
  0
LINE
  5
2DC9
  8
AM_0
 10
378.53279533456538
 20
474.12105736432409
 30
0.0
 11
394.03274533456567
 21
474.12105736432409
 31
0.0
  0
ARC
  5
2DCA
  8
AM_0
 10
389.03274533456567
 20
513.51607736432425
 30
0.0
 40
5.0
 50
271.99999999999687
 51
0.0
  0
LINE
  5
2DCB
  8
AM_0
 10
378.53279533456538
 20
496.22640236432431
 30
0.0
 11
394.03274533456567
 21
496.22640236432431
 31
0.0
  0
LINE
  5
2DCC
  8
AM_0
 10
378.53274533456567
 20
508.1463573643241
 30
0.0
 11
389.20724533456558
 21
508.5190973643243
 31
0.0
  0
LINE
  5
2DCD
  8
AM_0
 10
447.53274533456567
 20
471.75234236432431
 30
0.0
 11
467.5327453345659
 21
471.75234236432431
 31
0.0
  0
LINE
  5
2DCE
  8
AM_0
 10
395.42989533456569
 20
544.41014236432432
 30
0.0
 11
408.83424533456548
 21
567.03004236432434
 31
0.0
  0
ARC
  5
2DCF
  8
AM_0
 10
404.0327453345659
 20
539.31214236432425
 30
0.0
 40
10.0
 50
149.3493299999983
 51
180.00001000000091
  0
LINE
  5
2DD0
  8
AM_0
 10
408.83424533456548
 20
567.03004236432434
 30
0.0
 11
413.83424533456542
 21
575.46754236432434
 31
0.0
  0
ARC
  5
2DD1
  8
AM_0
 10
404.53274533456522
 20
569.57904236432432
 30
0.0
 40
5.0
 50
329.3493299999983
 51
0.0
  0
ARC
  5
2DD2
  8
AM_0
 10
409.53274533456522
 20
578.01654236432432
 30
0.0
 40
5.0
 50
329.3493299999983
 51
0.0
  0
ARC
  5
2DD3
  8
AM_0
 10
470.73554533456598
 20
601.66459236432433
 30
0.0
 40
5.0
 50
214.88733999999911
 51
268.0000000000029
  0
ARC
  5
2DD4
  8
AM_0
 10
539.53274533456556
 20
516.60399736432419
 30
0.0
 40
15.0
 50
90.00000299999769
 51
180.00001000000091
  0
LINE
  5
2DD5
  8
AM_0
 10
589.53274533456556
 20
509.64635736432427
 30
0.0
 11
595.5327453345659
 21
509.64635736432427
 31
0.0
  0
LINE
  5
2DD6
  8
AM_0
 10
539.53274533456556
 20
531.60399236432431
 30
0.0
 11
557.5327453345659
 21
531.60399236432431
 31
0.0
  0
ARC
  5
2DD7
  8
AM_0
 10
579.53274533456545
 20
560.06464236432453
 30
0.0
 40
5.0
 50
0.0
 51
84.999996999998885
  0
ARC
  5
2DD8
  8
AM_0
 10
586.5327453345659
 20
541.75234236432448
 30
0.0
 40
2.0000000500000001
 50
179.9999899999988
 51
268.00000999999861
  0
LINE
  5
2DD9
  8
AM_0
 10
586.46304533456566
 20
539.75354236432406
 30
0.0
 11
587.60264533456518
 21
539.71379236432449
 31
0.0
  0
ARC
  5
2DDA
  8
AM_0
 10
587.5327453345659
 20
537.71499236432419
 30
0.0
 40
2.0000000500000001
 50
0.0
 51
88.000000000002785
  0
LINE
  5
2DDB
  8
AM_0
 10
566.66109533456574
 20
566.20994236432432
 30
0.0
 11
579.96839533456557
 21
565.04569236432417
 31
0.0
  0
ARC
  5
2DDC
  8
AM_0
 10
567.5327453345659
 20
576.17184236432445
 30
0.0
 40
10.0
 50
179.9999899999988
 51
265.00000000000028
  0
ARC
  5
2DDD
  8
AM_0
 10
547.53274533456567
 20
583.97354236432432
 30
0.0
 40
10.0
 50
0.0
 51
88.000000000002785
  0
ARC
  5
2DDE
  8
AM_0
 10
424.53274533456528
 20
627.64634236432425
 30
0.0
 40
25.000000499999999
 50
306.46672000000012
 51
233.53329000000139
  0
CIRCLE
  5
2DDF
  8
AM_0
 10
424.53274533456528
 20
627.64634236432425
 30
0.0
 40
15.0
  0
LINE
  5
2DE0
  8
AM_0
 10
424.53279533456549
 20
612.64639236432436
 30
0.0
 11
434.01089533456559
 21
610.76734236432435
 31
0.0
  0
LINE
  5
2DE1
  8
AM_0
 10
416.46294533456557
 20
600.74644236432425
 30
0.0
 11
442.23274533456572
 21
601.64634236432425
 31
0.0
  0
LINE
  5
2DE2
  8
AM_0
 10
411.5327453345659
 20
601.64634236432425
 30
0.0
 11
442.5327453345659
 21
601.64634236432425
 31
0.0
  0
LINE
  5
2DE3
  8
AM_0
 10
414.73869533456519
 20
610.64634236432425
 30
0.0
 11
434.32674533456571
 21
610.64634236432425
 31
0.0
  0
LINE
  5
2DE4
  8
AM_0
 10
415.05479533456548
 20
610.76734236432435
 30
0.0
 11
424.53274533456528
 21
612.64634236432448
 31
0.0
  0
ARC
  5
2DE5
  8
AM_0
 10
406.10769533456562
 20
602.71604236432449
 30
0.0
 40
6.0
 50
349.72994999999878
 51
53.533291000002919
  0
ARC
  5
2DE6
  8
AM_0
 10
411.5327453345659
 20
599.64639236432436
 30
0.0
 40
2.0000000500000001
 50
90.00000299999769
 51
180.00001000000091
  0
ARC
  5
2DE7
  8
AM_0
 10
415.24919533456568
 20
609.78644236432444
 30
0.0
 40
1.0
 50
101.21328999999869
 51
164.99998999999869
  0
LINE
  5
2DE8
  8
AM_0
 10
412.03274533456528
 20
601.64634236432425
 30
0.0
 11
414.28324533456532
 21
610.0452923643245
 31
0.0
  0
LINE
  5
2DE9
  8
AM_0
 10
442.53279533456549
 20
601.64634236432425
 30
0.0
 11
462.70724533456553
 21
600.94179236432444
 31
0.0
  0
ARC
  5
2DEA
  8
AM_0
 10
433.81639533456558
 20
609.78644236432444
 30
0.0
 40
1.0
 50
15.000000000000741
 51
78.786710000001207
  0
LINE
  5
2DEB
  8
AM_0
 10
437.03279533456549
 20
601.64624236432451
 30
0.0
 11
434.78229533456522
 21
610.04524236432417
 31
0.0
  0
ARC
  5
2DEC
  8
AM_0
 10
442.95774533456569
 20
602.71604236432449
 30
0.0
 40
6.0
 50
126.46669999999671
 51
190.27005999999909
  0
LINE
  5
2DED
  8
AM_0
 10
879.49708482572294
 20
321.64627486432448
 30
0.0
 11
879.49708482572294
 21
464.64630986432422
 31
0.0
  0
LINE
  5
2DEE
  8
ﾁｭｳｼﾝｾﾝ
 10
979.49708482572316
 20
273.6462898643245
 30
0.0
 11
979.49708482572316
 21
655.64559486432415
 31
0.0
  0
LINE
  5
2DEF
  8
AM_0
 10
862.49706482572321
 20
386.61020486432432
 30
0.0
 11
862.49706482572321
 21
530.58009486432445
 31
0.0
  0
LINE
  5
2DF0
  8
AM_0
 10
814.49711482572343
 20
309.64630486432441
 30
0.0
 11
852.69446482572255
 21
506.1546098643243
 31
0.0
  0
LINE
  5
2DF1
  8
AM_0
 10
1079.4970548257229
 20
321.64627486432448
 30
0.0
 11
1079.4970548257229
 21
464.64630986432422
 31
0.0
  0
LINE
  5
2DF2
  8
AM_0
 10
1096.497054825722
 20
386.61020486432432
 30
0.0
 11
1096.497054825722
 21
530.58009486432445
 31
0.0
  0
LINE
  5
2DF3
  8
AM_0
 10
1144.497074825721
 20
309.64630486432441
 30
0.0
 11
1106.2997298257219
 21
506.15463986432411
 31
0.0
  0
ARC
  5
2DF4
  8
AM_0
 10
979.49708482572316
 20
479.64630986432428
 30
0.0
 40
27.500000499999999
 50
106.9123899999985
 51
73.087596999999803
  0
ARC
  5
2DF5
  8
AM_0
 10
979.49708482572316
 20
479.64630986432428
 30
0.0
 40
60.0
 50
90.00000299999769
 51
270.0
  0
ARC
  5
2DF6
  8
AM_0
 10
979.49708482572316
 20
479.64630986432428
 30
0.0
 40
60.0
 50
270.0
 51
90.00000299999769
  0
LINE
  5
2DF7
  8
AM_0
 10
677.5327453345659
 20
511.1463573643241
 30
0.0
 11
677.5327453345659
 21
452.14635736432422
 31
0.0
  0
ARC
  5
2DF8
  8
AM_0
 10
1079.4970548257229
 20
304.64630486432441
 30
0.0
 40
5.0
 50
90.00000299999769
 51
180.00001000000091
  0
LINE
  5
2DF9
  8
AM_0
 10
1074.4970548257211
 20
279.64630486432441
 30
0.0
 11
1144.4970598257221
 21
279.64630486432441
 31
0.0
  0
ARC
  5
2DFA
  8
AM_0
 10
1064.4970548257211
 20
285.50415486432439
 30
0.0
 40
10.0
 50
0.0
 51
45.000001000003799
  0
ARC
  5
2DFB
  8
AM_0
 10
1069.497054825722
 20
281.64627486432448
 30
0.0
 40
5.0
 50
0.0
 51
90.00000299999769
  0
LINE
  5
2DFC
  8
AM_0
 10
884.49708482572282
 20
279.64630486432441
 30
0.0
 11
814.4970648257231
 21
279.64630486432441
 31
0.0
  0
LINE
  5
2DFD
  8
AM_0
 10
879.49708482572294
 20
309.64630486432441
 30
0.0
 11
819.49706482572321
 21
309.64630486432441
 31
0.0
  0
LINE
  5
2DFE
  8
ﾁｭｳｼﾝｾﾝ1
 10
846.99706482572321
 20
314.30755986432428
 30
0.0
 11
846.99706482572321
 21
276.64630486432429
 31
0.0
  0
ARC
  5
2DFF
  8
AM_0
 10
819.49706482572321
 20
304.64630486432441
 30
0.0
 40
5.0
 50
90.00000299999769
 51
180.00001000000091
  0
LINE
  5
2E00
  8
AM_0
 10
814.4970648257231
 20
309.64630486432441
 30
0.0
 11
814.4970648257231
 21
279.64630486432441
 31
0.0
  0
LINE
  5
2E01
  8
ｶｸﾚｾﾝ2
 10
837.49706482572276
 20
309.64630486432441
 30
0.0
 11
837.49706482572276
 21
279.64630486432441
 31
0.0
  0
ARC
  5
2E02
  8
AM_0
 10
867.49705482572278
 20
321.64627486432448
 30
0.0
 40
12.0
 50
270.0
 51
0.0
  0
ARC
  5
2E03
  8
AM_0
 10
879.49708482572294
 20
304.64630486432441
 30
0.0
 40
5.0
 50
0.0
 51
90.00000299999769
  0
LINE
  5
2E04
  8
AM_0
 10
979.49708482572316
 20
295.64630486432429
 30
0.0
 11
920.4877448257231
 21
295.64630486432429
 31
0.0
  0
LINE
  5
2E05
  8
AM_0
 10
979.49708482572316
 20
286.64627486432448
 30
0.0
 11
889.49708482572282
 21
286.64627486432448
 31
0.0
  0
ARC
  5
2E06
  8
AM_0
 10
902.68754482572285
 20
293.69461486432431
 30
0.0
 40
10.0
 50
54.999999000001559
 51
135.0
  0
LINE
  5
2E07
  8
ｶｸﾚｾﾝ2
 10
856.4970648257231
 20
309.64630486432441
 30
0.0
 11
856.4970648257231
 21
279.64630486432441
 31
0.0
  0
LINE
  5
2E08
  8
AM_0
 10
884.49708482572282
 20
304.64630486432441
 30
0.0
 11
884.49708482572282
 21
279.64630486432441
 31
0.0
  0
ARC
  5
2E09
  8
AM_0
 10
894.49708482572271
 20
285.50415486432439
 30
0.0
 40
10.0
 50
135.0
 51
180.00001000000091
  0
ARC
  5
2E0A
  8
AM_0
 10
889.49708482572282
 20
281.64627486432448
 30
0.0
 40
5.0
 50
90.00000299999769
 51
180.00001000000091
  0
LINE
  5
2E0B
  8
AM_0
 10
887.42600982572344
 20
292.5752298643244
 30
0.0
 11
895.61649982572294
 21
300.76568986432432
 31
0.0
  0
ARC
  5
2E0C
  8
AM_0
 10
920.4877448257231
 20
305.64630486432441
 30
0.0
 40
10.0
 50
235.0000000000025
 51
270.0
  0
LINE
  5
2E0D
  8
AM_0
 10
914.75196482572312
 20
297.45480986432432
 30
0.0
 11
908.42329482572234
 21
301.8861748643244
 31
0.0
  0
LINE
  5
2E0E
  8
AM_0
 10
979.49708482572316
 20
286.64627486432448
 30
0.0
 11
1069.497054825722
 21
286.64627486432448
 31
0.0
  0
LINE
  5
2E0F
  8
AM_0
 10
979.49708482572316
 20
295.64630486432429
 30
0.0
 11
1038.506364825723
 21
295.64630486432429
 31
0.0
  0
LINE
  5
2E10
  8
AM_0
 10
1044.242144825723
 20
297.45477486432441
 30
0.0
 11
1050.570814825722
 21
301.8861748643244
 31
0.0
  0
ARC
  5
2E11
  8
AM_0
 10
1038.506364825723
 20
305.64630486432441
 30
0.0
 40
10.0
 50
270.0
 51
304.99999999999739
  0
LINE
  5
2E12
  8
AM_0
 10
1074.4970548257211
 20
304.64630486432441
 30
0.0
 11
1074.4970548257211
 21
279.64630486432441
 31
0.0
  0
ARC
  5
2E13
  8
AM_0
 10
1056.306564825722
 20
293.69461486432431
 30
0.0
 40
10.0
 50
45.000001000003799
 51
124.9999999999972
  0
LINE
  5
2E14
  8
AM_0
 10
1071.568159825722
 20
292.5751998643243
 30
0.0
 11
1063.377669825722
 21
300.76568986432432
 31
0.0
  0
ARC
  5
2E15
  8
AM_0
 10
979.49708482572316
 20
386.64627486432443
 30
0.0
 40
117.0
 50
179.9999899999988
 51
211.27329999999591
  0
ARC
  5
2E16
  8
AM_0
 10
1139.4970548257211
 20
304.64630486432441
 30
0.0
 40
5.0
 50
0.0
 51
90.00000299999769
  0
LINE
  5
2E17
  8
ﾁｭｳｼﾝｾﾝ1
 10
1111.997054825722
 20
314.30755986432428
 30
0.0
 11
1111.997054825722
 21
276.64630486432429
 31
0.0
  0
ARC
  5
2E18
  8
AM_0
 10
1091.4970548257211
 20
321.64627486432448
 30
0.0
 40
12.0
 50
180.00001000000091
 51
270.0
  0
LINE
  5
2E19
  8
AM_0
 10
1079.4970548257229
 20
309.64630486432441
 30
0.0
 11
1139.4970548257211
 21
309.64630486432441
 31
0.0
  0
LINE
  5
2E1A
  8
ｶｸﾚｾﾝ2
 10
1102.497054825722
 20
309.64630486432441
 30
0.0
 11
1102.497054825722
 21
279.64630486432441
 31
0.0
  0
LINE
  5
2E1B
  8
ｶｸﾚｾﾝ2
 10
1121.4970548257229
 20
309.64630486432441
 30
0.0
 11
1121.4970548257229
 21
279.64630486432441
 31
0.0
  0
LINE
  5
2E1C
  8
AM_0
 10
1144.4970598257221
 20
309.64630486432441
 30
0.0
 11
1144.4970598257221
 21
279.64630486432441
 31
0.0
  0
ARC
  5
2E1D
  8
AM_0
 10
979.49708482572316
 20
386.64627486432443
 30
0.0
 40
117.0
 50
328.72670000000397
 51
0.0
  0
LINE
  5
2E1E
  8
ﾁｭｳｼﾝｾﾝ
 10
1069.487712545601
 20
479.64630986432428
 30
0.0
 11
889.50645710584411
 21
479.64630986432428
 31
0.0
  0
ARC
  5
2E1F
  8
AM_0
 10
979.49708482572316
 20
454.64630986432428
 30
0.0
 40
147.0
 50
45.402042999998848
 51
90.00000299999769
  0
ARC
  5
2E20
  8
AM_0
 10
979.49708482572316
 20
454.64630986432428
 30
0.0
 40
142.0
 50
43.554364000000241
 51
90.00000299999769
  0
ARC
  5
2E21
  8
AM_0
 10
979.49708482572316
 20
464.64630986432422
 30
0.0
 40
100.0
 50
0.0
 51
90.00000299999769
  0
ARC
  5
2E22
  8
AM_0
 10
943.98576482572275
 20
488.40939986432431
 30
0.0
 40
93.0
 50
136.4456399999961
 51
169.00000000000131
  0
ARC
  5
2E23
  8
AM_0
 10
946.49705482572301
 20
488.11270986432442
 30
0.0
 40
100.0
 50
134.59796000000111
 51
180.00001000000091
  0
LINE
  5
2E24
  8
AM_0
 10
615.5327453345659
 20
511.1463573643241
 30
0.0
 11
677.5327453345659
 21
511.1463573643241
 31
0.0
  0
LINE
  5
2E25
  8
AM_0
 10
615.5327453345659
 20
511.1463573643241
 30
0.0
 11
615.5327453345659
 21
507.1463573643241
 31
0.0
  0
LINE
  5
2E26
  8
AM_0
 10
846.4970648257231
 20
488.11270986432442
 30
0.0
 11
846.4970648257231
 21
474.27200986432427
 31
0.0
  0
ARC
  5
2E27
  8
AM_0
 10
979.49708482572316
 20
454.64630986432428
 30
0.0
 40
147.0
 50
90.00000299999769
 51
134.59796000000111
  0
ARC
  5
2E28
  8
AM_0
 10
979.49708482572316
 20
454.64630986432428
 30
0.0
 40
142.0
 50
90.00000299999769
 51
136.4456399999961
  0
ARC
  5
2E29
  8
AM_0
 10
979.49708482572316
 20
464.64630986432422
 30
0.0
 40
100.0
 50
90.00000299999769
 51
180.00001000000091
  0
ARC
  5
2E2A
  8
AM_0
 10
872.49705482572301
 20
530.58009486432445
 30
0.0
 40
10.0
 50
149.46391999999909
 51
180.00001000000091
  0
CIRCLE
  5
2E2B
  8
AM_5
 10
979.49708482572316
 20
479.64630986432428
 30
0.0
 40
6.0
  0
CIRCLE
  5
2E2C
  8
AM_0
 10
979.49708482572316
 20
479.64630986432428
 30
0.0
 40
4.500000049999997
  0
LINE
  5
2E2D
  8
AM_0
 10
971.49705482572301
 20
501.14630986432422
 30
0.0
 11
971.49705482572301
 21
511.14630986432422
 31
0.0
  0
LINE
  5
2E2E
  8
AM_0
 10
987.49705482572301
 20
501.14630986432422
 30
0.0
 11
987.49705482572301
 21
511.14630986432422
 31
0.0
  0
LINE
  5
2E2F
  8
AM_0
 10
971.49705482572301
 20
501.14630986432422
 30
0.0
 11
987.49705482572301
 21
501.14630986432422
 31
0.0
  0
LINE
  5
2E30
  8
AM_0
 10
971.49705482572301
 20
511.14630986432422
 30
0.0
 11
987.49705482572301
 21
511.14630986432422
 31
0.0
  0
LINE
  5
2E31
  8
AM_0
 10
974.49708482572305
 20
647.64629486432432
 30
0.0
 11
974.49708482572305
 21
605.64629486432432
 31
0.0
  0
LINE
  5
2E32
  8
AM_0
 10
984.49708482572282
 20
647.64629486432432
 30
0.0
 11
984.49708482572282
 21
605.64629486432432
 31
0.0
  0
LINE
  5
2E33
  8
AM_0
 10
992.14310982572283
 20
601.10129486432425
 30
0.0
 11
989.7465948257227
 21
610.04519486432434
 31
0.0
  0
LINE
  5
2E34
  8
AM_0
 10
970.01899482572253
 20
610.7672948643243
 30
0.0
 11
974.49705482572301
 21
611.6550448643244
 31
0.0
  0
ARC
  5
2E35
  8
AM_0
 10
970.21348482572284
 20
609.78639486432451
 30
0.0
 40
1.0
 50
101.21328999999869
 51
164.99998999999869
  0
LINE
  5
2E36
  8
AM_0
 10
966.85105982572327
 20
601.10134486432435
 30
0.0
 11
969.24757482572284
 21
610.04519486432434
 31
0.0
  0
ARC
  5
2E37
  8
AM_0
 10
972.49705482572301
 20
605.64629486432432
 30
0.0
 40
2.0000000500000001
 50
270.0
 51
0.0
  0
LINE
  5
2E38
  8
AM_0
 10
984.49705482572278
 20
611.6550448643244
 30
0.0
 11
988.97511482572315
 21
610.7672948643243
 31
0.0
  0
ARC
  5
2E39
  8
AM_0
 10
986.49705482572324
 20
605.64629486432432
 30
0.0
 40
2.0000000500000001
 50
179.9999899999988
 51
270.0
  0
ARC
  5
2E3A
  8
AM_0
 10
988.78062482572295
 20
609.78639486432451
 30
0.0
 40
1.0
 50
15.000000000000741
 51
78.786710000001207
  0
ARC
  5
2E3B
  8
AM_0
 10
979.49708482572316
 20
647.64629486432432
 30
0.0
 40
5.0
 50
359.999989999999
 51
179.9999899999988
  0
ARC
  5
2E3C
  8
AM_0
 10
1015.008344825722
 20
488.40939986432431
 30
0.0
 40
93.0
 50
10.999999999998691
 51
43.554364000000241
  0
ARC
  5
2E3D
  8
AM_0
 10
1012.497054825723
 20
488.11270986432442
 30
0.0
 40
100.0
 50
0.0
 51
45.402042999998848
  0
LINE
  5
2E3E
  8
AM_0
 10
1112.497069825723
 20
488.11270986432442
 30
0.0
 11
1112.497069825723
 21
474.27200986432427
 31
0.0
  0
ARC
  5
2E3F
  8
AM_0
 10
1086.497054825722
 20
530.58009486432445
 30
0.0
 40
10.0
 50
0.0
 51
30.536084999998732
  0
LINE
  5
2E40
  8
ﾁｭｳｼﾝｾﾝ
 10
1111.452409825723
 20
434.64635393511929
 30
0.0
 11
841.04746482572284
 21
434.64635393511929
 31
0.0
  0
LINE
  5
2E41
  8
AM_0
 10
363.53280533456598
 20
1024.566783138034
 30
0.0
 11
363.53280533456598
 21
877.56678313803582
 31
0.0
  0
LINE
  5
2E42
  8
AM_0
 10
300.53280533456592
 20
851.06678313803593
 30
0.0
 11
300.53280533456592
 21
1051.066783138034
 31
0.0
  0
LINE
  5
2E43
  8
AM_0
 10
310.53280533456592
 20
1050.0667831380349
 30
0.0
 11
310.53280533456592
 21
852.0667831380357
 31
0.0
  0
LINE
  5
2E44
  8
AM_0
 10
363.53280533456598
 20
877.56678313803582
 30
0.0
 11
378.53280533456598
 21
877.56678313803582
 31
0.0
  0
LINE
  5
2E45
  8
AM_0
 10
344.53280533456598
 20
883.6647041380354
 30
0.0
 11
313.27133733456583
 21
880.92968013803534
 31
0.0
  0
LINE
  5
2E46
  8
AM_0
 10
300.53280533456592
 20
851.06678313803593
 30
0.0
 11
309.53280533456592
 21
851.06678313803593
 31
0.0
  0
ARC
  5
2E47
  8
AM_0
 10
309.53280533456592
 20
852.0667831380357
 30
0.0
 40
1.0
 50
270.0
 51
0.0
  0
ARC
  5
2E48
  8
AM_0
 10
313.53280533456592
 20
877.94109613803585
 30
0.0
 40
3.0
 50
95.0
 51
180.0
  0
LINE
  5
2E49
  8
AM_0
 10
361.70711633456602
 20
882.16214713803595
 30
0.0
 11
344.53280533456598
 21
883.6647041380354
 31
0.0
  0
ARC
  5
2E4A
  8
AM_0
 10
361.53280533456598
 20
880.16975713803583
 30
0.0
 40
2.0
 50
0.0
 51
84.999999999999986
  0
LINE
  5
2E4B
  8
AM_0
 10
363.53280533456598
 20
1024.566783138034
 30
0.0
 11
378.53280533456598
 21
1024.566783138034
 31
0.0
  0
LINE
  5
2E4C
  8
AM_0
 10
344.53280533456598
 20
889.22202813803585
 30
0.0
 11
344.53280533456598
 21
1012.543195138035
 31
0.0
  0
LINE
  5
2E4D
  8
AM_0
 10
365.38136733456582
 20
889.41678313803538
 30
0.0
 11
376.84080733456602
 21
889.41678313803538
 31
0.0
  0
LINE
  5
2E4E
  8
AM_0
 10
344.53280533456598
 20
1018.468862138034
 30
0.0
 11
313.27133733456583
 21
1021.203886138035
 31
0.0
  0
ARC
  5
2E4F
  8
AM_0
 10
313.53280533456592
 20
1024.1924701380351
 30
0.0
 40
3.0
 50
180.0
 51
265.00000000000028
  0
LINE
  5
2E50
  8
AM_0
 10
300.53280533456592
 20
1051.066783138034
 30
0.0
 11
309.53280533456592
 21
1051.066783138034
 31
0.0
  0
ARC
  5
2E51
  8
AM_0
 10
309.53280533456592
 20
1050.0667831380349
 30
0.0
 40
1.0
 50
0.0
 51
90.0
  0
LINE
  5
2E52
  8
AM_0
 10
365.38136733456582
 20
1012.716783138036
 30
0.0
 11
376.84080733456602
 21
1012.716783138036
 31
0.0
  0
LINE
  5
2E53
  8
AM_0
 10
361.70711633456602
 20
1019.971420138036
 30
0.0
 11
344.53280533456598
 21
1018.468862138034
 31
0.0
  0
ARC
  5
2E54
  8
AM_0
 10
361.53280533456598
 20
1021.963809138034
 30
0.0
 40
2.0
 50
274.99999999999972
 51
0.0
  0
LINE
  5
2E55
  8
AM_0
 10
365.38136733456582
 20
911.52201313803585
 30
0.0
 11
376.84080733456602
 21
911.52201313803585
 31
0.0
  0
LINE
  5
2E56
  8
AM_0
 10
365.38136733456582
 20
990.47141313803547
 30
0.0
 11
376.84080733456602
 21
990.47141313803547
 31
0.0
  0
LINE
  5
2E57
  8
AM_0
 10
365.38135733456568
 20
395.10163986432468
 30
0.0
 11
376.84079733456548
 21
395.10163986432468
 31
0.0
  0
LINE
  5
2E58
  8
AM_0
 10
365.38135733456568
 20
474.05101486432432
 30
0.0
 11
376.84079733456548
 21
474.05101486432432
 31
0.0
  0
TEXT
  5
3039
  8
AM_0
 10
829.37783301220043
 20
1005.757448391463
 30
0.0
 40
20.0
  1
VX15-120A~VX15-200A
  0
ENDSEC
  0
EOF
