  0
SECTION
  2
HEADER
  9
$ACADVER
  1
AC1009
  9
$INSBASE
 10
0.0
 20
0.0
 30
0.0
  9
$EXTMIN
 10
244.2534291945085
 20
265.30132620614683
 30
-0.0000000349181948
  9
$EXTMAX
 10
1226.8671829548739
 20
1090.592621885974
 30
0.0000000814935747
  9
$LIMMIN
 10
0.0
 20
0.0
  9
$LIMMAX
 10
1422.5
 20
925.0
  9
$ORTHOMODE
 70
     0
  9
$REGENMODE
 70
     1
  9
$FILLMODE
 70
     1
  9
$QTEXTMODE
 70
     0
  9
$MIRRTEXT
 70
     1
  9
$DRAGMODE
 70
     2
  9
$LTSCALE
 40
5.0
  9
$OSMODE
 70
   551
  9
$ATTMODE
 70
     1
  9
$TEXTSIZE
 40
2.5
  9
$TRACEWID
 40
1.0
  9
$TEXTSTYLE
  7
STANDARD
  9
$CLAYER
  8
AM_0
  9
$CELTYPE
  6
BYLAYER
  9
$CECOLOR
 62
   256
  9
$DIMSCALE
 40
1.0
  9
$DIMASZ
 40
2.5
  9
$DIMEXO
 40
1.0
  9
$DIMDLI
 40
8.0
  9
$DIMRND
 40
0.0
  9
$DIMDLE
 40
0.0
  9
$DIMEXE
 40
0.6
  9
$DIMTP
 40
0.1
  9
$DIMTM
 40
0.1
  9
$DIMTXT
 40
2.5
  9
$DIMCEN
 40
0.0
  9
$DIMTSZ
 40
0.0
  9
$DIMTOL
 70
     0
  9
$DIMLIM
 70
     0
  9
$DIMTIH
 70
     0
  9
$DIMTOH
 70
     0
  9
$DIMSE1
 70
     0
  9
$DIMSE2
 70
     0
  9
$DIMTAD
 70
     1
  9
$DIMZIN
 70
     8
  9
$DIMBLK
  1

  9
$DIMASO
 70
     1
  9
$DIMSHO
 70
     1
  9
$DIMPOST
  1

  9
$DIMAPOST
  1
"
  9
$DIMALT
 70
     0
  9
$DIMALTD
 70
     2
  9
$DIMALTF
 40
0.0393701
  9
$DIMLFAC
 40
1.0
  9
$DIMTOFL
 70
     1
  9
$DIMTVP
 40
0.0
  9
$DIMTIX
 70
     0
  9
$DIMSOXD
 70
     0
  9
$DIMSAH
 70
     0
  9
$DIMBLK1
  1

  9
$DIMBLK2
  1

  9
$DIMSTYLE
  2
AM_ISO
  9
$DIMCLRD
 70
   256
  9
$DIMCLRE
 70
   256
  9
$DIMCLRT
 70
     4
  9
$DIMTFAC
 40
0.71
  9
$DIMGAP
 40
0.8
  9
$LUNITS
 70
     2
  9
$LUPREC
 70
     2
  9
$SKETCHINC
 40
1.0
  9
$FILLETRAD
 40
25.0
  9
$AUNITS
 70
     0
  9
$AUPREC
 70
     0
  9
$MENU
  1
.
  9
$ELEVATION
 40
0.0
  9
$PELEVATION
 40
0.0
  9
$THICKNESS
 40
0.0
  9
$LIMCHECK
 70
     0
  9
$BLIPMODE
 70
     0
  9
$CHAMFERA
 40
10.0
  9
$CHAMFERB
 40
5.0
  9
$SKPOLY
 70
     0
  9
$TDCREATE
 40
2452066.5949634612
  9
$TDUPDATE
 40
2458541.4740918982
  9
$TDINDWG
 40
0.1355314699
  9
$TDUSRTIMER
 40
0.1355310995
  9
$USRTIMER
 70
     1
  9
$ANGBASE
 50
0.0
  9
$ANGDIR
 70
     0
  9
$PDMODE
 70
     0
  9
$PDSIZE
 40
0.0
  9
$PLINEWID
 40
0.0
  9
$COORDS
 70
     1
  9
$SPLFRAME
 70
     0
  9
$SPLINETYPE
 70
     6
  9
$SPLINESEGS
 70
     8
  9
$ATTDIA
 70
     1
  9
$ATTREQ
 70
     1
  9
$HANDLING
 70
     1
  9
$HANDSEED
  5
3277
  9
$SURFTAB1
 70
     6
  9
$SURFTAB2
 70
     6
  9
$SURFTYPE
 70
     6
  9
$SURFU
 70
     6
  9
$SURFV
 70
     6
  9
$UCSNAME
  2

  9
$UCSORG
 10
0.0
 20
0.0
 30
0.0
  9
$UCSXDIR
 10
1.0
 20
0.0
 30
0.0
  9
$UCSYDIR
 10
0.0
 20
1.0
 30
0.0
  9
$PUCSNAME
  2

  9
$PUCSORG
 10
0.0
 20
0.0
 30
0.0
  9
$PUCSXDIR
 10
1.0
 20
0.0
 30
0.0
  9
$PUCSYDIR
 10
0.0
 20
1.0
 30
0.0
  9
$USERI1
 70
     0
  9
$USERI2
 70
     0
  9
$USERI3
 70
     0
  9
$USERI4
 70
     0
  9
$USERI5
 70
     0
  9
$USERR1
 40
0.0
  9
$USERR2
 40
0.0
  9
$USERR3
 40
0.0
  9
$USERR4
 40
0.0
  9
$USERR5
 40
0.0
  9
$WORLDVIEW
 70
     1
  9
$SHADEDGE
 70
     3
  9
$SHADEDIF
 70
    70
  9
$TILEMODE
 70
     1
  9
$MAXACTVP
 70
    64
  9
$PLIMCHECK
 70
     0
  9
$PEXTMIN
 10
1.0000000000000000E+020
 20
1.0000000000000000E+020
 30
1.0000000000000000E+020
  9
$PEXTMAX
 10
-1.0000000000000000E+020
 20
-1.0000000000000000E+020
 30
-1.0000000000000000E+020
  9
$PLIMMIN
 10
0.0
 20
0.0
  9
$PLIMMAX
 10
420.0
 20
297.0
  9
$UNITMODE
 70
     0
  9
$VISRETAIN
 70
     1
  9
$PLINEGEN
 70
     0
  9
$PSLTSCALE
 70
     1
  0
ENDSEC
  0
SECTION
  2
TABLES
  0
TABLE
  2
VPORT
 70
     1
  0
VPORT
  2
*ACTIVE
 70
     0
 10
0.0
 20
0.0
 11
1.0
 21
1.0
 12
735.56030607469143
 22
677.94697404606063
 13
0.0
 23
0.0
 14
12.5
 24
12.5
 15
50.0
 25
50.0
 16
0.0
 26
0.0
 36
1.0
 17
0.0
 27
0.0
 37
0.0
 40
830.95691098197756
 41
1.7571592210767459
 42
50.0
 43
0.0
 44
0.0
 50
0.0
 51
0.0
 71
     0
 72
   100
 73
     1
 74
     3
 75
     0
 76
     0
 77
     0
 78
     0
  0
ENDTAB
  0
TABLE
  2
LTYPE
 70
    27
  0
LTYPE
  2
CONTINUOUS
 70
     0
  3
Solid line
 72
    65
 73
     0
 40
0.0
  0
LTYPE
  2
AM_ISO02W050
 70
     0
  3
__ __ __ __ __ __ __ __ __ __ __ __ __ __ __
 72
    65
 73
     2
 40
7.5
 49
6.0
 49
-1.5
  0
LTYPE
  2
AM_ISO08W050
 70
     0
  3
____ . ____ . ____ . ____ . ____ . ____ . ____
 72
    65
 73
     4
 40
18.0
 49
12.0
 49
-1.5
 49
3.0
 49
-1.5
  0
LTYPE
  2
AM_ISO09W050
 70
     0
  3
_____ . . _____ . . _____ . . ____ .. ____
 72
    65
 73
     6
 40
22.5
 49
12.0
 49
-1.5
 49
3.0
 49
-1.5
 49
3.0
 49
-1.5
  0
LTYPE
  2
AMCONSTR
 70
     0
  3
_______________________
 72
    65
 73
     2
 40
9999.0
 49
9999.0
 49
0.0
  0
LTYPE
  2
AM_ISO08W050X2
 70
     0
  3
__ . __ . __ . __ . __ . __
 72
    65
 73
     4
 40
9.0
 49
6.0
 49
-0.75
 49
1.5
 49
-0.75
  0
LTYPE
  2
AM_ISO02W050X2
 70
     0
  3
 _ _ _ _ _ _ _ _ _ _ _ _
 72
    65
 73
     2
 40
3.75
 49
3.0
 49
-0.75
  0
LTYPE
  2
AMZIGZAG
 70
     0
  3
/\/-/\/-/\/-/\/-/\/-/\/
 72
    65
 73
     2
 40
11.000099999999991
 49
0.0001
 49
-11.0
  0
LTYPE
  2
ACISOWELD
 70
     0
  3
_ _ _ _ _
 72
    65
 73
     2
 40
2.0
 49
2.0
 49
-1.0
  0
LTYPE
  2
ACISOTGB
 70
     0
  3
__ . . __ . .
 72
    65
 73
     6
 40
9.0
 49
4.0
 49
-1.0
 49
1.0
 49
-1.0
 49
1.0
 49
-1.0
  0
LTYPE
  2
ACISOTGL
 70
     0
  3
_ _ _ _ _
 72
    65
 73
     2
 40
3.0
 49
2.0
 49
-1.0
  0
LTYPE
  2
CENTER
 70
     0
  3
__ . __
 72
    65
 73
     4
 40
7.0
 49
4.0
 49
-1.0
 49
1.0
 49
-1.0
  0
LTYPE
  2
PHANTOM2
 70
     0
  3
Phantom (.5x) ___ _ _ ___ _ _ ___ _ _ ___ _ _
 72
    65
 73
     6
 40
31.75
 49
15.875
 49
-3.174999999999998
 49
3.174999999999998
 49
-3.174999999999998
 49
3.174999999999998
 49
-3.174999999999998
  0
LTYPE
  2
ACANSTGBM
 70
     0
  3
__ . . __ . .
 72
    65
 73
     6
 40
9.0
 49
4.0
 49
-1.0
 49
1.0
 49
-1.0
 49
1.0
 49
-1.0
  0
LTYPE
  2
ACANSTGLM
 70
     0
  3
_ _ _ _ _
 72
    65
 73
     2
 40
3.0
 49
2.0
 49
-1.0
  0
LTYPE
  2
GEN7
 70
     0
  3
____ . ____ . ____ . ____ . ____ . ____ . ____
 72
    65
 73
     4
 40
14.25
 49
9.75
 49
-1.5
 49
1.5
 49
-1.5
  0
LTYPE
  2
GEN3B
 70
     0
  3
 - - - - -
 72
    65
 73
     2
 40
1.0
 49
0.5
 49
-0.5
  0
LTYPE
  2
GEN7A
 70
     0
  3
__ . __ . __
 72
    65
 73
     4
 40
7.375
 49
4.75
 49
-0.875
 49
0.875
 49
-0.875
  0
LTYPE
  2
ACJISTGB
 70
     0
  3
__ . . __ . .
 72
    65
 73
     6
 40
9.0
 49
4.0
 49
-1.0
 49
1.0
 49
-1.0
 49
1.0
 49
-1.0
  0
LTYPE
  2
ACJISTGL
 70
     0
  3
_ _ _ _ _
 72
    65
 73
     2
 40
3.0
 49
2.0
 49
-1.0
  0
LTYPE
  2
HIDDEN
 70
     0
  3
Hidden __ __ __ __ __ __ __ __ __ __ __ __ __ _
 72
    65
 73
     2
 40
0.375
 49
0.25
 49
-0.125
  0
LTYPE
  2
CENTER2
 70
     0
  3
Center (.5x) ___ _ ___ _ ___ _ ___ _ ___ _ ___
 72
    65
 73
     4
 40
1.125
 49
0.75
 49
-0.125
 49
0.125
 49
-0.125
  0
LTYPE
  2
HIDDEN2
 70
     0
  3
Hidden (.5x) _ _ _ _ _ _ _ _ _ _ _ _ _ _ _ _ _
 72
    65
 73
     2
 40
0.1875
 49
0.125
 49
-0.0625
  0
LTYPE
  2
AMZIGZAG2
 70
     0
  3
/\/-/\/-/\/-/\/-/\/-/\/
 72
    65
 73
     2
 40
0.4401
 49
0.0001
 49
-0.4400000000000002
  0
LTYPE
  2
ACANSTGB
 70
     0
  3
__ . . __ . .
 72
    65
 73
     6
 40
0.35433070866
 49
0.15748031496
 49
-0.03937007874
 49
0.03937007874
 49
-0.03937007874
 49
0.03937007874
 49
-0.03937007874
  0
LTYPE
  2
ACANSTGL
 70
     0
  3
_ _ _ _ _
 72
    65
 73
     2
 40
0.11811023622
 49
0.07874015748
 49
-0.03937007874
  0
ENDTAB
  0
TABLE
  2
LAYER
 70
     7
  0
LAYER
  2
0
 70
     0
 62
     7
  6
CONTINUOUS
  0
LAYER
  2
AM_0
 70
     0
 62
     7
  6
CONTINUOUS
  0
LAYER
  2
AM_5
 70
     0
 62
     2
  6
CONTINUOUS
  0
LAYER
  2
DEFPOINTS
 70
     0
 62
     7
  6
CONTINUOUS
  0
LAYER
  2
ｶｸﾚｾﾝ2
 70
     0
 62
     3
  6
GEN3B
  0
LAYER
  2
ﾁｭｳｼﾝｾﾝ
 70
     0
 62
     1
  6
GEN7
  0
LAYER
  2
ﾁｭｳｼﾝｾﾝ1
 70
     0
 62
     1
  6
GEN7A
  0
ENDTAB
  0
TABLE
  2
STYLE
 70
     9
  0
STYLE
  2
STANDARD
 70
     0
 40
0.0
 41
0.8299999999999999
 50
0.0
 71
     0
 42
2.5
  3
txt.shx
  4
bigfont.shx
  0
STYLE
  2
ANNOTATIVE
 70
     0
 40
0.0
 41
1.0
 50
0.0
 71
     0
 42
0.2
  3
txt
  4

  0
STYLE
  2

 70
     1
 40
0.0
 41
1.0
 50
0.0
 71
     0
 42
2.5
  3
ltypeshp.shx
  4

  0
STYLE
  2
ACISOTS
 70
     0
 40
1.0
 41
1.0
 50
0.0
 71
     0
 42
2.5
  3
isocp.shx
  4
extfont.shx
  0
STYLE
  2
ACISOGDT
 70
     0
 40
0.0
 41
1.0
 50
0.0
 71
     0
 42
2.5
  3
amgdt.shx
  4

  0
STYLE
  2
ACANSTS
 70
     0
 40
1.0
 41
1.0
 50
0.0
 71
     0
 42
2.5
  3
romans.shx
  4
bigfont.shx
  0
STYLE
  2
ACANSGDT
 70
     0
 40
0.0
 41
1.0
 50
0.0
 71
     0
 42
2.5
  3
amgdt.shx
  4

  0
STYLE
  2
ACJISTS
 70
     0
 40
1.0
 41
1.0
 50
0.0
 71
     0
 42
2.5
  3
isocp.shx
  4
bigfont.shx
  0
STYLE
  2
ACJISGDT
 70
     0
 40
0.0
 41
1.0
 50
0.0
 71
     0
 42
2.5
  3
amgdt.shx
  4

  0
ENDTAB
  0
TABLE
  2
VIEW
 70
     6
  0
VIEW
  2
AM_VIEW1
 70
     0
 40
462.5
 10
416.07965009208078
 20
693.75
 41
832.15930018416213
 11
0.0
 21
0.0
 31
1.0
 12
0.0
 22
0.0
 32
0.0
 42
50.0
 43
0.0
 44
0.0
 50
0.0
 71
     0
  0
VIEW
  2
AM_VIEW2
 70
     0
 40
462.5
 10
1006.420349907918
 20
693.75
 41
832.15930018416213
 11
0.0
 21
0.0
 31
1.0
 12
0.0
 22
0.0
 32
0.0
 42
50.0
 43
0.0
 44
0.0
 50
0.0
 71
     0
  0
VIEW
  2
AM_VIEW3
 70
     0
 40
462.5
 10
416.07965009208078
 20
231.25
 41
832.15930018416213
 11
0.0
 21
0.0
 31
1.0
 12
0.0
 22
0.0
 32
0.0
 42
50.0
 43
0.0
 44
0.0
 50
0.0
 71
     0
  0
VIEW
  2
AM_VIEW4
 70
     0
 40
462.5
 10
1006.420349907918
 20
231.25
 41
832.15930018416213
 11
0.0
 21
0.0
 31
1.0
 12
0.0
 22
0.0
 32
0.0
 42
50.0
 43
0.0
 44
0.0
 50
0.0
 71
     0
  0
VIEW
  2
AM_VIEW5
 70
     0
 40
462.5
 10
711.24999999999966
 20
462.5
 41
832.15930018416179
 11
0.0
 21
0.0
 31
1.0
 12
0.0
 22
0.0
 32
0.0
 42
50.0
 43
0.0
 44
0.0
 50
0.0
 71
     0
  0
VIEW
  2
AM_VIEW6
 70
     0
 40
924.99075000000005
 10
711.24999999999966
 20
462.5
 41
1664.3019571823199
 11
0.0
 21
0.0
 31
1.0
 12
0.0
 22
0.0
 32
0.0
 42
50.0
 43
0.0
 44
0.0
 50
0.0
 71
     0
  0
ENDTAB
  0
TABLE
  2
UCS
 70
     0
  0
ENDTAB
  0
TABLE
  2
APPID
 70
    95
  0
APPID
  2
ACAD
 70
     0
  0
APPID
  2
ACADANNOTATIVE
 70
     0
  0
APPID
  2
MCAD_NO_VIS
 70
     0
  0
APPID
  2
ACAD_TEMP_GRAPHIC
 70
     0
  0
APPID
  2
ACATTRIBSERVICES
 70
     0
  0
APPID
  2
GENIUS_GENREC_14
 70
     0
  0
APPID
  2
GENIUS_GENOBJ-N-REC_13
 70
     0
  0
APPID
  2
GENIUS_GENODEF_13
 70
     0
  0
APPID
  2
GENIUS_GENOLIS_13
 70
     0
  0
APPID
  2
GENIUS_GENOBJ-N-TIT_13
 70
     0
  0
APPID
  2
GENIUS_GENOENT_13
 70
     0
  0
APPID
  2
GENIUS_GENTITLE_13
 70
     0
  0
APPID
  2
GENIUS_GENOREF_13
 70
     0
  0
APPID
  2
GENIUS_GENSCREG_15
 70
     0
  0
APPID
  2
GENIUS_GENOBJ-N-SDF_13
 70
     0
  0
APPID
  2
GENIUS_GENFIL_13
 70
     0
  0
APPID
  2
GENIUS_GENOBJ-N-CHA_13
 70
     0
  0
APPID
  2
GENIUS_GENDTOL_13
 70
     0
  0
APPID
  2
GENIUS_GENOBJ-N-FIL_13
 70
     0
  0
APPID
  2
AD_DRAW
 70
     0
  0
APPID
  2
DESIGNERASSEMBLIES
 70
     0
  0
APPID
  2
ASURF_PCURVE_APPNAME
 70
     0
  0
APPID
  2
GENIUS_GE3SECT_13
 70
     0
  0
APPID
  2
GENIUS_GENCFG_13
 70
     0
  0
APPID
  2
GENIUS_GE3CFG0_13
 70
     0
  0
APPID
  2
GENIUS_GENCFG0_13
 70
     0
  0
APPID
  2
GENIUS_GENCFG1_13
 70
     0
  0
APPID
  2
GENIUS_GENCFG2_13
 70
     0
  0
APPID
  2
GENIUS_GENCFG3_13
 70
     0
  0
APPID
  2
GENIUS_GENCFG4_13
 70
     0
  0
APPID
  2
GENIUS_GEVCFG0_13
 70
     0
  0
APPID
  2
GENIUS_GENHINW_13
 70
     0
  0
APPID
  2
GENIUS_FIRSTVISTXT_14
 70
     0
  0
APPID
  2
GENIUS_GENOBJ-N-LEADER_13
 70
     0
  0
APPID
  2
GEV_VCCNULL_SWITCH_OFF
 70
     0
  0
APPID
  2
GENIUS_GEFCFG0_13
 70
     0
  0
APPID
  2
GENIUS_GENZVEED_13
 70
     0
  0
APPID
  2
GENIUS_GENSCREG_13
 70
     0
  0
APPID
  2
GENIUS_DUMCFG0_13
 70
     0
  0
APPID
  2
GEVID936201362
 70
     0
  0
APPID
  2
GEVDC
 70
     0
  0
APPID
  2
GEVCON
 70
     0
  0
APPID
  2
VCC
 70
     0
  0
APPID
  2
GEVPT
 70
     0
  0
APPID
  2
GEVIT
 70
     0
  0
APPID
  2
GENBH
 70
     0
  0
APPID
  2
GEVMK
 70
     0
  0
APPID
  2
GENIUS_GENBH_13
 70
     0
  0
APPID
  2
GENIUS_GENOBJ-NBEHI-BHF_13
 70
     0
  0
APPID
  2
GENIUS_GENOBJ-NBEHI-BHB_13
 70
     0
  0
APPID
  2
GENIUS_GENOBJ-F-DESC_13
 70
     0
  0
APPID
  2
GENIUS_GEFDESC_14
 70
     0
  0
APPID
  2
GENIUS_GENOBJ-F-PART_13
 70
     0
  0
APPID
  2
GENIUS_GEFSTDP_13
 70
     0
  0
APPID
  2
GENIUS_GEFPARTINS_13
 70
     0
  0
APPID
  2
GENIUS_GENTRA_14
 70
     0
  0
APPID
  2
GENIUS_GENINF13_13
 70
     0
  0
APPID
  2
GENIUS_GENOBJ-N-INFOPT_13
 70
     0
  0
APPID
  2
GENIUS_GENOBJ-N-RSSYM_13
 70
     0
  0
APPID
  2
GENIUS_GENSYMENT_13
 70
     0
  0
APPID
  2
GENIUS_GENSCSYM_13
 70
     0
  0
APPID
  2
GENIUS_GEFINFNAM_13
 70
     0
  0
APPID
  2
GENIUS_GENOBJ-N-CEN_13
 70
     0
  0
APPID
  2
GENIUS_GENOBJ-N-CRS_13
 70
     0
  0
APPID
  2
GENIUS_GENOBJ-N-CRC_13
 70
     0
  0
APPID
  2
GENIUS_GENCRC_14
 70
     0
  0
APPID
  2
GEVID942827039
 70
     0
  0
APPID
  2
GEVID942827040
 70
     0
  0
APPID
  2
GEVID942827041
 70
     0
  0
APPID
  2
GENIUS_GENOBJ-F-SCPASSM_13
 70
     0
  0
APPID
  2
GENIUS_GENDIMSH_14
 70
     0
  0
APPID
  2
GEVID942827042
 70
     0
  0
APPID
  2
GEVID946020473
 70
     0
  0
APPID
  2
GEVID946020474
 70
     0
  0
APPID
  2
GEVID946020475
 70
     0
  0
APPID
  2
GENIUS_GENOBJ-N-HTC_13
 70
     0
  0
APPID
  2
GENIUS_GENHATCH_13
 70
     0
  0
APPID
  2
GEVID948854295
 70
     0
  0
APPID
  2
GEVID939402019
 70
     0
  0
APPID
  2
GEVID952919491
 70
     0
  0
APPID
  2
GEVID952919492
 70
     0
  0
APPID
  2
GENIUS_GEFWELD_13
 70
     0
  0
APPID
  2
GENIUS_GENOBJ-F-WELS_13
 70
     0
  0
APPID
  2
GEVID952919493
 70
     0
  0
APPID
  2
GENIUS_GENOBJ-N-RSBK_13
 70
     0
  0
APPID
  2
GENIUS_GENOBJ-N-LIB_13
 70
     0
  0
APPID
  2
GENIUS_GENSCALE_13
 70
     0
  0
APPID
  2
GEVID986376691
 70
     0
  0
APPID
  2
DCO15
 70
     0
  0
APPID
  2
ACAD_DSTYLE_DIMBREAK
 70
     0
  0
APPID
  2
ACAD_DSTYLE_DIMJAG
 70
     0
  0
APPID
  2
ACAD_NAV_VCDISPLAY
 70
     0
  0
APPID
  2
ACADANNOPO
 70
     0
  0
APPID
  2
ACAD_EXEMPT_FROM_CAD_STANDARDS
 70
     0
  0
APPID
  2
ACAD_MLEADERVER
 70
     0
  0
ENDTAB
  0
TABLE
  2
DIMSTYLE
 70
    22
  0
DIMSTYLE
  2
STANDARD
 70
     0
  3

  4

  5

  6

  7

 40
1.0
 41
0.18
 42
0.0625
 43
0.38
 44
0.18
 45
0.0
 46
0.0
 47
0.0
 48
0.0
140
0.18
141
0.09
142
0.0
143
25.399999999999999
144
1.0
145
0.0
146
1.0
147
0.09
 71
     0
 72
     0
 73
     1
 74
     1
 75
     0
 76
     0
 77
     0
 78
     0
170
     0
171
     2
172
     0
173
     0
174
     0
175
     0
176
     0
177
     0
178
     0
  0
DIMSTYLE
  2
ANNOTATIVE
 70
     0
  3

  4

  5

  6

  7

 40
1.0
 41
0.18
 42
0.0625
 43
0.38
 44
0.18
 45
0.0
 46
0.0
 47
0.0
 48
0.0
140
0.18
141
0.09
142
0.0
143
25.399999999999999
144
1.0
145
0.0
146
1.0
147
0.09
 71
     0
 72
     0
 73
     1
 74
     1
 75
     0
 76
     0
 77
     0
 78
     0
170
     0
171
     2
172
     0
173
     0
174
     0
175
     0
176
     0
177
     0
178
     0
  0
DIMSTYLE
  2
AM_ISO
 70
     0
  3

  4
"
  5

  6

  7

 40
1.0
 41
2.5
 42
1.0
 43
8.0
 44
0.6
 45
0.0
 46
0.0
 47
0.1
 48
0.1
140
2.5
141
0.0
142
0.0
143
0.0393701
144
1.0
145
0.0
146
0.71
147
0.8
 71
     0
 72
     0
 73
     0
 74
     0
 75
     0
 76
     0
 77
     1
 78
     8
170
     0
171
     2
172
     1
173
     0
174
     0
175
     0
176
   256
177
   256
178
     4
  0
DIMSTYLE
  2
AM_ISO$3
 70
     0
  3

  4
"
  5

  6

  7

 40
1.0
 41
2.5
 42
1.0
 43
8.0
 44
0.6
 45
0.0
 46
0.0
 47
0.1
 48
0.1
140
2.5
141
0.0
142
0.0
143
0.0393701
144
1.0
145
0.0
146
0.71
147
0.8
 71
     0
 72
     0
 73
     0
 74
     1
 75
     0
 76
     0
 77
     1
 78
     8
170
     0
171
     2
172
     0
173
     0
174
     0
175
     0
176
   256
177
   256
178
     4
  0
DIMSTYLE
  2
AM_ISO$4
 70
     0
  3

  4
"
  5

  6

  7

 40
1.0
 41
2.5
 42
1.0
 43
8.0
 44
0.6
 45
0.0
 46
0.0
 47
0.1
 48
0.1
140
2.5
141
0.0
142
0.0
143
0.0393701
144
1.0
145
0.0
146
0.71
147
0.8
 71
     0
 72
     0
 73
     0
 74
     1
 75
     0
 76
     0
 77
     1
 78
     8
170
     0
171
     2
172
     0
173
     0
174
     0
175
     0
176
   256
177
   256
178
     4
  0
DIMSTYLE
  2
AM_ISO$6
 70
     0
  3

  4
"
  5

  6

  7

 40
1.0
 41
2.5
 42
1.0
 43
8.0
 44
0.6
 45
0.0
 46
0.0
 47
0.1
 48
0.1
140
2.5
141
0.0
142
0.0
143
0.0393701
144
1.0
145
0.0
146
0.71
147
0.8
 71
     0
 72
     0
 73
     0
 74
     0
 75
     0
 76
     0
 77
     0
 78
     8
170
     0
171
     2
172
     1
173
     0
174
     0
175
     0
176
   256
177
   256
178
     4
  0
DIMSTYLE
  2
AM_ISO$7
 70
     0
  3

  4
"
  5

  6

  7

 40
1.0
 41
2.5
 42
1.0
 43
8.0
 44
0.6
 45
0.0
 46
0.0
 47
0.1
 48
0.1
140
2.5
141
0.0
142
0.0
143
0.0393701
144
1.0
145
0.0
146
0.71
147
0.8
 71
     0
 72
     0
 73
     0
 74
     0
 75
     0
 76
     0
 77
     1
 78
     8
170
     0
171
     2
172
     1
173
     0
174
     0
175
     0
176
   256
177
   256
178
     4
  0
DIMSTYLE
  2
AM_ISO$SF
 70
     0
  3

  4
"
  5

  6

  7

 40
1.0
 41
2.5
 42
1.0
 43
10.0
 44
1.0
 45
0.0
 46
0.0
 47
0.1
 48
0.1
140
3.5
141
0.0
142
0.0
143
0.0393701
144
1.0
145
0.0
146
0.71
147
1.5
 71
     0
 72
     0
 73
     0
 74
     0
 75
     1
 76
     1
 77
     1
 78
     8
170
     0
171
     2
172
     1
173
     0
174
     0
175
     0
176
   256
177
   256
178
     2
  0
DIMSTYLE
  2
AM_ISO$SH
 70
     0
  3

  4
"
  5

  6

  7

 40
1.0
 41
2.5
 42
1.0
 43
10.0
 44
1.0
 45
0.0
 46
0.0
 47
0.1
 48
0.1
140
3.5
141
0.0
142
0.0
143
0.0393701
144
2.0
145
0.0
146
0.71
147
1.5
 71
     0
 72
     0
 73
     0
 74
     0
 75
     1
 76
     1
 77
     1
 78
     8
170
     0
171
     2
172
     1
173
     1
174
     0
175
     0
176
   256
177
   256
178
     2
  0
DIMSTYLE
  2
AM_JIS
 70
     0
  3

  4
"
  5

  6

  7

 40
1.0
 41
2.5
 42
1.0
 43
7.0
 44
1.0
 45
0.0
 46
0.0
 47
0.1
 48
0.1000000001
140
2.5
141
0.0
142
0.0
143
0.0393701
144
1.0
145
0.0
146
0.71
147
1.0
 71
     0
 72
     0
 73
     0
 74
     0
 75
     0
 76
     0
 77
     3
 78
     8
170
     0
171
     2
172
     1
173
     0
174
     0
175
     0
176
   256
177
   256
178
     4
  0
DIMSTYLE
  2
AM_JIS$3
 70
     0
  3

  4
"
  5

  6

  7

 40
1.0
 41
2.5
 42
1.0
 43
7.0
 44
1.0
 45
0.0
 46
0.0
 47
0.1
 48
0.1000000001
140
2.5
141
0.0
142
0.0
143
0.0393701
144
1.0
145
0.0
146
0.71
147
1.0
 71
     0
 72
     0
 73
     0
 74
     1
 75
     0
 76
     0
 77
     3
 78
     8
170
     0
171
     2
172
     0
173
     0
174
     0
175
     0
176
   256
177
   256
178
     4
  0
DIMSTYLE
  2
AM_JIS$4
 70
     0
  3

  4
"
  5

  6

  7

 40
1.0
 41
2.5
 42
1.0
 43
7.0
 44
1.0
 45
0.0
 46
0.0
 47
0.1
 48
0.1000000001
140
2.5
141
0.0
142
0.0
143
0.0393701
144
1.0
145
0.0
146
0.71
147
1.0
 71
     0
 72
     0
 73
     0
 74
     0
 75
     0
 76
     0
 77
     3
 78
     8
170
     0
171
     2
172
     0
173
     0
174
     0
175
     0
176
   256
177
   256
178
     4
  0
DIMSTYLE
  2
AM_JIS$6
 70
     0
  3

  4
"
  5

  6

  7

 40
1.0
 41
2.5
 42
1.0
 43
7.0
 44
1.0
 45
0.0
 46
0.0
 47
0.1
 48
0.1000000001
140
2.5
141
0.0
142
0.0
143
0.0393701
144
1.0
145
0.0
146
0.71
147
1.0
 71
     0
 72
     0
 73
     0
 74
     0
 75
     0
 76
     0
 77
     0
 78
     8
170
     0
171
     2
172
     1
173
     0
174
     0
175
     0
176
   256
177
   256
178
     4
  0
DIMSTYLE
  2
AM_JIS$7
 70
     0
  3

  4
"
  5

  6

  7

 40
1.0
 41
2.5
 42
1.0
 43
7.0
 44
1.0
 45
0.0
 46
0.0
 47
0.1
 48
0.1000000001
140
2.5
141
0.0
142
0.0
143
0.0393701
144
1.0
145
0.0
146
0.71
147
1.0
 71
     0
 72
     0
 73
     0
 74
     0
 75
     0
 76
     0
 77
     3
 78
     8
170
     0
171
     2
172
     1
173
     0
174
     0
175
     0
176
   256
177
   256
178
     4
  0
DIMSTYLE
  2
AM_JIS$SF
 70
     0
  3

  4
"
  5

  6

  7

 40
1.0
 41
2.5
 42
1.0
 43
10.0
 44
1.0
 45
0.0
 46
0.0
 47
0.1
 48
0.1
140
3.5
141
0.0
142
0.0
143
0.0393701
144
1.0
145
0.0
146
0.71
147
1.5
 71
     0
 72
     0
 73
     0
 74
     0
 75
     1
 76
     1
 77
     3
 78
     8
170
     0
171
     2
172
     1
173
     0
174
     0
175
     0
176
   256
177
   256
178
     4
  0
DIMSTYLE
  2
AM_JIS$SH
 70
     0
  3

  4
"
  5

  6

  7

 40
1.0
 41
2.5
 42
1.0
 43
10.0
 44
1.0
 45
0.0
 46
0.0
 47
0.1
 48
0.1
140
3.5
141
0.0
142
0.0
143
0.0393701
144
1.0
145
0.0
146
0.71
147
1.5
 71
     0
 72
     0
 73
     0
 74
     0
 75
     1
 76
     0
 77
     3
 78
     8
170
     0
171
     2
172
     1
173
     1
174
     0
175
     0
176
   256
177
   256
178
     4
  0
DIMSTYLE
  2
AM_ANSI
 70
     0
  3

  4
mm
  5

  6

  7

 40
1.0
 41
0.1
 42
0.05
 43
0.5
 44
0.1
 45
0.0
 46
0.0
 47
0.1
 48
0.1
140
0.12
141
0.0
142
0.0
143
25.399999999999999
144
1.0
145
0.0
146
0.71
147
0.06
 71
     0
 72
     0
 73
     1
 74
     1
 75
     0
 76
     0
 77
     0
 78
     7
170
     0
171
     2
172
     0
173
     0
174
     0
175
     0
176
   256
177
   256
178
     2
  0
DIMSTYLE
  2
AM_ANSI$3
 70
     0
  3

  4
mm
  5

  6

  7

 40
1.0
 41
0.1
 42
0.05
 43
0.5
 44
0.1
 45
0.0
 46
0.0
 47
0.1
 48
0.1
140
0.12
141
0.0
142
0.0
143
25.399999999999999
144
1.0
145
0.0
146
0.71
147
0.06
 71
     0
 72
     0
 73
     1
 74
     1
 75
     0
 76
     0
 77
     0
 78
     7
170
     0
171
     2
172
     0
173
     0
174
     0
175
     0
176
   256
177
   256
178
     2
  0
DIMSTYLE
  2
AM_ANSI$4
 70
     0
  3

  4
mm
  5

  6

  7

 40
1.0
 41
0.1
 42
0.05
 43
0.5
 44
0.1
 45
0.0
 46
0.0
 47
0.1
 48
0.1
140
0.12
141
0.0
142
0.0
143
25.399999999999999
144
1.0
145
0.0
146
0.71
147
0.06
 71
     0
 72
     0
 73
     1
 74
     1
 75
     0
 76
     0
 77
     0
 78
     7
170
     0
171
     2
172
     0
173
     0
174
     0
175
     0
176
   256
177
   256
178
     2
  0
DIMSTYLE
  2
AM_ANSI$7
 70
     0
  3

  4
mm
  5

  6

  7

 40
1.0
 41
0.1
 42
0.05
 43
0.5
 44
0.1
 45
0.0
 46
0.0
 47
0.1
 48
0.1
140
0.24
141
0.0
142
0.0
143
25.399999999999999
144
1.0
145
0.0
146
0.71
147
0.06
 71
     0
 72
     0
 73
     1
 74
     1
 75
     0
 76
     0
 77
     0
 78
     7
170
     0
171
     2
172
     0
173
     0
174
     0
175
     0
176
   256
177
   256
178
     2
  0
DIMSTYLE
  2
AM_ANSI$SF
 70
     0
  3

  4
mm
  5

  6

  7

 40
1.0
 41
0.1
 42
0.05
 43
0.5
 44
0.1
 45
0.0
 46
0.0
 47
0.1
 48
0.1
140
0.12
141
0.0
142
0.0
143
25.399999999999999
144
1.0
145
0.0
146
0.71
147
0.06
 71
     0
 72
     0
 73
     1
 74
     1
 75
     1
 76
     1
 77
     0
 78
     7
170
     0
171
     2
172
     0
173
     0
174
     0
175
     0
176
   256
177
   256
178
     2
  0
DIMSTYLE
  2
AM_ANSI$SH
 70
     0
  3

  4
mm
  5

  6

  7

 40
1.0
 41
0.1
 42
0.05
 43
0.5
 44
0.1
 45
0.0
 46
0.0
 47
0.1
 48
0.1
140
0.12
141
0.0
142
0.0
143
25.399999999999999
144
1.0
145
0.0
146
0.71
147
0.06
 71
     0
 72
     0
 73
     1
 74
     1
 75
     1
 76
     1
 77
     0
 78
     7
170
     0
171
     2
172
     0
173
     1
174
     0
175
     0
176
   256
177
   256
178
     2
  0
ENDTAB
  0
ENDSEC
  0
SECTION
  2
BLOCKS
  0
BLOCK
  8
0
  2
$MODEL_SPACE
 70
     0
 10
0.0
 20
0.0
 30
0.0
  3
$MODEL_SPACE
  1

  0
ENDBLK
  5
30E9
  8
0
  0
BLOCK
 67
     1
  8
0
  2
$PAPER_SPACE
 70
     0
 10
0.0
 20
0.0
 30
0.0
  3
$PAPER_SPACE
  1

  0
ENDBLK
  5
30E5
 67
     1
  8
0
  0
BLOCK
  8
0
  2
GENAXEH
 70
     0
 10
0.0
 20
0.0
 30
0.0
  3
GENAXEH
  1

  0
LINE
  5
2E79
  8
0
 10
-1.0
 20
0.0
 30
0.0
 11
1.0
 21
0.0
 31
0.0
  0
ENDBLK
  5
2E7A
  8
0
  0
BLOCK
  8
0
  2
_OPEN30
 70
     0
 10
0.0
 20
0.0
 30
0.0
  3
_OPEN30
  1

  0
LINE
  5
2E7D
  8
0
 62
     0
 10
-1.0
 20
0.26794919
 30
0.0
 11
0.0
 21
0.0
 31
0.0
  0
LINE
  5
2E7E
  8
0
 62
     0
 10
0.0
 20
0.0
 30
0.0
 11
-1.0
 21
-0.26794919
 31
0.0
  0
LINE
  5
2E7F
  8
0
 62
     0
 10
0.0
 20
0.0
 30
0.0
 11
-1.0
 21
0.0
 31
0.0
  0
ENDBLK
  5
2E80
  8
0
  0
BLOCK
  8
0
  2
_NONE
 70
     0
 10
0.0
 20
0.0
 30
0.0
  3
_NONE
  1

  0
ENDBLK
  5
2E83
  8
0
  0
BLOCK
  8
0
  2
_ACMFILLEDHALF
 70
     0
 10
0.0
 20
0.0
 30
0.0
  3
_ACMFILLEDHALF
  1

  0
TRACE
  5
31E1
  8
AM_0
 62
     0
 10
-0.8
 20
0.0
 30
0.0
 11
-1.0
 21
0.166666666
 31
0.0
 12
0.0
 22
0.0
 32
0.0
 13
0.0
 23
0.0
 33
0.0
  0
LINE
  5
31E2
  8
AM_0
 62
     0
 10
-1.0
 20
0.0
 30
0.0
 11
-0.8
 21
0.0
 31
0.0
  0
ENDBLK
  5
31E0
  8
0
  0
ENDSEC
  0
SECTION
  2
ENTITIES
  0
LINE
  5
2E85
  8
AM_0
 10
672.55605264959036
 20
933.52605536376882
 30
0.0
 11
734.55599264959005
 21
933.52605536376882
 31
0.0
  0
LINE
  5
2E86
  8
AM_0
 10
672.55605264959036
 20
917.52599536376886
 30
0.0
 11
734.55599264959005
 21
917.52599536376886
 31
0.0
  0
LINE
  5
2E87
  8
AM_0
 10
652.55599264959039
 20
953.02605536376882
 30
0.0
 11
734.55599264959005
 21
953.02605536376882
 31
0.0
  0
LINE
  5
2E88
  8
AM_0
 10
652.55599264959039
 20
898.02605536376882
 30
0.0
 11
734.55599264959005
 21
898.02605536376882
 31
0.0
  0
LINE
  5
2E89
  8
ﾁｭｳｼﾝｾﾝ
 10
244.26622067035279
 20
925.52605536376905
 30
0.0
 11
745.17324264959029
 21
925.52605536376882
 31
0.0
  0
POLYLINE
  5
2E8A
  8
AM_0
 66
     1
 10
0.0
 20
0.0
 30
0.0
  0
VERTEX
  5
2E8B
  8
AM_0
 10
389.61867264959022
 20
849.96349536376886
 30
0.0
 42
-0.10362759
  0
VERTEX
  5
2E8C
  8
AM_0
 10
350.21031264959032
 20
896.18918536376884
 30
0.0
 42
-0.26090923
  0
VERTEX
  5
2E8D
  8
AM_0
 10
350.21031264959032
 20
954.86293536376877
 30
0.0
 42
-0.10362793
  0
VERTEX
  5
2E8E
  8
AM_0
 10
389.61861264959032
 20
1001.088555363768
 30
0.0
  0
SEQEND
  5
2E8F
  8
AM_0
  0
LINE
  5
2E90
  8
AM_0
 10
387.55605264959019
 20
907.52605536376882
 30
0.0
 11
387.55605264959019
 21
943.52605536376882
 31
0.0
  0
LINE
  5
2E91
  8
AM_0
 10
355.5560526495903
 20
912.52605536376871
 30
0.0
 11
355.5560526495903
 21
938.52605536376893
 31
0.0
  0
LINE
  5
2E92
  8
AM_0
 10
342.5560526495903
 20
852.02605536376882
 30
0.0
 11
342.5560526495903
 21
999.02605536376871
 31
0.0
  0
LINE
  5
2E93
  8
AM_0
 10
330.5560526495903
 20
852.02605536376882
 30
0.0
 11
330.5560526495903
 21
999.02605536376871
 31
0.0
  0
LINE
  5
2E94
  8
AM_0
 10
405.55605264959019
 20
828.52605536376836
 30
0.0
 11
405.55605264959019
 21
1022.526055363768
 31
0.0
  0
LINE
  5
2E95
  8
AM_0
 10
420.5561126495902
 20
1023.026055363768
 30
0.0
 11
420.5561126495902
 21
828.02605536376882
 31
0.0
  0
LINE
  5
2E96
  8
AM_0
 10
469.55599264959039
 20
798.40215536376866
 30
0.0
 11
469.55599264959039
 21
914.99046536376875
 31
0.0
  0
LINE
  5
2E97
  8
AM_0
 10
499.5560526495903
 20
920.52605536376871
 30
0.0
 11
499.5560526495903
 21
792.52605536376882
 31
0.0
  0
LINE
  5
2E98
  8
AM_0
 10
443.55599264959039
 20
819.07036536376881
 30
0.0
 11
443.55599264959039
 21
1031.981745363767
 31
0.0
  0
LINE
  5
2E99
  8
AM_0
 10
524.55599264959039
 20
793.3990353637688
 30
0.0
 11
524.55599264959039
 21
1057.653005363768
 31
0.0
  0
LINE
  5
2E9A
  8
AM_0
 10
614.55605264959036
 20
817.40392536376851
 30
0.0
 11
614.55605264959036
 21
1033.648125363768
 31
0.0
  0
LINE
  5
2E9B
  8
AM_0
 10
641.55605264959036
 20
1022.897025363768
 30
0.0
 11
641.55605264959036
 21
828.15508536376865
 31
0.0
  0
LINE
  5
2E9C
  8
AM_0
 10
646.55605264959036
 20
983.59465536376877
 30
0.0
 11
646.55605264959036
 21
867.45744536376867
 31
0.0
  0
LINE
  5
2E9D
  8
AM_0
 10
652.55599264959039
 20
955.52605536376893
 30
0.0
 11
652.55599264959039
 21
895.52605536376836
 31
0.0
  0
LINE
  5
2E9E
  8
AM_0
 10
499.5560526495903
 20
792.52605536376882
 30
0.0
 11
474.38155264959039
 21
793.4052053637688
 31
0.0
  0
LINE
  5
2E9F
  8
AM_0
 10
475.55605264959019
 20
773.6993353637688
 30
0.0
 11
502.55611264959032
 21
783.2457153637688
 31
0.0
  0
LINE
  5
2EA0
  8
AM_0
 10
472.09230264959029
 20
761.86803536376863
 30
0.0
 11
502.5560526495903
 21
772.63908536376869
 31
0.0
  0
LINE
  5
2EA1
  8
AM_0
 10
504.55605264959019
 20
760.52605536376882
 30
0.0
 11
421.38155264959039
 21
763.43059536376882
 31
0.0
  0
ARC
  5
2EA2
  8
AM_0
 10
421.55605264959019
 20
768.42754536376833
 30
0.0
 40
5.0
 50
180.00001000000091
 51
268.00000000000261
  0
ARC
  5
2EA3
  8
AM_0
 10
407.55605264959041
 20
828.52605536376836
 30
0.0
 40
2.0
 50
179.9999899999988
 51
270.0
  0
LINE
  5
2EA4
  8
AM_0
 10
405.55605264959019
 20
869.25023536376875
 30
0.0
 11
420.5560526495903
 21
869.25023536376875
 31
0.0
  0
LINE
  5
2EA5
  8
AM_0
 10
405.55605264959019
 20
853.01982536376875
 30
0.0
 11
420.5560526495903
 21
853.01982536376875
 31
0.0
  0
LINE
  5
2EA6
  8
AM_0
 10
405.55605264959019
 20
842.83086536376834
 30
0.0
 11
420.5560526495903
 21
842.83086536376834
 31
0.0
  0
LINE
  5
2EA7
  8
AM_0
 10
389.61861264959032
 20
849.96355536376882
 30
0.0
 11
404.09157264959032
 21
835.49052536376814
 31
0.0
  0
ARC
  5
2EA8
  8
AM_0
 10
400.55605264959019
 20
831.95500536376869
 30
0.0
 40
5.0
 50
0.0
 51
45.000001000003799
  0
LINE
  5
2EA9
  8
AM_0
 10
387.65029264959031
 20
850.03221536376884
 30
0.0
 11
330.5560526495903
 21
852.02599536376874
 31
0.0
  0
LINE
  5
2EAA
  8
AM_0
 10
360.55605264959019
 20
907.52605536376882
 30
0.0
 11
382.5560526495903
 21
907.52605536376882
 31
0.0
  0
LINE
  5
2EAB
  8
AM_0
 10
330.5560526495903
 20
863.94609536376845
 30
0.0
 11
342.5560526495903
 21
863.94609536376845
 31
0.0
  0
LINE
  5
2EAC
  8
AM_0
 10
330.5560526495903
 20
886.05132536376846
 30
0.0
 11
342.5560526495903
 21
886.05132536376846
 31
0.0
  0
ARC
  5
2EAD
  8
AM_0
 10
360.55605264959019
 20
912.52605536376871
 30
0.0
 40
5.0
 50
180.00001000000091
 51
270.0
  0
ARC
  5
2EAE
  8
AM_0
 10
387.4757926495904
 20
845.03532536376861
 30
0.0
 40
5.0
 50
44.999998000001611
 51
88.000000000002785
  0
ARC
  5
2EAF
  8
AM_0
 10
382.5560526495903
 20
902.52605536376871
 30
0.0
 40
5.0
 50
0.0
 51
90.00000299999769
  0
CIRCLE
  5
2EB0
  8
AM_0
 10
446.55605264959019
 20
793.02605536376882
 30
0.0
 40
9.5
  0
LINE
  5
2EB1
  8
AM_0
 10
464.73049264959042
 20
813.5024953637685
 30
0.0
 11
448.38149264959009
 21
814.0734153637685
 31
0.0
  0
LINE
  5
2EB2
  8
AM_0
 10
416.5560526495903
 20
768.42754536376833
 30
0.0
 11
416.5560526495903
 21
810.81377536376885
 31
0.0
  0
LINE
  5
2EB3
  8
AM_0
 10
420.5560526495903
 20
828.02599536376874
 30
0.0
 11
438.73055264959038
 21
827.39134536376844
 31
0.0
  0
LINE
  5
2EB4
  8
AM_0
 10
420.68776264959018
 20
815.73778536376881
 30
0.0
 11
443.55599264959039
 21
819.77007536376834
 31
0.0
  0
ARC
  5
2EB5
  8
AM_0
 10
421.55605264959019
 20
810.81377536376885
 30
0.0
 40
5.0
 50
99.999999999998593
 51
180.00001000000091
  0
LINE
  5
2EB6
  8
AM_0
 10
407.55605264959041
 20
826.52605536376882
 30
0.0
 11
418.55599264959022
 21
826.52605536376882
 31
0.0
  0
LINE
  5
2EB7
  8
AM_0
 10
418.5560526495903
 20
826.52605536376882
 30
0.0
 11
420.5560526495903
 21
828.52605536376836
 31
0.0
  0
ARC
  5
2EB8
  8
AM_0
 10
448.55599264959039
 20
819.07036536376881
 30
0.0
 40
5.0
 50
180.00001000000091
 51
268.00000000000261
  0
ARC
  5
2EB9
  8
AM_0
 10
438.55605264959019
 20
822.39439536376858
 30
0.0
 40
5.0
 50
0.0
 51
88.000000000002785
  0
ARC
  5
2EBA
  8
AM_0
 10
474.5560526495903
 20
776.52776536376859
 30
0.0
 40
3.0
 50
180.00001000000091
 51
289.47202999999712
  0
ARC
  5
2EBB
  8
AM_0
 10
474.55599264959039
 20
798.40215536376866
 30
0.0
 40
5.0
 50
180.00001000000091
 51
268.00000000000261
  0
ARC
  5
2EBC
  8
AM_0
 10
464.55599264959039
 20
808.50554536376865
 30
0.0
 40
5.0
 50
0.0
 51
88.000000000002785
  0
LINE
  5
2EBD
  8
AM_0
 10
422.55599264959022
 20
842.33086536376879
 30
0.0
 11
443.55599264959039
 21
842.33086536376879
 31
0.0
  0
LINE
  5
2EBE
  8
AM_0
 10
422.55599264959022
 20
868.75023536376864
 30
0.0
 11
443.55599264959039
 21
868.75023536376864
 31
0.0
  0
LINE
  5
2EBF
  8
AM_0
 10
422.55599264959022
 20
852.51982536376863
 30
0.0
 11
443.55599264959039
 21
852.51982536376863
 31
0.0
  0
LINE
  5
2EC0
  8
AM_0
 10
422.55599264959022
 20
868.75023536376864
 30
0.0
 11
422.55599264959022
 21
842.33086536376879
 31
0.0
  0
ARC
  5
2EC1
  8
AM_0
 10
586.55605264959036
 20
768.39256536376865
 30
0.0
 40
5.0
 50
180.00001000000091
 51
271.99999000000139
  0
ARC
  5
2EC2
  8
AM_0
 10
641.55605264959036
 20
770.31322536376865
 30
0.0
 40
5.0
 50
271.9999999999971
 51
0.0
  0
LINE
  5
2EC3
  8
AM_0
 10
504.55599264959028
 20
760.52599536376863
 30
0.0
 11
641.73055264959032
 21
765.31627536376834
 31
0.0
  0
ARC
  5
2EC4
  8
AM_0
 10
593.55605264959036
 20
796.93779536376837
 30
0.0
 40
12.0
 50
91.999998000000545
 51
180.00001000000091
  0
LINE
  5
2EC5
  8
AM_0
 10
528.70076264959039
 20
797.54381536376866
 30
0.0
 11
578.39601264959026
 21
799.27916536376881
 31
0.0
  0
LINE
  5
2EC6
  8
AM_0
 10
499.55599264959039
 20
792.52605536376882
 30
0.0
 11
524.55599264959039
 21
793.3990353637688
 31
0.0
  0
ARC
  5
2EC7
  8
AM_0
 10
501.55605264959019
 20
786.07414536376859
 30
0.0
 40
3.0
 50
289.47202000000181
 51
0.0
  0
LINE
  5
2EC8
  8
AM_0
 10
504.55605264959019
 20
775.46745536376864
 30
0.0
 11
504.55605264959019
 21
792.70061536376863
 31
0.0
  0
ARC
  5
2EC9
  8
AM_0
 10
501.55605264959019
 20
775.46745536376864
 30
0.0
 40
3.0
 50
289.47202000000181
 51
0.0
  0
LINE
  5
2ECA
  8
AM_0
 10
524.55605264959036
 20
793.3990353637688
 30
0.0
 11
528.70076264959039
 21
797.54381536376866
 31
0.0
  0
ARC
  5
2ECB
  8
AM_0
 10
578.22145264959045
 20
804.27617536376863
 30
0.0
 40
5.0
 50
271.9999999999971
 51
334.42648000000293
  0
LINE
  5
2ECC
  8
AM_0
 10
581.55605264959036
 20
768.39256536376865
 30
0.0
 11
581.55605264959036
 21
796.93779536376837
 31
0.0
  0
ARC
  5
2ECD
  8
AM_0
 10
633.55605264959036
 20
834.19438536376833
 30
0.0
 40
8.0
 50
271.9999999999971
 51
0.0
  0
CIRCLE
  5
2ECE
  8
AM_0
 10
616.55605264959036
 20
793.02605536376882
 30
0.0
 40
9.5
  0
LINE
  5
2ECF
  8
ﾁｭｳｼﾝｾﾝ1
 10
616.55605264959036
 20
773.52605536376859
 30
0.0
 11
616.55605264959036
 21
812.52605536376836
 31
0.0
  0
LINE
  5
2ED0
  8
ﾁｭｳｼﾝｾﾝ1
 10
597.05605264959036
 20
793.02605536376882
 30
0.0
 11
636.05605264959036
 21
793.02605536376882
 31
0.0
  0
ARC
  5
2ED1
  8
AM_0
 10
606.55605264959036
 20
817.40392536376851
 30
0.0
 40
8.0
 50
271.9999999999971
 51
0.0
  0
LINE
  5
2ED2
  8
AM_0
 10
593.13722264959006
 20
808.93047536376866
 30
0.0
 11
606.83522264959026
 21
809.40880536376869
 31
0.0
  0
ARC
  5
2ED3
  8
AM_0
 10
622.55605264959036
 20
817.80052536376866
 30
0.0
 40
8.0
 50
91.999998000000545
 51
180.00001000000091
  0
LINE
  5
2ED4
  8
AM_0
 10
622.27687264959025
 20
825.7956453637687
 30
0.0
 11
633.83522264959038
 21
826.19926536376875
 31
0.0
  0
LINE
  5
2ED5
  8
AM_0
 10
646.55605264959036
 20
770.31322536376865
 30
0.0
 11
646.55605264959036
 21
820.73882536376834
 31
0.0
  0
ARC
  5
2ED6
  8
AM_0
 10
641.55605264959036
 20
820.73882536376834
 30
0.0
 40
5.0
 50
0.0
 51
67.975688999996393
  0
ARC
  5
2ED7
  8
AM_0
 10
644.55605264959036
 20
828.15508536376865
 30
0.0
 40
3.0
 50
180.00001000000091
 51
247.97569000000061
  0
ARC
  5
2ED8
  8
AM_0
 10
644.55605264959036
 20
867.45744536376867
 30
0.0
 40
2.0
 50
271.9999999999971
 51
0.0
  0
ARC
  5
2ED9
  8
AM_0
 10
643.55605264959036
 20
863.42009536376861
 30
0.0
 40
2.0
 50
91.999998000000545
 51
180.00001000000091
  0
LINE
  5
2EDA
  8
AM_0
 10
643.48622264959033
 20
865.41887536376862
 30
0.0
 11
644.62587264959006
 21
865.45866536376843
 31
0.0
  0
LINE
  5
2EDB
  8
AM_0
 10
646.55605264959036
 20
895.52605536376836
 30
0.0
 11
652.55599264959039
 21
895.52605536376836
 31
0.0
  0
ARC
  5
2EDC
  8
AM_0
 10
501.55605264959019
 20
925.52605536376882
 30
0.0
 40
5.0
 50
270.0
 51
90.00000299999769
  0
LINE
  5
2EDD
  8
AM_0
 10
461.55605264959041
 20
930.52605536376893
 30
0.0
 11
501.55605264959019
 21
930.52605536376893
 31
0.0
  0
LINE
  5
2EDE
  8
AM_0
 10
461.55605264959041
 20
920.52605536376871
 30
0.0
 11
501.55605264959019
 21
920.52605536376871
 31
0.0
  0
LINE
  5
2EDF
  8
AM_0
 10
499.55599264959039
 20
1058.5260553637679
 30
0.0
 11
474.38149264959031
 21
1057.646905363767
 31
0.0
  0
LINE
  5
2EE0
  8
AM_0
 10
472.09230264959029
 20
1089.184075363768
 30
0.0
 11
502.5560526495903
 21
1078.413015363768
 31
0.0
  0
LINE
  5
2EE1
  8
AM_0
 10
475.55605264959019
 20
1077.3527153637681
 30
0.0
 11
502.55611264959032
 21
1067.8063253637681
 31
0.0
  0
LINE
  5
2EE2
  8
AM_0
 10
504.55605264959019
 20
1090.526055363769
 30
0.0
 11
421.38149264959031
 21
1087.621515363767
 31
0.0
  0
CIRCLE
  5
2EE3
  8
AM_0
 10
446.55605264959019
 20
1058.026055363767
 30
0.0
 40
9.5
  0
LINE
  5
2EE4
  8
AM_0
 10
416.5560526495903
 20
1082.6245653637679
 30
0.0
 11
416.5560526495903
 21
1040.2383353637681
 31
0.0
  0
ARC
  5
2EE5
  8
AM_0
 10
408.55599264959028
 20
1022.526055363768
 30
0.0
 40
3.0
 50
90.00000299999769
 51
180.00001000000091
  0
LINE
  5
2EE6
  8
AM_0
 10
405.55605264959019
 20
1009.221185363768
 30
0.0
 11
420.5560526495903
 21
1009.221185363768
 31
0.0
  0
LINE
  5
2EE7
  8
AM_0
 10
405.55605264959019
 20
999.03221536376884
 30
0.0
 11
420.5560526495903
 21
999.03221536376884
 31
0.0
  0
LINE
  5
2EE8
  8
AM_0
 10
405.55605264959019
 20
982.80180536376884
 30
0.0
 11
420.5560526495903
 21
982.80180536376884
 31
0.0
  0
LINE
  5
2EE9
  8
AM_0
 10
360.55605264959019
 20
943.52605536376882
 30
0.0
 11
382.5560526495903
 21
943.52605536376882
 31
0.0
  0
ARC
  5
2EEA
  8
AM_0
 10
360.55605264959019
 20
938.52605536376893
 30
0.0
 40
5.0
 50
90.00000299999769
 51
180.00001000000091
  0
LINE
  5
2EEB
  8
AM_0
 10
330.5560526495903
 20
965.00072536376865
 30
0.0
 11
342.5560526495903
 21
965.00072536376865
 31
0.0
  0
ARC
  5
2EEC
  8
AM_0
 10
382.5560526495903
 20
948.52605536376882
 30
0.0
 40
5.0
 50
270.0
 51
0.0
  0
LINE
  5
2EED
  8
AM_0
 10
387.65029264959031
 20
1001.0198253637679
 30
0.0
 11
330.5560526495903
 21
999.02605536376871
 31
0.0
  0
LINE
  5
2EEE
  8
AM_0
 10
330.5560526495903
 20
987.10606536376872
 30
0.0
 11
342.5560526495903
 21
987.10606536376872
 31
0.0
  0
LINE
  5
2EEF
  8
AM_0
 10
389.61855264959019
 20
1001.088555363768
 30
0.0
 11
404.09157264959032
 21
1015.561575363768
 31
0.0
  0
ARC
  5
2EF0
  8
AM_0
 10
387.4757926495904
 20
1006.016775363768
 30
0.0
 40
5.0
 50
271.9999999999971
 51
315.0
  0
ARC
  5
2EF1
  8
AM_0
 10
400.55605264959019
 20
1019.097095363767
 30
0.0
 40
5.0
 50
315.0
 51
0.0
  0
LINE
  5
2EF2
  8
AM_0
 10
422.55599264959022
 20
1008.721185363768
 30
0.0
 11
422.55599264959022
 21
982.30180536376872
 31
0.0
  0
LINE
  5
2EF3
  8
AM_0
 10
469.55599264959039
 20
936.06157536376861
 30
0.0
 11
469.55599264959039
 21
1052.649955363768
 31
0.0
  0
LINE
  5
2EF4
  8
AM_0
 10
422.55599264959022
 20
982.30180536376872
 30
0.0
 11
443.55599264959039
 21
982.30180536376872
 31
0.0
  0
ARC
  5
2EF5
  8
AM_0
 10
481.5560526495903
 20
925.52605536376882
 30
0.0
 40
12.5
 50
203.5781799999973
 51
336.42183000000068
  0
ARC
  5
2EF6
  8
AM_0
 10
481.5560526495903
 20
925.52605536376882
 30
0.0
 40
12.5
 50
23.578179999997531
 51
156.42182000000241
  0
ARC
  5
2EF7
  8
AM_0
 10
481.5560526495903
 20
925.52605536376882
 30
0.0
 40
15.0
 50
148.21198000000049
 51
160.52876999999901
  0
ARC
  5
2EF8
  8
AM_0
 10
461.55605264959041
 20
925.52605536376882
 30
0.0
 40
5.0
 50
90.00000299999769
 51
270.0
  0
ARC
  5
2EF9
  8
AM_0
 10
464.55599264959039
 20
914.99046536376875
 30
0.0
 40
5.0
 50
0.0
 51
31.78801800000311
  0
ARC
  5
2EFA
  8
AM_0
 10
481.5560526495903
 20
925.52605536376882
 30
0.0
 40
15.0
 50
199.4712300000005
 51
211.78801999999919
  0
ARC
  5
2EFB
  8
AM_0
 10
464.55599264959039
 20
936.06157536376861
 30
0.0
 40
5.0
 50
328.21198000000078
 51
0.0
  0
LINE
  5
2EFC
  8
AM_0
 10
464.73049264959042
 20
1037.5495553637691
 30
0.0
 11
448.38149264959009
 21
1036.9786253637681
 31
0.0
  0
ARC
  5
2EFD
  8
AM_0
 10
438.55605264959019
 20
1028.6576453637681
 30
0.0
 40
5.0
 50
271.9999999999971
 51
0.0
  0
LINE
  5
2EFE
  8
AM_0
 10
418.5560526495903
 20
1025.526055363767
 30
0.0
 11
420.5560526495903
 21
1023.526055363767
 31
0.0
  0
LINE
  5
2EFF
  8
AM_0
 10
420.5561126495902
 20
1023.026055363768
 30
0.0
 11
438.7306126495904
 21
1023.660695363768
 31
0.0
  0
LINE
  5
2F00
  8
AM_0
 10
422.55599264959022
 20
998.53221536376873
 30
0.0
 11
443.55599264959039
 21
998.53221536376873
 31
0.0
  0
LINE
  5
2F01
  8
AM_0
 10
422.55599264959022
 20
1008.721185363768
 30
0.0
 11
443.55599264959039
 21
1008.721185363768
 31
0.0
  0
LINE
  5
2F02
  8
AM_0
 10
420.68782264959032
 20
1035.3142553637681
 30
0.0
 11
443.55599264959039
 21
1031.281975363768
 31
0.0
  0
ARC
  5
2F03
  8
AM_0
 10
421.55605264959019
 20
1040.2383353637681
 30
0.0
 40
5.0
 50
180.00001000000091
 51
259.99998999999872
  0
LINE
  5
2F04
  8
AM_0
 10
408.55599264959028
 20
1025.5259953637681
 30
0.0
 11
418.55599264959022
 21
1025.5259953637681
 31
0.0
  0
ARC
  5
2F05
  8
AM_0
 10
448.55599264959039
 20
1031.981745363767
 30
0.0
 40
5.0
 50
91.999998000000545
 51
180.00001000000091
  0
ARC
  5
2F06
  8
AM_0
 10
464.55599264959039
 20
1042.546555363768
 30
0.0
 40
5.0
 50
271.9999999999971
 51
0.0
  0
ARC
  5
2F07
  8
AM_0
 10
474.55599264959039
 20
1052.649955363768
 30
0.0
 40
5.0
 50
91.999998000000545
 51
180.00001000000091
  0
ARC
  5
2F08
  8
AM_0
 10
421.55605264959019
 20
1082.6245653637679
 30
0.0
 40
5.0
 50
91.999998000000545
 51
180.00001000000091
  0
ARC
  5
2F09
  8
AM_0
 10
474.5560526495903
 20
1074.5242853637681
 30
0.0
 40
3.0
 50
70.527972999999633
 51
180.00001000000091
  0
CIRCLE
  5
2F0A
  8
AM_0
 10
616.55605264959036
 20
1058.026055363767
 30
0.0
 40
9.5
  0
LINE
  5
2F0B
  8
AM_0
 10
646.55605264959036
 20
1080.738825363768
 30
0.0
 11
646.55605264959036
 21
1030.3132253637671
 31
0.0
  0
LINE
  5
2F0C
  8
AM_0
 10
504.55605264959019
 20
1075.584585363767
 30
0.0
 11
504.55605264959019
 21
1058.351435363767
 31
0.0
  0
LINE
  5
2F0D
  8
AM_0
 10
581.55605264959036
 20
1082.659475363768
 30
0.0
 11
581.55605264959036
 21
1054.1143053637679
 31
0.0
  0
ARC
  5
2F0E
  8
AM_0
 10
593.55605264959036
 20
1054.1143053637679
 30
0.0
 40
12.0
 50
180.00001000000091
 51
268.00000000000261
  0
LINE
  5
2F0F
  8
AM_0
 10
499.5560526495903
 20
1058.5260553637679
 30
0.0
 11
499.5560526495903
 21
930.52605536376893
 31
0.0
  0
LINE
  5
2F10
  8
AM_0
 10
528.70076264959039
 20
1053.508225363767
 30
0.0
 11
578.39601264959026
 21
1051.772875363768
 31
0.0
  0
LINE
  5
2F11
  8
AM_0
 10
499.5560526495903
 20
1058.5259953637681
 30
0.0
 11
524.55605264959036
 21
1057.653005363768
 31
0.0
  0
LINE
  5
2F12
  8
AM_0
 10
524.55605264959036
 20
1057.653005363768
 30
0.0
 11
528.70076264959039
 21
1053.508295363767
 31
0.0
  0
ARC
  5
2F13
  8
AM_0
 10
578.22145264959045
 20
1046.775925363768
 30
0.0
 40
5.0
 50
25.5735169999985
 51
88.000000000002785
  0
ARC
  5
2F14
  8
AM_0
 10
643.55605264959036
 20
987.63200536376871
 30
0.0
 40
2.0
 50
180.00001000000091
 51
268.00000000000261
  0
ARC
  5
2F15
  8
AM_0
 10
672.55605264959036
 20
925.52599536376886
 30
0.0
 40
8.0000113999999982
 50
90.00000299999769
 51
270.0
  0
LINE
  5
2F16
  8
AM_0
 10
672.55599264959039
 20
933.52605536376882
 30
0.0
 11
672.55599264959039
 21
917.52599536376886
 31
0.0
  0
LINE
  5
2F17
  8
AM_0
 10
646.55605264959036
 20
955.52605536376893
 30
0.0
 11
652.55599264959039
 21
955.52605536376893
 31
0.0
  0
ARC
  5
2F18
  8
AM_0
 10
644.55605264959036
 20
983.59465536376877
 30
0.0
 40
2.0
 50
0.0
 51
88.000000000002785
  0
LINE
  5
2F19
  8
AM_0
 10
643.48622264959033
 20
985.63322536376825
 30
0.0
 11
644.62587264959006
 21
985.59343536376866
 31
0.0
  0
ARC
  5
2F1A
  8
AM_0
 10
633.55605264959036
 20
1016.857655363768
 30
0.0
 40
8.0
 50
0.0
 51
88.000000000002785
  0
ARC
  5
2F1B
  8
AM_0
 10
622.55605264959036
 20
1033.251515363768
 30
0.0
 40
8.0
 50
180.00001000000091
 51
268.00000000000261
  0
ARC
  5
2F1C
  8
AM_0
 10
606.55605264959036
 20
1033.648125363768
 30
0.0
 40
8.0
 50
0.0
 51
88.000000000002785
  0
LINE
  5
2F1D
  8
AM_0
 10
593.13722264959006
 20
1042.121575363768
 30
0.0
 11
606.83528264959034
 21
1041.6432353637681
 31
0.0
  0
LINE
  5
2F1E
  8
AM_0
 10
622.27687264959025
 20
1025.2563953637671
 30
0.0
 11
633.83522264959038
 21
1024.852775363767
 31
0.0
  0
ARC
  5
2F1F
  8
AM_0
 10
644.55605264959036
 20
1022.897025363768
 30
0.0
 40
3.0
 50
112.0243099999992
 51
180.00001000000091
  0
ARC
  5
2F20
  8
AM_0
 10
641.55605264959036
 20
1030.3132253637671
 30
0.0
 40
5.0
 50
292.02430999999922
 51
0.0
  0
LINE
  5
2F21
  8
AM_0
 10
504.55605264959019
 20
1090.526055363769
 30
0.0
 11
641.73055264959032
 21
1085.735765363768
 31
0.0
  0
ARC
  5
2F22
  8
AM_0
 10
501.55605264959019
 20
1075.584585363767
 30
0.0
 40
3.0
 50
0.0
 51
70.527972999999633
  0
ARC
  5
2F23
  8
AM_0
 10
501.55605264959019
 20
1064.9778953637681
 30
0.0
 40
3.0
 50
0.0
 51
70.527972999999633
  0
ARC
  5
2F24
  8
AM_0
 10
586.55605264959036
 20
1082.659475363768
 30
0.0
 40
5.0
 50
88.000000000002785
 51
180.00001000000091
  0
ARC
  5
2F25
  8
AM_0
 10
641.55605264959036
 20
1080.738825363768
 30
0.0
 40
5.0
 50
0.0
 51
88.000000000002785
  0
LINE
  5
2F26
  8
AM_0
 10
734.55599264959005
 20
953.02605536376882
 30
0.0
 11
734.55599264959005
 21
898.02605536376882
 31
0.0
  0
LINE
  5
2F27
  8
ﾁｭｳｼﾝｾﾝ1
 10
597.05605264959036
 20
1058.026055363767
 30
0.0
 11
636.05605264959036
 21
1058.026055363767
 31
0.0
  0
LINE
  5
2F28
  8
ﾁｭｳｼﾝｾﾝ1
 10
616.55605264959036
 20
1038.526055363767
 30
0.0
 11
616.55605264959036
 21
1077.526055363767
 31
0.0
  0
LINE
  5
2F29
  8
ﾁｭｳｼﾝｾﾝ1
 10
427.0560526495903
 20
1058.026055363767
 30
0.0
 11
466.05605264959041
 21
1058.026055363767
 31
0.0
  0
LINE
  5
2F2A
  8
ﾁｭｳｼﾝｾﾝ1
 10
446.55605264959019
 20
1038.526055363767
 30
0.0
 11
446.55605264959019
 21
1077.526055363767
 31
0.0
  0
LINE
  5
2F2B
  8
ﾁｭｳｼﾝｾﾝ1
 10
427.0560526495903
 20
793.02605536376882
 30
0.0
 11
466.05605264959041
 21
793.02605536376882
 31
0.0
  0
LINE
  5
2F2C
  8
ﾁｭｳｼﾝｾﾝ1
 10
446.55605264959019
 20
773.52605536376859
 30
0.0
 11
446.55605264959019
 21
812.52605536376836
 31
0.0
  0
LINE
  5
2F2D
  8
AM_0
 10
596.55599264959017
 20
523.3381437627163
 30
0.0
 11
614.55599264959005
 21
523.3381437627163
 31
0.0
  0
LINE
  5
2F2E
  8
AM_0
 10
581.55599264959005
 20
317.68751376271632
 30
0.0
 11
604.55599264959028
 21
317.68751376271632
 31
0.0
  0
LINE
  5
2F2F
  8
AM_0
 10
591.55599264959039
 20
301.38050376271639
 30
0.0
 11
641.55599264959039
 21
301.38050376271639
 31
0.0
  0
LINE
  5
2F30
  8
AM_0
 10
416.55599264959028
 20
271.38050376271627
 30
0.0
 11
646.55599264959017
 21
271.38050376271627
 31
0.0
  0
LINE
  5
2F31
  8
ﾁｭｳｼﾝｾﾝ
 10
377.24234264959023
 20
471.38050876271649
 30
0.0
 11
741.48484264959018
 21
471.38050876271649
 31
0.0
  0
LINE
  5
2F32
  8
AM_0
 10
527.58424264959058
 20
588.40179376271635
 30
0.0
 11
604.90499264959033
 21
585.70164376271634
 31
0.0
  0
LINE
  5
2F33
  8
AM_0
 10
581.55599264959005
 20
508.33814376271653
 30
0.0
 11
581.55599264959005
 21
311.38050376271627
 31
0.0
  0
LINE
  5
2F34
  8
AM_0
 10
252.5560426495903
 20
283.88050376271627
 30
0.0
 11
252.5560426495903
 21
483.88050376271639
 31
0.0
  0
LINE
  5
2F35
  8
AM_0
 10
262.55604264959038
 20
482.8805037627161
 30
0.0
 11
262.55604264959038
 21
284.88050376271639
 31
0.0
  0
LINE
  5
2F36
  8
AM_0
 10
420.55604264959032
 20
523.88054376271634
 30
0.0
 11
420.55604264959032
 21
328.88050376271639
 31
0.0
  0
LINE
  5
2F37
  8
AM_0
 10
504.55599264959028
 20
463.48649376271618
 30
0.0
 11
504.55599264959028
 21
373.61948876271617
 31
0.0
  0
LINE
  5
2F38
  8
AM_0
 10
499.55599264959028
 20
593.38049376271613
 30
0.0
 11
499.55599264959028
 21
360.7744287627163
 31
0.0
  0
LINE
  5
2F39
  8
AM_0
 10
469.55599264959022
 20
590.40154376271619
 30
0.0
 11
469.55599264959022
 21
301.51948376271628
 31
0.0
  0
LINE
  5
2F3A
  8
AM_0
 10
443.55599264959022
 20
539.36449376271639
 30
0.0
 11
443.55599264959022
 21
313.93799876271618
 31
0.0
  0
LINE
  5
2F3B
  8
AM_0
 10
405.55604264959038
 20
328.88050376271639
 30
0.0
 11
405.55604264959038
 21
522.88049376271636
 31
0.0
  0
LINE
  5
2F3C
  8
AM_0
 10
315.55604264959032
 20
457.3805037627161
 30
0.0
 11
315.55604264959032
 21
310.38050376271627
 31
0.0
  0
LINE
  5
2F3D
  8
AM_0
 10
330.55604264959032
 20
457.38050876271649
 30
0.0
 11
330.55604264959032
 21
310.38050376271627
 31
0.0
  0
LINE
  5
2F3E
  8
AM_0
 10
346.09879264959022
 20
457.92326376271632
 30
0.0
 11
346.09879264959022
 21
383.88050376271622
 31
0.0
  0
LINE
  5
2F3F
  8
AM_0
 10
296.55604264959032
 20
322.03574876271631
 30
0.0
 11
296.55604264959032
 21
445.35691576271631
 31
0.0
  0
LINE
  5
2F40
  8
AM_0
 10
345.55604264959032
 20
379.92863376271617
 30
0.0
 11
402.55599264959022
 21
379.92863376271617
 31
0.0
  0
LINE
  5
2F41
  8
AM_0
 10
353.75589264959018
 20
335.38050376271627
 30
0.0
 11
402.55599264959022
 21
335.38050376271627
 31
0.0
  0
LINE
  5
2F42
  8
ﾁｭｳｼﾝｾﾝ
 10
244.26622067035279
 20
383.88050376271622
 30
0.0
 11
404.32014264959048
 21
383.88050376271622
 31
0.0
  0
ARC
  5
2F43
  8
AM_0
 10
261.55604264959032
 20
284.88050376271639
 30
0.0
 40
1.0
 50
270.0
 51
0.0
  0
LINE
  5
2F44
  8
AM_0
 10
252.5560426495903
 20
283.88050376271627
 30
0.0
 11
261.55604264959032
 21
283.88050376271627
 31
0.0
  0
LINE
  5
2F45
  8
AM_0
 10
296.55604264959032
 20
316.47842476271649
 30
0.0
 11
265.29457464959012
 21
313.74340076271631
 31
0.0
  0
ARC
  5
2F46
  8
AM_0
 10
265.55604264959032
 20
310.75481676271647
 30
0.0
 40
3.0
 50
94.99999999999973
 51
180.0
  0
LINE
  5
2F47
  8
AM_0
 10
342.55604264959032
 20
376.92866376271638
 30
0.0
 11
342.55604264959032
 21
311.81080376271632
 31
0.0
  0
LINE
  5
2F48
  8
AM_0
 10
351.65529264959002
 20
376.92866376271638
 30
0.0
 11
351.65529264959002
 21
335.38050376271627
 31
0.0
  0
LINE
  5
2F49
  8
AM_0
 10
315.55604264959032
 20
310.38050376271627
 30
0.0
 11
330.55604264959032
 21
310.38050376271627
 31
0.0
  0
LINE
  5
2F4A
  8
AM_0
 10
317.40460464959051
 20
322.23050376271641
 30
0.0
 11
328.86404464959031
 21
322.23050376271641
 31
0.0
  0
LINE
  5
2F4B
  8
AM_0
 10
313.7303536495902
 20
314.97586776271618
 30
0.0
 11
296.55604264959032
 21
316.47842476271649
 31
0.0
  0
ARC
  5
2F4C
  8
AM_0
 10
313.55604264959032
 20
312.98347776271618
 30
0.0
 40
2.0
 50
0.0
 51
85.000000000000256
  0
LINE
  5
2F4D
  8
AM_0
 10
343.7534426495904
 20
313.67042376271638
 30
0.0
 11
350.93679264959007
 21
333.40659876271638
 31
0.0
  0
ARC
  5
2F4E
  8
AM_0
 10
339.05494264959032
 20
315.38050376271627
 30
0.0
 40
5.0
 50
270.0
 51
340.00000000000227
  0
LINE
  5
2F4F
  8
AM_0
 10
330.55604264959032
 20
310.38050376271627
 30
0.0
 11
339.05494264959032
 21
310.38050376271627
 31
0.0
  0
LINE
  5
2F50
  8
AM_0
 10
330.55604264959032
 20
322.30054876271618
 30
0.0
 11
342.55604264959032
 21
322.30054876271618
 31
0.0
  0
LINE
  5
2F51
  8
AM_0
 10
330.55604264959032
 20
344.40583376271638
 30
0.0
 11
342.55604264959032
 21
344.40583376271638
 31
0.0
  0
ARC
  5
2F52
  8
AM_0
 10
353.75589264959018
 20
332.38050376271627
 30
0.0
 40
3.0000000500000001
 50
90.00000299999769
 51
160.00000000000239
  0
LINE
  5
2F53
  8
AM_0
 10
330.55604264959032
 20
423.35520876271619
 30
0.0
 11
345.55604264959032
 21
423.35520876271619
 31
0.0
  0
LINE
  5
2F54
  8
AM_0
 10
416.55599264959028
 20
296.38050376271627
 30
0.0
 11
416.55599264959028
 21
271.38050376271627
 31
0.0
  0
LINE
  5
2F55
  8
ﾁｭｳｼﾝｾﾝ1
 10
446.55599264959022
 20
305.28837376271628
 30
0.0
 11
446.55599264959022
 21
268.38050376271639
 31
0.0
  0
LINE
  5
2F56
  8
ｶｸﾚｾﾝ2
 10
437.05599264959028
 20
301.38050376271639
 30
0.0
 11
437.05599264959028
 21
271.38050376271627
 31
0.0
  0
LINE
  5
2F57
  8
ｶｸﾚｾﾝ2
 10
456.05599264959022
 20
301.38050376271639
 30
0.0
 11
456.05599264959022
 21
271.38050376271627
 31
0.0
  0
LINE
  5
2F58
  8
AM_0
 10
472.90799264959031
 20
304.24839376271632
 30
0.0
 11
503.60124264959018
 21
369.3552987627163
 31
0.0
  0
LINE
  5
2F59
  8
AM_0
 10
422.55599264959022
 20
369.60468876271631
 30
0.0
 11
422.55599264959022
 21
343.18531376271631
 31
0.0
  0
LINE
  5
2F5A
  8
AM_0
 10
421.55599264959022
 20
301.38050376271639
 30
0.0
 11
468.38539264959041
 21
301.38050376271639
 31
0.0
  0
LINE
  5
2F5B
  8
AM_0
 10
422.55599264959022
 20
353.3743087627164
 30
0.0
 11
443.55599264959022
 21
353.3743087627164
 31
0.0
  0
LINE
  5
2F5C
  8
AM_0
 10
422.55599264959022
 20
343.18531376271631
 30
0.0
 11
443.55599264959022
 21
343.18531376271631
 31
0.0
  0
LINE
  5
2F5D
  8
AM_0
 10
420.55594264959018
 20
328.88050376271639
 30
0.0
 11
438.7304426495902
 21
328.24582876271631
 31
0.0
  0
ARC
  5
2F5E
  8
AM_0
 10
407.55599264959028
 20
328.88050376271639
 30
0.0
 40
2.0000000500000001
 50
179.9999899999988
 51
270.0
  0
LINE
  5
2F5F
  8
AM_0
 10
418.55604264959038
 20
326.88047376271618
 30
0.0
 11
420.55599264959028
 21
328.88047376271618
 31
0.0
  0
ARC
  5
2F60
  8
AM_0
 10
421.55599264959022
 20
296.38050376271627
 30
0.0
 40
5.0
 50
90.00000299999769
 51
180.00001000000091
  0
LINE
  5
2F61
  8
AM_0
 10
407.55599264959028
 20
326.88050376271639
 30
0.0
 11
418.55599264959022
 21
326.88050376271639
 31
0.0
  0
ARC
  5
2F62
  8
AM_0
 10
402.55599264959022
 20
332.38050376271627
 30
0.0
 40
3.0000000500000001
 50
0.0
 51
90.00000299999769
  0
LINE
  5
2F63
  8
AM_0
 10
405.55604264959038
 20
343.18531376271631
 30
0.0
 11
420.55604264959032
 21
343.18531376271631
 31
0.0
  0
LINE
  5
2F64
  8
AM_0
 10
405.55604264959038
 20
353.3743087627164
 30
0.0
 11
420.55604264959032
 21
353.3743087627164
 31
0.0
  0
ARC
  5
2F65
  8
AM_0
 10
438.55599264959
 20
323.24888376271639
 30
0.0
 40
5.0
 50
0.0
 51
88.000000000002899
  0
ARC
  5
2F66
  8
AM_0
 10
448.55599264959022
 20
313.93799876271618
 30
0.0
 40
5.0
 50
179.9999899999988
 51
234.17957000000149
  0
LINE
  5
2F67
  8
AM_0
 10
457.4109926495903
 20
301.38047376271618
 30
0.0
 11
445.6297926495904
 21
309.88373876271618
 31
0.0
  0
ARC
  5
2F68
  8
AM_0
 10
468.38539264959041
 20
306.38050376271627
 30
0.0
 40
5.0
 50
270.0
 51
334.75946999999809
  0
LINE
  5
2F69
  8
AM_0
 10
422.55599264959022
 20
369.60468876271631
 30
0.0
 11
443.55599264959022
 21
369.60468876271631
 31
0.0
  0
LINE
  5
2F6A
  8
AM_0
 10
405.55604264959038
 20
369.60468876271631
 30
0.0
 11
420.55604264959032
 21
369.60468876271631
 31
0.0
  0
ARC
  5
2F6B
  8
AM_0
 10
591.55599264959039
 20
311.38050376271627
 30
0.0
 40
10.0
 50
179.9999899999988
 51
270.0
  0
ARC
  5
2F6C
  8
AM_0
 10
494.55599264959022
 20
373.61948876271617
 30
0.0
 40
10.0
 50
334.75946999999809
 51
0.0
  0
LINE
  5
2F6D
  8
AM_0
 10
347.49149264959038
 20
459.3158987627163
 30
0.0
 11
404.09159264959038
 21
515.91594376271655
 31
0.0
  0
LINE
  5
2F6E
  8
AM_0
 10
296.55604264959032
 20
451.28258276271617
 30
0.0
 11
265.29457464959012
 21
454.01760676271641
 31
0.0
  0
ARC
  5
2F6F
  8
AM_0
 10
265.55604264959032
 20
457.00619076271653
 30
0.0
 40
3.0
 50
180.0
 51
265.00000000000028
  0
ARC
  5
2F70
  8
AM_0
 10
261.55604264959032
 20
482.8805037627161
 30
0.0
 40
1.0
 50
0.0
 51
90.0
  0
LINE
  5
2F71
  8
AM_0
 10
252.5560426495903
 20
483.88050376271639
 30
0.0
 11
261.55604264959032
 21
483.88050376271639
 31
0.0
  0
LINE
  5
2F72
  8
AM_0
 10
315.55604264959032
 20
457.3805037627161
 30
0.0
 11
330.55604264959032
 21
457.3805037627161
 31
0.0
  0
LINE
  5
2F73
  8
AM_0
 10
317.40460464959051
 20
445.53050376271648
 30
0.0
 11
328.86404464959031
 21
445.53050376271648
 31
0.0
  0
LINE
  5
2F74
  8
AM_0
 10
313.7303536495902
 20
452.78514076271648
 30
0.0
 11
296.55604264959032
 21
451.28258276271617
 31
0.0
  0
ARC
  5
2F75
  8
AM_0
 10
313.55604264959032
 20
454.77752976271648
 30
0.0
 40
2.0
 50
274.99999999999972
 51
0.0
  0
LINE
  5
2F76
  8
AM_0
 10
330.55604264959032
 20
445.46055376271642
 30
0.0
 11
346.09879264959022
 21
445.46055376271642
 31
0.0
  0
LINE
  5
2F77
  8
AM_0
 10
330.55604264959032
 20
457.38053876271653
 30
0.0
 11
344.13039264959031
 21
457.8545687627165
 31
0.0
  0
ARC
  5
2F78
  8
AM_0
 10
343.95594264959021
 20
462.85151376271642
 30
0.0
 40
5.0
 50
271.99999999999687
 51
315.0
  0
LINE
  5
2F79
  8
AM_0
 10
466.55599264959028
 20
591.38054376271634
 30
0.0
 11
466.55599264959028
 21
567.28109376271641
 31
0.0
  0
LINE
  5
2F7A
  8
AM_0
 10
524.55599264959028
 20
587.67904376271645
 30
0.0
 11
524.55599264959028
 21
463.48649376271618
 31
0.0
  0
LINE
  5
2F7B
  8
AM_0
 10
422.55599264959022
 20
509.57564376271648
 30
0.0
 11
422.55599264959022
 21
483.1562937627163
 31
0.0
  0
LINE
  5
2F7C
  8
AM_0
 10
422.55599264959022
 20
499.38670376271648
 30
0.0
 11
443.55599264959022
 21
499.38670376271648
 31
0.0
  0
LINE
  5
2F7D
  8
AM_0
 10
422.55599264959022
 20
483.1562937627163
 30
0.0
 11
443.55599264959022
 21
483.1562937627163
 31
0.0
  0
LINE
  5
2F7E
  8
AM_0
 10
405.55604264959038
 20
483.1562937627163
 30
0.0
 11
420.55604264959032
 21
483.1562937627163
 31
0.0
  0
LINE
  5
2F7F
  8
AM_0
 10
405.55604264959038
 20
499.38670376271648
 30
0.0
 11
420.55604264959032
 21
499.38670376271648
 31
0.0
  0
LINE
  5
2F80
  8
AM_0
 10
420.55604264959032
 20
523.88054376271634
 30
0.0
 11
438.73054264959029
 21
524.51519376271631
 31
0.0
  0
LINE
  5
2F81
  8
AM_0
 10
422.55599264959022
 20
509.57564376271648
 30
0.0
 11
443.55599264959022
 21
509.57564376271648
 31
0.0
  0
ARC
  5
2F82
  8
AM_0
 10
400.55604264959032
 20
519.45159376271636
 30
0.0
 40
5.0
 50
315.0
 51
0.0
  0
LINE
  5
2F83
  8
AM_0
 10
405.55604264959038
 20
509.57564376271648
 30
0.0
 11
420.55604264959032
 21
509.57564376271648
 31
0.0
  0
LINE
  5
2F84
  8
AM_0
 10
408.55599264959028
 20
525.88049376271624
 30
0.0
 11
418.55599264959022
 21
525.88049376271624
 31
0.0
  0
ARC
  5
2F85
  8
AM_0
 10
408.55599264959028
 20
522.88049376271636
 30
0.0
 40
3.0000000500000001
 50
90.00000299999769
 51
180.00001000000091
  0
LINE
  5
2F86
  8
AM_0
 10
418.55604264959038
 20
525.88049376271624
 30
0.0
 11
420.55599264959028
 21
523.88049376271636
 31
0.0
  0
LINE
  5
2F87
  8
AM_0
 10
444.95439264959032
 20
542.83269376271642
 30
0.0
 11
465.15754264959008
 21
563.81289376271639
 31
0.0
  0
ARC
  5
2F88
  8
AM_0
 10
438.55599264959
 20
529.51214376271616
 30
0.0
 40
5.0
 50
271.99999999999687
 51
0.0
  0
ARC
  5
2F89
  8
AM_0
 10
448.55599264959022
 20
539.36449376271639
 30
0.0
 40
5.0
 50
136.08091999999979
 51
180.00001000000091
  0
ARC
  5
2F8A
  8
AM_0
 10
464.55599264959022
 20
570.39654376271642
 30
0.0
 40
5.0
 50
316.08091999999982
 51
0.0
  0
LINE
  5
2F8B
  8
AM_0
 10
465.15754264959008
 20
563.81289376271639
 30
0.0
 11
468.15754264959031
 21
566.92834376271617
 31
0.0
  0
ARC
  5
2F8C
  8
AM_0
 10
461.55599264959028
 20
567.28109376271641
 30
0.0
 40
5.0
 50
316.08091999999982
 51
0.0
  0
ARC
  5
2F8D
  8
AM_0
 10
596.55599264959017
 20
508.33814376271653
 30
0.0
 40
15.0
 50
90.00000299999769
 51
180.00001000000091
  0
LINE
  5
2F8E
  8
AM_0
 10
504.55599264959028
 20
463.48649376271618
 30
0.0
 11
524.55599264959028
 21
463.48649376271618
 31
0.0
  0
LINE
  5
2F8F
  8
AM_0
 10
481.55599264959022
 20
604.38049376271636
 30
0.0
 11
491.03414264959019
 21
602.50144376271635
 31
0.0
  0
ARC
  5
2F90
  8
AM_0
 10
481.55599264959022
 20
619.38049376271636
 30
0.0
 40
25.000000499999999
 50
306.46672000000012
 51
233.53329000000139
  0
LINE
  5
2F91
  8
AM_0
 10
471.76194264959031
 20
602.38049376271613
 30
0.0
 11
491.34999264959021
 21
602.38049376271613
 31
0.0
  0
LINE
  5
2F92
  8
AM_0
 10
468.55599264959022
 20
593.38049376271613
 30
0.0
 11
499.55599264959028
 21
593.38049376271613
 31
0.0
  0
LINE
  5
2F93
  8
AM_0
 10
471.48624264959
 20
592.4002937627165
 30
0.0
 11
499.55604264959032
 21
593.38054376271634
 31
0.0
  0
CIRCLE
  5
2F94
  8
AM_0
 10
481.55599264959022
 20
619.38049376271636
 30
0.0
 40
15.0
  0
LINE
  5
2F95
  8
AM_0
 10
469.05604264959032
 20
593.38049376271613
 30
0.0
 11
471.3065426495902
 21
601.77939376271615
 31
0.0
  0
ARC
  5
2F96
  8
AM_0
 10
463.13094264959039
 20
594.45019376271648
 30
0.0
 40
6.0
 50
349.72994999999878
 51
53.533291000002919
  0
ARC
  5
2F97
  8
AM_0
 10
471.55599264959022
 20
590.40154376271619
 30
0.0
 40
2.0000000500000001
 50
91.999998000000545
 51
180.00001000000091
  0
ARC
  5
2F98
  8
AM_0
 10
468.55599264959022
 20
591.38054376271634
 30
0.0
 40
2.0000000500000001
 50
90.00000299999769
 51
180.00001000000091
  0
LINE
  5
2F99
  8
AM_0
 10
472.07789264959052
 20
602.50159376271654
 30
0.0
 11
481.55594264959018
 21
604.38054376271634
 31
0.0
  0
ARC
  5
2F9A
  8
AM_0
 10
472.27244264959018
 20
601.52059376271654
 30
0.0
 40
1.0
 50
101.213289999998
 51
164.99998999999869
  0
LINE
  5
2F9B
  8
AM_0
 10
499.55594264959001
 20
593.38049376271613
 30
0.0
 11
519.73044264959015
 21
592.67599376271642
 31
0.0
  0
LINE
  5
2F9C
  8
AM_0
 10
494.05599264959022
 20
593.38049376271613
 30
0.0
 11
491.80549264959012
 21
601.77944376271648
 31
0.0
  0
ARC
  5
2F9D
  8
AM_0
 10
499.98099264959018
 20
594.45019376271648
 30
0.0
 40
6.0
 50
126.46669999999671
 51
190.27005999999909
  0
ARC
  5
2F9E
  8
AM_0
 10
490.83964264959042
 20
601.52059376271654
 30
0.0
 40
1.0
 50
15.000000000000741
 51
78.786710000001847
  0
ARC
  5
2F9F
  8
AM_0
 10
527.7587926495903
 20
593.39874376271632
 30
0.0
 40
5.0
 50
214.88733999999911
 51
268.0000000000029
  0
ARC
  5
2FA0
  8
AM_0
 10
519.55599264959017
 20
587.67904376271645
 30
0.0
 40
5.0
 50
34.887349999997149
 51
88.000000000002899
  0
ARC
  5
2FA1
  8
AM_0
 10
1031.223031132994
 20
471.38050876271632
 30
0.0
 40
60.0
 50
270.0
 51
90.00000299999769
  0
ARC
  5
2FA2
  8
AM_0
 10
1031.223031132994
 20
471.38050876271632
 30
0.0
 40
60.0
 50
90.00000299999769
 51
270.0
  0
LINE
  5
2FA3
  8
AM_0
 10
1196.223021132992
 20
301.38047376271618
 30
0.0
 11
1158.025661132993
 21
497.88880876271651
 31
0.0
  0
LINE
  5
2FA4
  8
AM_0
 10
1148.223001132993
 20
378.34440376271618
 30
0.0
 11
1148.223001132993
 21
522.31429376271649
 31
0.0
  0
LINE
  5
2FA5
  8
AM_0
 10
866.223011132995
 20
301.38053376271631
 30
0.0
 11
904.42035613299436
 21
497.88877876271619
 31
0.0
  0
LINE
  5
2FA6
  8
AM_0
 10
914.22300113299423
 20
378.34440376271618
 30
0.0
 11
914.22300113299423
 21
522.31429376271649
 31
0.0
  0
LINE
  5
2FA7
  8
ﾁｭｳｼﾝｾﾝ
 10
1031.223031132994
 20
265.38050376271627
 30
0.0
 11
1031.223031132994
 21
647.37979376271642
 31
0.0
  0
LINE
  5
2FA8
  8
AM_0
 10
641.55599264959039
 20
551.7987937627164
 30
0.0
 11
641.55599264959039
 21
305.04075376271618
 31
0.0
  0
LINE
  5
2FA9
  8
AM_0
 10
646.55599264959017
 20
529.4491437627164
 30
0.0
 11
646.55599264959017
 21
413.31190376271621
 31
0.0
  0
LINE
  5
2FAA
  8
AM_0
 10
614.55599264959005
 20
575.70769376271619
 30
0.0
 11
614.55599264959005
 21
327.68751376271632
 31
0.0
  0
LINE
  5
2FAB
  8
AM_0
 10
931.22303113299438
 20
313.38047376271618
 30
0.0
 11
931.22303113299438
 21
456.38050876271649
 31
0.0
  0
LINE
  5
2FAC
  8
AM_0
 10
1131.2230011329941
 20
313.38047376271618
 30
0.0
 11
1131.2230011329941
 21
456.38050876271649
 31
0.0
  0
ARC
  5
2FAD
  8
AM_0
 10
1108.0325111329939
 20
285.42881376271629
 30
0.0
 40
10.0
 50
45.000001000003799
 51
124.9999999999972
  0
LINE
  5
2FAE
  8
AM_0
 10
1031.223031132994
 20
278.38047376271641
 30
0.0
 11
1121.2230011329941
 21
278.38047376271641
 31
0.0
  0
LINE
  5
2FAF
  8
AM_0
 10
936.22303113299449
 20
271.38050376271627
 30
0.0
 11
866.223011132995
 21
271.38050376271627
 31
0.0
  0
LINE
  5
2FB0
  8
AM_0
 10
931.22303113299438
 20
301.38050376271639
 30
0.0
 11
871.22301113299466
 21
301.38050376271639
 31
0.0
  0
LINE
  5
2FB1
  8
ﾁｭｳｼﾝｾﾝ1
 10
616.55599264959039
 20
305.28837376271628
 30
0.0
 11
616.55599264959039
 21
268.38050376271639
 31
0.0
  0
LINE
  5
2FB2
  8
AM_0
 10
646.55599264959017
 20
296.38050376271627
 30
0.0
 11
646.55599264959017
 21
271.38050376271627
 31
0.0
  0
LINE
  5
2FB3
  8
AM_0
 10
866.223011132995
 20
301.38050376271639
 30
0.0
 11
866.223011132995
 21
271.38050376271627
 31
0.0
  0
LINE
  5
2FB4
  8
ｶｸﾚｾﾝ2
 10
607.05599264959039
 20
301.38050376271639
 30
0.0
 11
607.05599264959039
 21
271.38050376271627
 31
0.0
  0
LINE
  5
2FB5
  8
ｶｸﾚｾﾝ2
 10
626.05599264959005
 20
301.38050376271639
 30
0.0
 11
626.05599264959005
 21
271.38050376271627
 31
0.0
  0
LINE
  5
2FB6
  8
ｶｸﾚｾﾝ2
 10
889.22300113299457
 20
301.38050376271639
 30
0.0
 11
889.22300113299457
 21
271.38050376271627
 31
0.0
  0
ARC
  5
2FB7
  8
AM_0
 10
604.55599264959028
 20
327.68751376271632
 30
0.0
 40
10.0
 50
270.0
 51
0.0
  0
ARC
  5
2FB8
  8
AM_0
 10
641.55599264959039
 20
296.38050376271627
 30
0.0
 40
5.0
 50
0.0
 51
90.00000299999769
  0
ARC
  5
2FB9
  8
AM_0
 10
646.55599264959017
 20
305.04075376271618
 30
0.0
 40
5.0
 50
179.9999899999988
 51
240.00000999999969
  0
LINE
  5
2FBA
  8
AM_0
 10
643.48624264959005
 20
411.27332876271618
 30
0.0
 11
644.62584264959014
 21
411.31312376271632
 31
0.0
  0
ARC
  5
2FBB
  8
AM_0
 10
644.55599264959039
 20
413.31190376271621
 30
0.0
 40
2.0000000500000001
 50
271.99999999999687
 51
0.0
  0
ARC
  5
2FBC
  8
AM_0
 10
643.55599264959005
 20
409.27454876271639
 30
0.0
 40
2.0000000500000001
 50
91.999998000000545
 51
180.00001000000091
  0
ARC
  5
2FBD
  8
AM_0
 10
871.22301113299466
 20
296.38050376271627
 30
0.0
 40
5.0
 50
90.00000299999769
 51
180.00001000000091
  0
LINE
  5
2FBE
  8
AM_0
 10
936.22303113299449
 20
296.38050376271627
 30
0.0
 11
936.22303113299449
 21
271.38050376271627
 31
0.0
  0
LINE
  5
2FBF
  8
ﾁｭｳｼﾝｾﾝ1
 10
898.72303113299449
 20
306.04175876271643
 30
0.0
 11
898.72303113299449
 21
268.38050376271639
 31
0.0
  0
LINE
  5
2FC0
  8
AM_0
 10
966.47791613299444
 20
289.18900876271641
 30
0.0
 11
960.14924113299458
 21
293.62037376271638
 31
0.0
  0
ARC
  5
2FC1
  8
AM_0
 10
954.41349113299475
 20
285.42881376271629
 30
0.0
 40
10.0
 50
54.999999000001559
 51
135.0
  0
LINE
  5
2FC2
  8
AM_0
 10
1095.968091132994
 20
289.18897376271627
 30
0.0
 11
1102.296766132994
 21
293.62037376271638
 31
0.0
  0
LINE
  5
2FC3
  8
ｶｸﾚｾﾝ2
 10
908.22300113299445
 20
301.38050376271639
 30
0.0
 11
908.22300113299445
 21
271.38050376271627
 31
0.0
  0
LINE
  5
2FC4
  8
AM_0
 10
1031.223031132994
 20
287.38050376271639
 30
0.0
 11
972.21369113299488
 21
287.38050376271639
 31
0.0
  0
LINE
  5
2FC5
  8
AM_0
 10
1031.223031132994
 20
278.38047376271641
 30
0.0
 11
941.22303113299449
 21
278.38047376271641
 31
0.0
  0
LINE
  5
2FC6
  8
AM_0
 10
939.15195613299443
 20
284.30942876271632
 30
0.0
 11
947.34241613299457
 21
292.49991876271639
 31
0.0
  0
ARC
  5
2FC7
  8
AM_0
 10
941.22303113299449
 20
273.38047376271629
 30
0.0
 40
5.0
 50
90.00000299999769
 51
180.00001000000091
  0
ARC
  5
2FC8
  8
AM_0
 10
946.22303113299438
 20
277.23835376271637
 30
0.0
 40
10.0
 50
135.0
 51
180.00001000000091
  0
ARC
  5
2FC9
  8
AM_0
 10
972.21369113299488
 20
297.38050376271639
 30
0.0
 40
10.0
 50
235.0000000000025
 51
270.0
  0
LINE
  5
2FCA
  8
AM_0
 10
1031.223031132994
 20
287.38050376271639
 30
0.0
 11
1090.232341132993
 21
287.38050376271639
 31
0.0
  0
ARC
  5
2FCB
  8
AM_0
 10
1090.232341132993
 20
297.38050376271639
 30
0.0
 40
10.0
 50
270.0
 51
304.99999999999739
  0
ARC
  5
2FCC
  8
AM_0
 10
1031.223031132994
 20
378.38047376271618
 30
0.0
 40
117.0
 50
179.9999899999988
 51
211.27329999999591
  0
ARC
  5
2FCD
  8
AM_0
 10
919.22300113299445
 20
313.38047376271618
 30
0.0
 40
12.0
 50
270.0
 51
0.0
  0
ARC
  5
2FCE
  8
AM_0
 10
931.22303113299438
 20
296.38050376271627
 30
0.0
 40
5.0
 50
0.0
 51
90.00000299999769
  0
LINE
  5
2FCF
  8
AM_0
 10
1126.223001132993
 20
296.38050376271627
 30
0.0
 11
1126.223001132993
 21
271.38050376271627
 31
0.0
  0
LINE
  5
2FD0
  8
ﾁｭｳｼﾝｾﾝ1
 10
1163.723006132994
 20
306.04175876271643
 30
0.0
 11
1163.723006132994
 21
268.38050376271639
 31
0.0
  0
LINE
  5
2FD1
  8
AM_0
 10
1196.223006132994
 20
301.38050376271639
 30
0.0
 11
1196.223006132994
 21
271.38050376271627
 31
0.0
  0
LINE
  5
2FD2
  8
ｶｸﾚｾﾝ2
 10
1154.2230211329929
 20
301.38050376271639
 30
0.0
 11
1154.2230211329929
 21
271.38050376271627
 31
0.0
  0
LINE
  5
2FD3
  8
ｶｸﾚｾﾝ2
 10
1173.223006132994
 20
301.38050376271639
 30
0.0
 11
1173.223006132994
 21
271.38050376271627
 31
0.0
  0
LINE
  5
2FD4
  8
AM_0
 10
1126.223001132993
 20
271.38050376271627
 30
0.0
 11
1196.223006132994
 21
271.38050376271627
 31
0.0
  0
ARC
  5
2FD5
  8
AM_0
 10
1121.2230011329941
 20
273.38047376271629
 30
0.0
 40
5.0
 50
0.0
 51
90.00000299999769
  0
ARC
  5
2FD6
  8
AM_0
 10
1116.223001132993
 20
277.23835376271637
 30
0.0
 40
10.0
 50
0.0
 51
45.000001000003799
  0
LINE
  5
2FD7
  8
AM_0
 10
1123.294076132994
 20
284.30942876271632
 30
0.0
 11
1115.103586132994
 21
292.49991876271639
 31
0.0
  0
ARC
  5
2FD8
  8
AM_0
 10
1031.223031132994
 20
378.38047376271618
 30
0.0
 40
117.0
 50
328.72670000000397
 51
0.0
  0
LINE
  5
2FD9
  8
AM_0
 10
1131.2230011329941
 20
301.38050376271639
 30
0.0
 11
1191.223006132994
 21
301.38050376271639
 31
0.0
  0
ARC
  5
2FDA
  8
AM_0
 10
1143.223001132993
 20
313.38047376271618
 30
0.0
 40
12.0
 50
180.00001000000091
 51
270.0
  0
ARC
  5
2FDB
  8
AM_0
 10
1131.2230011329941
 20
296.38050376271627
 30
0.0
 40
5.0
 50
90.00000299999769
 51
180.00001000000091
  0
ARC
  5
2FDC
  8
AM_0
 10
1191.223006132994
 20
296.38050376271627
 30
0.0
 40
5.0
 50
0.0
 51
90.00000299999769
  0
ARC
  5
2FDD
  8
AM_0
 10
1031.223031132994
 20
456.38050876271649
 30
0.0
 40
100.0
 50
0.0
 51
90.00000299999769
  0
ARC
  5
2FDE
  8
AM_0
 10
1031.223031132994
 20
446.38050876271632
 30
0.0
 40
142.0
 50
43.554364000000241
 51
90.00000299999769
  0
ARC
  5
2FDF
  8
AM_0
 10
1031.223031132994
 20
446.38050876271632
 30
0.0
 40
147.0
 50
45.402042999998848
 51
90.00000299999769
  0
LINE
  5
2FE0
  8
ﾁｭｳｼﾝｾﾝ
 10
1119.631146379289
 20
471.38050876271632
 30
0.0
 11
942.81491588669905
 21
471.38050876271632
 31
0.0
  0
ARC
  5
2FE1
  8
AM_0
 10
604.55599264959028
 20
575.70769376271619
 30
0.0
 40
10.0
 50
0.0
 51
88.000000000002899
  0
LINE
  5
2FE2
  8
AM_0
 10
652.55599264959005
 20
443.88050876271649
 30
0.0
 11
734.55599264959005
 21
443.88050876271649
 31
0.0
  0
LINE
  5
2FE3
  8
AM_0
 10
672.55599264959005
 20
502.8804937627163
 30
0.0
 11
734.55599264959005
 21
502.8804937627163
 31
0.0
  0
LINE
  5
2FE4
  8
AM_0
 10
652.55599264959005
 20
498.88050876271649
 30
0.0
 11
734.55599264959005
 21
498.88050876271649
 31
0.0
  0
LINE
  5
2FE5
  8
AM_0
 10
652.55599264959005
 20
501.38050876271649
 30
0.0
 11
652.55599264959005
 21
441.38050876271649
 31
0.0
  0
LINE
  5
2FE6
  8
AM_0
 10
646.55599264959017
 20
441.38050876271649
 30
0.0
 11
652.55599264959005
 21
441.38050876271649
 31
0.0
  0
LINE
  5
2FE7
  8
AM_0
 10
646.55599264959017
 20
501.38050876271649
 30
0.0
 11
652.55599264959005
 21
501.38050876271649
 31
0.0
  0
LINE
  5
2FE8
  8
AM_0
 10
672.55599264959005
 20
502.8804937627163
 30
0.0
 11
672.55599264959005
 21
498.88050876271649
 31
0.0
  0
ARC
  5
2FE9
  8
AM_0
 10
643.55599264959005
 20
533.48649376271635
 30
0.0
 40
2.0000000500000001
 50
179.9999899999988
 51
268.00000999999861
  0
ARC
  5
2FEA
  8
AM_0
 10
644.55599264959039
 20
529.4491437627164
 30
0.0
 40
2.0000000500000001
 50
0.0
 51
88.000000000002899
  0
LINE
  5
2FEB
  8
AM_0
 10
643.48619264959052
 20
531.48769376271639
 30
0.0
 11
644.62574264959039
 21
531.44794376271648
 31
0.0
  0
LINE
  5
2FEC
  8
AM_0
 10
623.68449264958997
 20
557.94409376271642
 30
0.0
 11
636.99179264959037
 21
556.77984376271615
 31
0.0
  0
ARC
  5
2FED
  8
AM_0
 10
624.55599264959039
 20
567.90599376271632
 30
0.0
 40
10.0
 50
179.9999899999988
 51
265.00000000000028
  0
ARC
  5
2FEE
  8
AM_0
 10
636.55599264959039
 20
551.7987937627164
 30
0.0
 40
5.0
 50
0.0
 51
84.999996999998572
  0
LINE
  5
2FEF
  8
AM_0
 10
734.55599264959005
 20
502.8804937627163
 30
0.0
 11
734.55599264959005
 21
443.88050876271649
 31
0.0
  0
ARC
  5
2FF0
  8
AM_0
 10
1031.223031132994
 20
446.38050876271632
 30
0.0
 40
142.0
 50
90.00000299999769
 51
136.4456399999961
  0
ARC
  5
2FF1
  8
AM_0
 10
1031.223031132994
 20
446.38050876271632
 30
0.0
 40
147.0
 50
90.00000299999769
 51
134.59796000000111
  0
ARC
  5
2FF2
  8
AM_0
 10
1031.223031132994
 20
456.38050876271649
 30
0.0
 40
100.0
 50
90.00000299999769
 51
180.00001000000091
  0
ARC
  5
2FF3
  8
AM_0
 10
998.22300113299445
 20
479.8469087627164
 30
0.0
 40
100.0
 50
134.59796000000111
 51
180.00001000000091
  0
ARC
  5
2FF4
  8
AM_0
 10
995.71171113299476
 20
480.14359876271618
 30
0.0
 40
93.0
 50
136.4456399999961
 51
169.00000000000131
  0
LINE
  5
2FF5
  8
AM_0
 10
898.22300113299457
 20
479.8469087627164
 30
0.0
 11
898.22300113299457
 21
466.00620876271643
 31
0.0
  0
ARC
  5
2FF6
  8
AM_0
 10
924.22300113299445
 20
522.31429376271649
 30
0.0
 40
10.0
 50
149.46391999999909
 51
180.00001000000091
  0
ARC
  5
2FF7
  8
AM_0
 10
1031.223031132994
 20
471.38050876271632
 30
0.0
 40
27.500000499999999
 50
106.9123899999975
 51
73.087596999998908
  0
CIRCLE
  5
2FF8
  8
AM_0
 10
1031.223031132994
 20
471.38050876271632
 30
0.0
 40
4.500000049999997
  0
CIRCLE
  5
2FF9
  8
AM_5
 10
1031.223031132994
 20
471.38050876271632
 30
0.0
 40
6.0
  0
LINE
  5
2FFA
  8
AM_0
 10
1023.223001132993
 20
492.8805087627162
 30
0.0
 11
1039.223001132993
 21
492.8805087627162
 31
0.0
  0
LINE
  5
2FFB
  8
AM_0
 10
1023.223001132993
 20
502.8804937627163
 30
0.0
 11
1039.223001132993
 21
502.8804937627163
 31
0.0
  0
LINE
  5
2FFC
  8
AM_0
 10
1023.223001132993
 20
492.8805087627162
 30
0.0
 11
1023.223001132993
 21
502.8804937627163
 31
0.0
  0
LINE
  5
2FFD
  8
AM_0
 10
1039.223001132993
 20
492.8805087627162
 30
0.0
 11
1039.223001132993
 21
502.8804937627163
 31
0.0
  0
LINE
  5
2FFE
  8
AM_0
 10
1026.223031132994
 20
639.38049376271636
 30
0.0
 11
1026.223031132994
 21
597.38049376271613
 31
0.0
  0
LINE
  5
2FFF
  8
AM_0
 10
1036.223031132994
 20
639.38049376271636
 30
0.0
 11
1036.223031132994
 21
597.38049376271613
 31
0.0
  0
LINE
  5
3000
  8
AM_0
 10
1018.576976132995
 20
592.8355437627165
 30
0.0
 11
1020.973461132995
 21
601.77939376271615
 31
0.0
  0
ARC
  5
3001
  8
AM_0
 10
1024.2230011329941
 20
597.38049376271613
 30
0.0
 40
2.0000000500000001
 50
270.0
 51
0.0
  0
ARC
  5
3002
  8
AM_0
 10
1021.939431132993
 20
601.52059376271654
 30
0.0
 40
1.0
 50
101.213289999998
 51
164.99998999999869
  0
LINE
  5
3003
  8
AM_0
 10
1021.7449461329931
 20
602.50159376271654
 30
0.0
 11
1026.223001132993
 21
603.38934376271618
 31
0.0
  0
LINE
  5
3004
  8
AM_0
 10
1043.869026132995
 20
592.8355437627165
 30
0.0
 11
1041.472511132994
 21
601.77944376271648
 31
0.0
  0
ARC
  5
3005
  8
AM_0
 10
1038.2230011329941
 20
597.38049376271613
 30
0.0
 40
2.0000000500000001
 50
179.9999899999988
 51
270.0
  0
ARC
  5
3006
  8
AM_0
 10
1040.506571132993
 20
601.52059376271654
 30
0.0
 40
1.0
 50
15.000000000000741
 51
78.786710000001847
  0
LINE
  5
3007
  8
AM_0
 10
1036.2230011329941
 20
603.38919376271633
 30
0.0
 11
1040.701061132994
 21
602.50144376271635
 31
0.0
  0
ARC
  5
3008
  8
AM_0
 10
1031.223031132994
 20
639.38049376271636
 30
0.0
 40
5.0
 50
359.999989999999
 51
179.9999899999988
  0
ARC
  5
3009
  8
AM_0
 10
1064.2230011329941
 20
479.8469087627164
 30
0.0
 40
100.0
 50
0.0
 51
45.402042999998848
  0
ARC
  5
300A
  8
AM_0
 10
1066.734326132992
 20
480.14359876271618
 30
0.0
 40
93.0
 50
10.999999999998691
 51
43.554364000000241
  0
LINE
  5
300B
  8
AM_0
 10
1164.223021132992
 20
479.8469087627164
 30
0.0
 11
1164.223021132992
 21
466.00620876271643
 31
0.0
  0
ARC
  5
300C
  8
AM_0
 10
1138.223001132993
 20
522.31429376271649
 30
0.0
 40
10.0
 50
0.0
 51
30.536084999998732
  0
LINE
  5
300D
  8
AM_0
 10
317.40460464959051
 20
344.3357887627165
 30
0.0
 11
328.86404464959031
 21
344.3357887627165
 31
0.0
  0
LINE
  5
300E
  8
AM_0
 10
317.40460464959051
 20
423.28516376271619
 30
0.0
 11
328.86404464959031
 21
423.28516376271619
 31
0.0
  0
LINE
  5
300F
  8
AM_0
 10
296.55605264959019
 20
992.92813186376884
 30
0.0
 11
265.29458464959021
 21
995.66315586376902
 31
0.0
  0
LINE
  5
3010
  8
AM_0
 10
296.55605264959019
 20
858.1239738637687
 30
0.0
 11
265.29458464959021
 21
855.38894986376852
 31
0.0
  0
LINE
  5
3011
  8
AM_0
 10
262.55605264959007
 20
1024.526052863768
 30
0.0
 11
262.55605264959007
 21
826.52605286376865
 31
0.0
  0
LINE
  5
3012
  8
AM_0
 10
252.55605264959021
 20
825.52605286376865
 30
0.0
 11
252.55605264959021
 21
1025.5260528637671
 31
0.0
  0
LINE
  5
3013
  8
AM_0
 10
252.55605264959021
 20
825.52605286376865
 30
0.0
 11
261.5560526495903
 21
825.52605286376865
 31
0.0
  0
ARC
  5
3014
  8
AM_0
 10
261.5560526495903
 20
826.52605286376865
 30
0.0
 40
1.0
 50
270.0
 51
0.0
  0
ARC
  5
3015
  8
AM_0
 10
265.5560526495903
 20
852.4003658637688
 30
0.0
 40
3.0
 50
94.99999999999973
 51
180.0
  0
ARC
  5
3016
  8
AM_0
 10
265.5560526495903
 20
998.65173986376874
 30
0.0
 40
3.0
 50
180.0
 51
265.00000000000028
  0
LINE
  5
3017
  8
AM_0
 10
252.55605264959021
 20
1025.5260528637671
 30
0.0
 11
261.5560526495903
 21
1025.5260528637671
 31
0.0
  0
ARC
  5
3018
  8
AM_0
 10
261.5560526495903
 20
1024.526052863768
 30
0.0
 40
1.0
 50
0.0
 51
90.0
  0
LINE
  5
3019
  8
AM_0
 10
296.55605264959019
 20
863.68129786376903
 30
0.0
 11
296.55605264959019
 21
987.00246486376875
 31
0.0
  0
LINE
  5
301A
  8
AM_0
 10
315.5560526495903
 20
999.02605286376865
 30
0.0
 11
315.5560526495903
 21
852.02605286376865
 31
0.0
  0
LINE
  5
301B
  8
AM_0
 10
317.40461464959043
 20
885.981337863769
 30
0.0
 11
328.86405464959017
 21
885.981337863769
 31
0.0
  0
LINE
  5
301C
  8
AM_0
 10
317.40461464959043
 20
863.87605286376845
 30
0.0
 11
328.86405464959017
 21
863.87605286376845
 31
0.0
  0
LINE
  5
301D
  8
AM_0
 10
315.5560526495903
 20
852.02605286376865
 30
0.0
 11
330.5560526495903
 21
852.02605286376865
 31
0.0
  0
LINE
  5
301E
  8
AM_0
 10
313.73036364959017
 20
856.62141686376867
 30
0.0
 11
296.55605264959019
 21
858.1239738637687
 31
0.0
  0
ARC
  5
301F
  8
AM_0
 10
313.5560526495903
 20
854.62902686376879
 30
0.0
 40
2.0
 50
0.0
 51
85.000000000000256
  0
LINE
  5
3020
  8
AM_0
 10
317.40461464959043
 20
964.93071286376869
 30
0.0
 11
328.86405464959017
 21
964.93071286376869
 31
0.0
  0
LINE
  5
3021
  8
AM_0
 10
317.40461464959043
 20
987.17605286376875
 30
0.0
 11
328.86405464959017
 21
987.17605286376875
 31
0.0
  0
LINE
  5
3022
  8
AM_0
 10
315.5560526495903
 20
999.02605286376865
 30
0.0
 11
330.5560526495903
 21
999.02605286376865
 31
0.0
  0
LINE
  5
3023
  8
AM_0
 10
313.73036364959017
 20
994.43068986376875
 30
0.0
 11
296.55605264959019
 21
992.92813186376884
 31
0.0
  0
ARC
  5
3024
  8
AM_0
 10
313.5560526495903
 20
996.42307886376875
 30
0.0
 40
2.0
 50
274.99999999999972
 51
0.0
  0
LINE
  5
3025
  8
ﾁｭｳｼﾝｾﾝ
 10
1166.425516132995
 20
383.88050533351151
 30
0.0
 11
896.02054613299504
 21
383.88050533351151
 31
0.0
  0
TEXT
  5
3206
  8
AM_0
 10
863.43051146597145
 20
963.48686934293391
 30
0.0
 40
20.0
  1
VX15-240A~VX15-300A
  0
ENDSEC
  0
EOF
