  0
SECTION
  2
HEADER
  9
$ACADVER
  1
AC1009
  9
$INSBASE
 10
0.0
 20
0.0
 30
0.0
  9
$EXTMIN
 10
250.22247674784421
 20
219.5915246261184
 30
-0.0000000349181948
  9
$EXTMAX
 10
924.07367979475919
 20
802.23312579006097
 30
0.0000000814935747
  9
$LIMMIN
 10
0.0
 20
0.0
  9
$LIMMAX
 10
1422.5
 20
925.0
  9
$ORTHOMODE
 70
     0
  9
$REGENMODE
 70
     1
  9
$FILLMODE
 70
     1
  9
$QTEXTMODE
 70
     0
  9
$MIRRTEXT
 70
     1
  9
$DRAGMODE
 70
     2
  9
$LTSCALE
 40
5.0
  9
$OSMODE
 70
   551
  9
$ATTMODE
 70
     1
  9
$TEXTSIZE
 40
2.5
  9
$TRACEWID
 40
1.0
  9
$TEXTSTYLE
  7
STANDARD
  9
$CLAYER
  8
AM_0
  9
$CELTYPE
  6
BYLAYER
  9
$CECOLOR
 62
   256
  9
$DIMSCALE
 40
5.0
  9
$DIMASZ
 40
2.5
  9
$DIMEXO
 40
1.0
  9
$DIMDLI
 40
8.0
  9
$DIMRND
 40
0.0
  9
$DIMDLE
 40
0.0
  9
$DIMEXE
 40
0.6
  9
$DIMTP
 40
0.1
  9
$DIMTM
 40
0.1
  9
$DIMTXT
 40
2.5
  9
$DIMCEN
 40
0.0
  9
$DIMTSZ
 40
0.0
  9
$DIMTOL
 70
     0
  9
$DIMLIM
 70
     0
  9
$DIMTIH
 70
     0
  9
$DIMTOH
 70
     0
  9
$DIMSE1
 70
     0
  9
$DIMSE2
 70
     0
  9
$DIMTAD
 70
     1
  9
$DIMZIN
 70
     8
  9
$DIMBLK
  1

  9
$DIMASO
 70
     1
  9
$DIMSHO
 70
     1
  9
$DIMPOST
  1

  9
$DIMAPOST
  1
"
  9
$DIMALT
 70
     0
  9
$DIMALTD
 70
     2
  9
$DIMALTF
 40
0.0393701
  9
$DIMLFAC
 40
1.0
  9
$DIMTOFL
 70
     1
  9
$DIMTVP
 40
0.0
  9
$DIMTIX
 70
     0
  9
$DIMSOXD
 70
     0
  9
$DIMSAH
 70
     0
  9
$DIMBLK1
  1

  9
$DIMBLK2
  1

  9
$DIMSTYLE
  2
AM_ISO
  9
$DIMCLRD
 70
   256
  9
$DIMCLRE
 70
   256
  9
$DIMCLRT
 70
     4
  9
$DIMTFAC
 40
0.71
  9
$DIMGAP
 40
0.8
  9
$LUNITS
 70
     2
  9
$LUPREC
 70
     2
  9
$SKETCHINC
 40
1.0
  9
$FILLETRAD
 40
3.0
  9
$AUNITS
 70
     0
  9
$AUPREC
 70
     0
  9
$MENU
  1
.
  9
$ELEVATION
 40
0.0
  9
$PELEVATION
 40
0.0
  9
$THICKNESS
 40
0.0
  9
$LIMCHECK
 70
     0
  9
$BLIPMODE
 70
     0
  9
$CHAMFERA
 40
10.0
  9
$CHAMFERB
 40
5.0
  9
$SKPOLY
 70
     0
  9
$TDCREATE
 40
2452066.611134259
  9
$TDUPDATE
 40
2458541.4749032292
  9
$TDINDWG
 40
0.1156872222
  9
$TDUSRTIMER
 40
0.1156870255
  9
$USRTIMER
 70
     1
  9
$ANGBASE
 50
0.0
  9
$ANGDIR
 70
     0
  9
$PDMODE
 70
     0
  9
$PDSIZE
 40
0.0
  9
$PLINEWID
 40
0.0
  9
$COORDS
 70
     1
  9
$SPLFRAME
 70
     0
  9
$SPLINETYPE
 70
     6
  9
$SPLINESEGS
 70
     8
  9
$ATTDIA
 70
     1
  9
$ATTREQ
 70
     1
  9
$HANDLING
 70
     1
  9
$HANDSEED
  5
33B9
  9
$SURFTAB1
 70
     6
  9
$SURFTAB2
 70
     6
  9
$SURFTYPE
 70
     6
  9
$SURFU
 70
     6
  9
$SURFV
 70
     6
  9
$UCSNAME
  2

  9
$UCSORG
 10
0.0
 20
0.0
 30
0.0
  9
$UCSXDIR
 10
1.0
 20
0.0
 30
0.0
  9
$UCSYDIR
 10
0.0
 20
1.0
 30
0.0
  9
$PUCSNAME
  2

  9
$PUCSORG
 10
0.0
 20
0.0
 30
0.0
  9
$PUCSXDIR
 10
1.0
 20
0.0
 30
0.0
  9
$PUCSYDIR
 10
0.0
 20
1.0
 30
0.0
  9
$USERI1
 70
     0
  9
$USERI2
 70
     0
  9
$USERI3
 70
     0
  9
$USERI4
 70
     0
  9
$USERI5
 70
     0
  9
$USERR1
 40
0.0
  9
$USERR2
 40
0.0
  9
$USERR3
 40
0.0
  9
$USERR4
 40
0.0
  9
$USERR5
 40
0.0
  9
$WORLDVIEW
 70
     1
  9
$SHADEDGE
 70
     3
  9
$SHADEDIF
 70
    70
  9
$TILEMODE
 70
     1
  9
$MAXACTVP
 70
    64
  9
$PLIMCHECK
 70
     0
  9
$PEXTMIN
 10
1.0000000000000000E+020
 20
1.0000000000000000E+020
 30
1.0000000000000000E+020
  9
$PEXTMAX
 10
-1.0000000000000000E+020
 20
-1.0000000000000000E+020
 30
-1.0000000000000000E+020
  9
$PLIMMIN
 10
0.0
 20
0.0
  9
$PLIMMAX
 10
420.0
 20
297.0
  9
$UNITMODE
 70
     0
  9
$VISRETAIN
 70
     1
  9
$PLINEGEN
 70
     0
  9
$PSLTSCALE
 70
     1
  0
ENDSEC
  0
SECTION
  2
TABLES
  0
TABLE
  2
VPORT
 70
     1
  0
VPORT
  2
*ACTIVE
 70
     0
 10
0.0
 20
0.0
 11
1.0
 21
1.0
 12
587.14807827130176
 22
510.91232520808961
 13
0.0
 23
0.0
 14
12.5
 24
12.5
 15
50.0
 25
50.0
 16
0.0
 26
0.0
 36
1.0
 17
0.0
 27
0.0
 37
0.0
 40
586.64142908955318
 41
1.7571592210767459
 42
50.0
 43
0.0
 44
0.0
 50
0.0
 51
0.0
 71
     0
 72
   100
 73
     1
 74
     3
 75
     0
 76
     0
 77
     0
 78
     0
  0
ENDTAB
  0
TABLE
  2
LTYPE
 70
    27
  0
LTYPE
  2
CONTINUOUS
 70
     0
  3
Solid line
 72
    65
 73
     0
 40
0.0
  0
LTYPE
  2
AM_ISO02W050
 70
     0
  3
__ __ __ __ __ __ __ __ __ __ __ __ __ __ __
 72
    65
 73
     2
 40
7.5
 49
6.0
 49
-1.5
  0
LTYPE
  2
AM_ISO08W050
 70
     0
  3
____ . ____ . ____ . ____ . ____ . ____ . ____
 72
    65
 73
     4
 40
18.0
 49
12.0
 49
-1.5
 49
3.0
 49
-1.5
  0
LTYPE
  2
AM_ISO09W050
 70
     0
  3
_____ . . _____ . . _____ . . ____ .. ____
 72
    65
 73
     6
 40
22.5
 49
12.0
 49
-1.5
 49
3.0
 49
-1.5
 49
3.0
 49
-1.5
  0
LTYPE
  2
AMCONSTR
 70
     0
  3
_______________________
 72
    65
 73
     2
 40
9999.0
 49
9999.0
 49
0.0
  0
LTYPE
  2
AM_ISO08W050X2
 70
     0
  3
__ . __ . __ . __ . __ . __
 72
    65
 73
     4
 40
9.0
 49
6.0
 49
-0.75
 49
1.5
 49
-0.75
  0
LTYPE
  2
AM_ISO02W050X2
 70
     0
  3
 _ _ _ _ _ _ _ _ _ _ _ _
 72
    65
 73
     2
 40
3.75
 49
3.0
 49
-0.75
  0
LTYPE
  2
AMZIGZAG
 70
     0
  3
/\/-/\/-/\/-/\/-/\/-/\/
 72
    65
 73
     2
 40
11.000099999999991
 49
0.0001
 49
-11.0
  0
LTYPE
  2
ACISOWELD
 70
     0
  3
_ _ _ _ _
 72
    65
 73
     2
 40
2.0
 49
2.0
 49
-1.0
  0
LTYPE
  2
ACISOTGB
 70
     0
  3
__ . . __ . .
 72
    65
 73
     6
 40
9.0
 49
4.0
 49
-1.0
 49
1.0
 49
-1.0
 49
1.0
 49
-1.0
  0
LTYPE
  2
ACISOTGL
 70
     0
  3
_ _ _ _ _
 72
    65
 73
     2
 40
3.0
 49
2.0
 49
-1.0
  0
LTYPE
  2
CENTER
 70
     0
  3
__ . __
 72
    65
 73
     4
 40
7.0
 49
4.0
 49
-1.0
 49
1.0
 49
-1.0
  0
LTYPE
  2
PHANTOM2
 70
     0
  3
Phantom (.5x) ___ _ _ ___ _ _ ___ _ _ ___ _ _
 72
    65
 73
     6
 40
31.75
 49
15.875
 49
-3.174999999999998
 49
3.174999999999998
 49
-3.174999999999998
 49
3.174999999999998
 49
-3.174999999999998
  0
LTYPE
  2
ACANSTGBM
 70
     0
  3
__ . . __ . .
 72
    65
 73
     6
 40
9.0
 49
4.0
 49
-1.0
 49
1.0
 49
-1.0
 49
1.0
 49
-1.0
  0
LTYPE
  2
ACANSTGLM
 70
     0
  3
_ _ _ _ _
 72
    65
 73
     2
 40
3.0
 49
2.0
 49
-1.0
  0
LTYPE
  2
GEN7
 70
     0
  3
____ . ____ . ____ . ____ . ____ . ____ . ____
 72
    65
 73
     4
 40
14.25
 49
9.75
 49
-1.5
 49
1.5
 49
-1.5
  0
LTYPE
  2
GEN3B
 70
     0
  3
 - - - - -
 72
    65
 73
     2
 40
1.0
 49
0.5
 49
-0.5
  0
LTYPE
  2
GEN7A
 70
     0
  3
__ . __ . __
 72
    65
 73
     4
 40
7.375
 49
4.75
 49
-0.875
 49
0.875
 49
-0.875
  0
LTYPE
  2
ACJISTGB
 70
     0
  3
__ . . __ . .
 72
    65
 73
     6
 40
9.0
 49
4.0
 49
-1.0
 49
1.0
 49
-1.0
 49
1.0
 49
-1.0
  0
LTYPE
  2
ACJISTGL
 70
     0
  3
_ _ _ _ _
 72
    65
 73
     2
 40
3.0
 49
2.0
 49
-1.0
  0
LTYPE
  2
HIDDEN
 70
     0
  3
Hidden __ __ __ __ __ __ __ __ __ __ __ __ __ _
 72
    65
 73
     2
 40
0.375
 49
0.25
 49
-0.125
  0
LTYPE
  2
CENTER2
 70
     0
  3
Center (.5x) ___ _ ___ _ ___ _ ___ _ ___ _ ___
 72
    65
 73
     4
 40
1.125
 49
0.75
 49
-0.125
 49
0.125
 49
-0.125
  0
LTYPE
  2
HIDDEN2
 70
     0
  3
Hidden (.5x) _ _ _ _ _ _ _ _ _ _ _ _ _ _ _ _ _
 72
    65
 73
     2
 40
0.1875
 49
0.125
 49
-0.0625
  0
LTYPE
  2
AMZIGZAG2
 70
     0
  3
/\/-/\/-/\/-/\/-/\/-/\/
 72
    65
 73
     2
 40
0.4401
 49
0.0001
 49
-0.4400000000000002
  0
LTYPE
  2
ACANSTGB
 70
     0
  3
__ . . __ . .
 72
    65
 73
     6
 40
0.35433070866
 49
0.15748031496
 49
-0.03937007874
 49
0.03937007874
 49
-0.03937007874
 49
0.03937007874
 49
-0.03937007874
  0
LTYPE
  2
ACANSTGL
 70
     0
  3
_ _ _ _ _
 72
    65
 73
     2
 40
0.11811023622
 49
0.07874015748
 49
-0.03937007874
  0
ENDTAB
  0
TABLE
  2
LAYER
 70
     7
  0
LAYER
  2
0
 70
     0
 62
     7
  6
CONTINUOUS
  0
LAYER
  2
AM_0
 70
     0
 62
     7
  6
CONTINUOUS
  0
LAYER
  2
AM_5
 70
     0
 62
     2
  6
CONTINUOUS
  0
LAYER
  2
DEFPOINTS
 70
     0
 62
     7
  6
CONTINUOUS
  0
LAYER
  2
ｶｸﾚｾﾝ2
 70
     0
 62
     3
  6
GEN3B
  0
LAYER
  2
ﾁｭｳｼﾝｾﾝ
 70
     0
 62
     1
  6
GEN7
  0
LAYER
  2
ﾁｭｳｼﾝｾﾝ1
 70
     0
 62
     1
  6
GEN7A
  0
ENDTAB
  0
TABLE
  2
STYLE
 70
     9
  0
STYLE
  2
STANDARD
 70
     0
 40
0.0
 41
0.8299999999999999
 50
0.0
 71
     0
 42
2.5
  3
txt.shx
  4
bigfont.shx
  0
STYLE
  2
ANNOTATIVE
 70
     0
 40
0.0
 41
1.0
 50
0.0
 71
     0
 42
0.2
  3
txt
  4

  0
STYLE
  2

 70
     1
 40
0.0
 41
1.0
 50
0.0
 71
     0
 42
2.5
  3
ltypeshp.shx
  4

  0
STYLE
  2
ACISOTS
 70
     0
 40
1.0
 41
1.0
 50
0.0
 71
     0
 42
2.5
  3
isocp.shx
  4
extfont.shx
  0
STYLE
  2
ACISOGDT
 70
     0
 40
0.0
 41
1.0
 50
0.0
 71
     0
 42
2.5
  3
amgdt.shx
  4

  0
STYLE
  2
ACANSTS
 70
     0
 40
1.0
 41
1.0
 50
0.0
 71
     0
 42
2.5
  3
romans.shx
  4
bigfont.shx
  0
STYLE
  2
ACANSGDT
 70
     0
 40
0.0
 41
1.0
 50
0.0
 71
     0
 42
2.5
  3
amgdt.shx
  4

  0
STYLE
  2
ACJISTS
 70
     0
 40
1.0
 41
1.0
 50
0.0
 71
     0
 42
2.5
  3
isocp.shx
  4
bigfont.shx
  0
STYLE
  2
ACJISGDT
 70
     0
 40
0.0
 41
1.0
 50
0.0
 71
     0
 42
2.5
  3
amgdt.shx
  4

  0
ENDTAB
  0
TABLE
  2
VIEW
 70
     6
  0
VIEW
  2
AM_VIEW1
 70
     0
 40
462.5
 10
416.07965009208078
 20
693.75
 41
832.15930018416213
 11
0.0
 21
0.0
 31
1.0
 12
0.0
 22
0.0
 32
0.0
 42
50.0
 43
0.0
 44
0.0
 50
0.0
 71
     0
  0
VIEW
  2
AM_VIEW2
 70
     0
 40
462.5
 10
1006.420349907918
 20
693.75
 41
832.15930018416213
 11
0.0
 21
0.0
 31
1.0
 12
0.0
 22
0.0
 32
0.0
 42
50.0
 43
0.0
 44
0.0
 50
0.0
 71
     0
  0
VIEW
  2
AM_VIEW3
 70
     0
 40
462.5
 10
416.07965009208078
 20
231.25
 41
832.15930018416213
 11
0.0
 21
0.0
 31
1.0
 12
0.0
 22
0.0
 32
0.0
 42
50.0
 43
0.0
 44
0.0
 50
0.0
 71
     0
  0
VIEW
  2
AM_VIEW4
 70
     0
 40
462.5
 10
1006.420349907918
 20
231.25
 41
832.15930018416213
 11
0.0
 21
0.0
 31
1.0
 12
0.0
 22
0.0
 32
0.0
 42
50.0
 43
0.0
 44
0.0
 50
0.0
 71
     0
  0
VIEW
  2
AM_VIEW5
 70
     0
 40
462.5
 10
711.24999999999966
 20
462.5
 41
832.15930018416179
 11
0.0
 21
0.0
 31
1.0
 12
0.0
 22
0.0
 32
0.0
 42
50.0
 43
0.0
 44
0.0
 50
0.0
 71
     0
  0
VIEW
  2
AM_VIEW6
 70
     0
 40
924.99075000000005
 10
711.24999999999966
 20
462.5
 41
1664.3019571823199
 11
0.0
 21
0.0
 31
1.0
 12
0.0
 22
0.0
 32
0.0
 42
50.0
 43
0.0
 44
0.0
 50
0.0
 71
     0
  0
ENDTAB
  0
TABLE
  2
UCS
 70
     0
  0
ENDTAB
  0
TABLE
  2
APPID
 70
    95
  0
APPID
  2
ACAD
 70
     0
  0
APPID
  2
ACADANNOTATIVE
 70
     0
  0
APPID
  2
MCAD_NO_VIS
 70
     0
  0
APPID
  2
ACAD_TEMP_GRAPHIC
 70
     0
  0
APPID
  2
ACATTRIBSERVICES
 70
     0
  0
APPID
  2
GENIUS_GENREC_14
 70
     0
  0
APPID
  2
GENIUS_GENOBJ-N-REC_13
 70
     0
  0
APPID
  2
GENIUS_GENODEF_13
 70
     0
  0
APPID
  2
GENIUS_GENOLIS_13
 70
     0
  0
APPID
  2
GENIUS_GENOBJ-N-TIT_13
 70
     0
  0
APPID
  2
GENIUS_GENOENT_13
 70
     0
  0
APPID
  2
GENIUS_GENTITLE_13
 70
     0
  0
APPID
  2
GENIUS_GENOREF_13
 70
     0
  0
APPID
  2
GENIUS_GENSCREG_15
 70
     0
  0
APPID
  2
GENIUS_GENOBJ-N-SDF_13
 70
     0
  0
APPID
  2
GENIUS_GENFIL_13
 70
     0
  0
APPID
  2
GENIUS_GENOBJ-N-CHA_13
 70
     0
  0
APPID
  2
GENIUS_GENDTOL_13
 70
     0
  0
APPID
  2
GENIUS_GENOBJ-N-FIL_13
 70
     0
  0
APPID
  2
AD_DRAW
 70
     0
  0
APPID
  2
DESIGNERASSEMBLIES
 70
     0
  0
APPID
  2
ASURF_PCURVE_APPNAME
 70
     0
  0
APPID
  2
GENIUS_GE3SECT_13
 70
     0
  0
APPID
  2
GENIUS_GENCFG_13
 70
     0
  0
APPID
  2
GENIUS_GE3CFG0_13
 70
     0
  0
APPID
  2
GENIUS_GENCFG0_13
 70
     0
  0
APPID
  2
GENIUS_GENCFG1_13
 70
     0
  0
APPID
  2
GENIUS_GENCFG2_13
 70
     0
  0
APPID
  2
GENIUS_GENCFG3_13
 70
     0
  0
APPID
  2
GENIUS_GENCFG4_13
 70
     0
  0
APPID
  2
GENIUS_GEVCFG0_13
 70
     0
  0
APPID
  2
GENIUS_GENHINW_13
 70
     0
  0
APPID
  2
GENIUS_FIRSTVISTXT_14
 70
     0
  0
APPID
  2
GENIUS_GENOBJ-N-LEADER_13
 70
     0
  0
APPID
  2
GEV_VCCNULL_SWITCH_OFF
 70
     0
  0
APPID
  2
GENIUS_GEFCFG0_13
 70
     0
  0
APPID
  2
GENIUS_GENZVEED_13
 70
     0
  0
APPID
  2
GENIUS_GENSCREG_13
 70
     0
  0
APPID
  2
GENIUS_DUMCFG0_13
 70
     0
  0
APPID
  2
GEVID936201362
 70
     0
  0
APPID
  2
GEVDC
 70
     0
  0
APPID
  2
GEVCON
 70
     0
  0
APPID
  2
VCC
 70
     0
  0
APPID
  2
GEVPT
 70
     0
  0
APPID
  2
GEVIT
 70
     0
  0
APPID
  2
GENBH
 70
     0
  0
APPID
  2
GEVMK
 70
     0
  0
APPID
  2
GENIUS_GENBH_13
 70
     0
  0
APPID
  2
GENIUS_GENOBJ-NBEHI-BHF_13
 70
     0
  0
APPID
  2
GENIUS_GENOBJ-NBEHI-BHB_13
 70
     0
  0
APPID
  2
GENIUS_GENOBJ-F-DESC_13
 70
     0
  0
APPID
  2
GENIUS_GEFDESC_14
 70
     0
  0
APPID
  2
GENIUS_GENOBJ-F-PART_13
 70
     0
  0
APPID
  2
GENIUS_GEFSTDP_13
 70
     0
  0
APPID
  2
GENIUS_GEFPARTINS_13
 70
     0
  0
APPID
  2
GENIUS_GENTRA_14
 70
     0
  0
APPID
  2
GENIUS_GENINF13_13
 70
     0
  0
APPID
  2
GENIUS_GENOBJ-N-INFOPT_13
 70
     0
  0
APPID
  2
GENIUS_GENOBJ-N-RSSYM_13
 70
     0
  0
APPID
  2
GENIUS_GENSYMENT_13
 70
     0
  0
APPID
  2
GENIUS_GENSCSYM_13
 70
     0
  0
APPID
  2
GENIUS_GEFINFNAM_13
 70
     0
  0
APPID
  2
GENIUS_GENOBJ-N-CEN_13
 70
     0
  0
APPID
  2
GENIUS_GENOBJ-N-CRS_13
 70
     0
  0
APPID
  2
GENIUS_GENOBJ-N-CRC_13
 70
     0
  0
APPID
  2
GENIUS_GENCRC_14
 70
     0
  0
APPID
  2
GEVID942827039
 70
     0
  0
APPID
  2
GEVID942827040
 70
     0
  0
APPID
  2
GEVID942827041
 70
     0
  0
APPID
  2
GENIUS_GENOBJ-F-SCPASSM_13
 70
     0
  0
APPID
  2
GENIUS_GENDIMSH_14
 70
     0
  0
APPID
  2
GEVID942827042
 70
     0
  0
APPID
  2
GEVID946020473
 70
     0
  0
APPID
  2
GEVID946020474
 70
     0
  0
APPID
  2
GEVID946020475
 70
     0
  0
APPID
  2
GENIUS_GENOBJ-N-HTC_13
 70
     0
  0
APPID
  2
GENIUS_GENHATCH_13
 70
     0
  0
APPID
  2
GEVID948854295
 70
     0
  0
APPID
  2
GEVID939402019
 70
     0
  0
APPID
  2
GEVID952919491
 70
     0
  0
APPID
  2
GEVID952919492
 70
     0
  0
APPID
  2
GENIUS_GEFWELD_13
 70
     0
  0
APPID
  2
GENIUS_GENOBJ-F-WELS_13
 70
     0
  0
APPID
  2
GEVID952919493
 70
     0
  0
APPID
  2
GENIUS_GENOBJ-N-RSBK_13
 70
     0
  0
APPID
  2
GENIUS_GENOBJ-N-LIB_13
 70
     0
  0
APPID
  2
GENIUS_GENSCALE_13
 70
     0
  0
APPID
  2
GEVID986376691
 70
     0
  0
APPID
  2
DCO15
 70
     0
  0
APPID
  2
ACAD_DSTYLE_DIMBREAK
 70
     0
  0
APPID
  2
ACAD_DSTYLE_DIMJAG
 70
     0
  0
APPID
  2
ACAD_NAV_VCDISPLAY
 70
     0
  0
APPID
  2
ACADANNOPO
 70
     0
  0
APPID
  2
ACAD_EXEMPT_FROM_CAD_STANDARDS
 70
     0
  0
APPID
  2
ACAD_MLEADERVER
 70
     0
  0
ENDTAB
  0
TABLE
  2
DIMSTYLE
 70
    22
  0
DIMSTYLE
  2
STANDARD
 70
     0
  3

  4

  5

  6

  7

 40
1.0
 41
0.18
 42
0.0625
 43
0.38
 44
0.18
 45
0.0
 46
0.0
 47
0.0
 48
0.0
140
0.18
141
0.09
142
0.0
143
25.399999999999999
144
1.0
145
0.0
146
1.0
147
0.09
 71
     0
 72
     0
 73
     1
 74
     1
 75
     0
 76
     0
 77
     0
 78
     0
170
     0
171
     2
172
     0
173
     0
174
     0
175
     0
176
     0
177
     0
178
     0
  0
DIMSTYLE
  2
ANNOTATIVE
 70
     0
  3

  4

  5

  6

  7

 40
1.0
 41
0.18
 42
0.0625
 43
0.38
 44
0.18
 45
0.0
 46
0.0
 47
0.0
 48
0.0
140
0.18
141
0.09
142
0.0
143
25.399999999999999
144
1.0
145
0.0
146
1.0
147
0.09
 71
     0
 72
     0
 73
     1
 74
     1
 75
     0
 76
     0
 77
     0
 78
     0
170
     0
171
     2
172
     0
173
     0
174
     0
175
     0
176
     0
177
     0
178
     0
  0
DIMSTYLE
  2
AM_ISO
 70
     0
  3

  4
"
  5

  6

  7

 40
1.0
 41
2.5
 42
1.0
 43
8.0
 44
0.6
 45
0.0
 46
0.0
 47
0.1
 48
0.1
140
2.5
141
0.0
142
0.0
143
0.0393701
144
1.0
145
0.0
146
0.71
147
0.8
 71
     0
 72
     0
 73
     0
 74
     0
 75
     0
 76
     0
 77
     1
 78
     8
170
     0
171
     2
172
     1
173
     0
174
     0
175
     0
176
   256
177
   256
178
     4
  0
DIMSTYLE
  2
AM_ISO$3
 70
     0
  3

  4
"
  5

  6

  7

 40
1.0
 41
2.5
 42
1.0
 43
8.0
 44
0.6
 45
0.0
 46
0.0
 47
0.1
 48
0.1
140
2.5
141
0.0
142
0.0
143
0.0393701
144
1.0
145
0.0
146
0.71
147
0.8
 71
     0
 72
     0
 73
     0
 74
     1
 75
     0
 76
     0
 77
     1
 78
     8
170
     0
171
     2
172
     0
173
     0
174
     0
175
     0
176
   256
177
   256
178
     4
  0
DIMSTYLE
  2
AM_ISO$4
 70
     0
  3

  4
"
  5

  6

  7

 40
1.0
 41
2.5
 42
1.0
 43
8.0
 44
0.6
 45
0.0
 46
0.0
 47
0.1
 48
0.1
140
2.5
141
0.0
142
0.0
143
0.0393701
144
1.0
145
0.0
146
0.71
147
0.8
 71
     0
 72
     0
 73
     0
 74
     1
 75
     0
 76
     0
 77
     1
 78
     8
170
     0
171
     2
172
     0
173
     0
174
     0
175
     0
176
   256
177
   256
178
     4
  0
DIMSTYLE
  2
AM_ISO$6
 70
     0
  3

  4
"
  5

  6

  7

 40
1.0
 41
2.5
 42
1.0
 43
8.0
 44
0.6
 45
0.0
 46
0.0
 47
0.1
 48
0.1
140
2.5
141
0.0
142
0.0
143
0.0393701
144
1.0
145
0.0
146
0.71
147
0.8
 71
     0
 72
     0
 73
     0
 74
     0
 75
     0
 76
     0
 77
     0
 78
     8
170
     0
171
     2
172
     1
173
     0
174
     0
175
     0
176
   256
177
   256
178
     4
  0
DIMSTYLE
  2
AM_ISO$7
 70
     0
  3

  4
"
  5

  6

  7

 40
1.0
 41
2.5
 42
1.0
 43
8.0
 44
0.6
 45
0.0
 46
0.0
 47
0.1
 48
0.1
140
2.5
141
0.0
142
0.0
143
0.0393701
144
1.0
145
0.0
146
0.71
147
0.8
 71
     0
 72
     0
 73
     0
 74
     0
 75
     0
 76
     0
 77
     1
 78
     8
170
     0
171
     2
172
     1
173
     0
174
     0
175
     0
176
   256
177
   256
178
     4
  0
DIMSTYLE
  2
AM_ISO$SF
 70
     0
  3

  4
"
  5

  6

  7

 40
1.0
 41
2.5
 42
1.0
 43
10.0
 44
1.0
 45
0.0
 46
0.0
 47
0.1
 48
0.1
140
3.5
141
0.0
142
0.0
143
0.0393701
144
1.0
145
0.0
146
0.71
147
1.5
 71
     0
 72
     0
 73
     0
 74
     0
 75
     1
 76
     1
 77
     1
 78
     8
170
     0
171
     2
172
     1
173
     0
174
     0
175
     0
176
   256
177
   256
178
     2
  0
DIMSTYLE
  2
AM_ISO$SH
 70
     0
  3

  4
"
  5

  6

  7

 40
1.0
 41
2.5
 42
1.0
 43
10.0
 44
1.0
 45
0.0
 46
0.0
 47
0.1
 48
0.1
140
3.5
141
0.0
142
0.0
143
0.0393701
144
2.0
145
0.0
146
0.71
147
1.5
 71
     0
 72
     0
 73
     0
 74
     0
 75
     1
 76
     1
 77
     1
 78
     8
170
     0
171
     2
172
     1
173
     1
174
     0
175
     0
176
   256
177
   256
178
     2
  0
DIMSTYLE
  2
AM_JIS
 70
     0
  3

  4
"
  5

  6

  7

 40
1.0
 41
2.5
 42
1.0
 43
7.0
 44
1.0
 45
0.0
 46
0.0
 47
0.1
 48
0.1000000001
140
2.5
141
0.0
142
0.0
143
0.0393701
144
1.0
145
0.0
146
0.71
147
1.0
 71
     0
 72
     0
 73
     0
 74
     0
 75
     0
 76
     0
 77
     3
 78
     8
170
     0
171
     2
172
     1
173
     0
174
     0
175
     0
176
   256
177
   256
178
     4
  0
DIMSTYLE
  2
AM_JIS$3
 70
     0
  3

  4
"
  5

  6

  7

 40
1.0
 41
2.5
 42
1.0
 43
7.0
 44
1.0
 45
0.0
 46
0.0
 47
0.1
 48
0.1000000001
140
2.5
141
0.0
142
0.0
143
0.0393701
144
1.0
145
0.0
146
0.71
147
1.0
 71
     0
 72
     0
 73
     0
 74
     1
 75
     0
 76
     0
 77
     3
 78
     8
170
     0
171
     2
172
     0
173
     0
174
     0
175
     0
176
   256
177
   256
178
     4
  0
DIMSTYLE
  2
AM_JIS$4
 70
     0
  3

  4
"
  5

  6

  7

 40
1.0
 41
2.5
 42
1.0
 43
7.0
 44
1.0
 45
0.0
 46
0.0
 47
0.1
 48
0.1000000001
140
2.5
141
0.0
142
0.0
143
0.0393701
144
1.0
145
0.0
146
0.71
147
1.0
 71
     0
 72
     0
 73
     0
 74
     0
 75
     0
 76
     0
 77
     3
 78
     8
170
     0
171
     2
172
     0
173
     0
174
     0
175
     0
176
   256
177
   256
178
     4
  0
DIMSTYLE
  2
AM_JIS$6
 70
     0
  3

  4
"
  5

  6

  7

 40
1.0
 41
2.5
 42
1.0
 43
7.0
 44
1.0
 45
0.0
 46
0.0
 47
0.1
 48
0.1000000001
140
2.5
141
0.0
142
0.0
143
0.0393701
144
1.0
145
0.0
146
0.71
147
1.0
 71
     0
 72
     0
 73
     0
 74
     0
 75
     0
 76
     0
 77
     0
 78
     8
170
     0
171
     2
172
     1
173
     0
174
     0
175
     0
176
   256
177
   256
178
     4
  0
DIMSTYLE
  2
AM_JIS$7
 70
     0
  3

  4
"
  5

  6

  7

 40
1.0
 41
2.5
 42
1.0
 43
7.0
 44
1.0
 45
0.0
 46
0.0
 47
0.1
 48
0.1000000001
140
2.5
141
0.0
142
0.0
143
0.0393701
144
1.0
145
0.0
146
0.71
147
1.0
 71
     0
 72
     0
 73
     0
 74
     0
 75
     0
 76
     0
 77
     3
 78
     8
170
     0
171
     2
172
     1
173
     0
174
     0
175
     0
176
   256
177
   256
178
     4
  0
DIMSTYLE
  2
AM_JIS$SF
 70
     0
  3

  4
"
  5

  6

  7

 40
1.0
 41
2.5
 42
1.0
 43
10.0
 44
1.0
 45
0.0
 46
0.0
 47
0.1
 48
0.1
140
3.5
141
0.0
142
0.0
143
0.0393701
144
1.0
145
0.0
146
0.71
147
1.5
 71
     0
 72
     0
 73
     0
 74
     0
 75
     1
 76
     1
 77
     3
 78
     8
170
     0
171
     2
172
     1
173
     0
174
     0
175
     0
176
   256
177
   256
178
     4
  0
DIMSTYLE
  2
AM_JIS$SH
 70
     0
  3

  4
"
  5

  6

  7

 40
1.0
 41
2.5
 42
1.0
 43
10.0
 44
1.0
 45
0.0
 46
0.0
 47
0.1
 48
0.1
140
3.5
141
0.0
142
0.0
143
0.0393701
144
1.0
145
0.0
146
0.71
147
1.5
 71
     0
 72
     0
 73
     0
 74
     0
 75
     1
 76
     0
 77
     3
 78
     8
170
     0
171
     2
172
     1
173
     1
174
     0
175
     0
176
   256
177
   256
178
     4
  0
DIMSTYLE
  2
AM_ANSI
 70
     0
  3

  4
mm
  5

  6

  7

 40
1.0
 41
0.1
 42
0.05
 43
0.5
 44
0.1
 45
0.0
 46
0.0
 47
0.1
 48
0.1
140
0.12
141
0.0
142
0.0
143
25.399999999999999
144
1.0
145
0.0
146
0.71
147
0.06
 71
     0
 72
     0
 73
     1
 74
     1
 75
     0
 76
     0
 77
     0
 78
     7
170
     0
171
     2
172
     0
173
     0
174
     0
175
     0
176
   256
177
   256
178
     2
  0
DIMSTYLE
  2
AM_ANSI$3
 70
     0
  3

  4
mm
  5

  6

  7

 40
1.0
 41
0.1
 42
0.05
 43
0.5
 44
0.1
 45
0.0
 46
0.0
 47
0.1
 48
0.1
140
0.12
141
0.0
142
0.0
143
25.399999999999999
144
1.0
145
0.0
146
0.71
147
0.06
 71
     0
 72
     0
 73
     1
 74
     1
 75
     0
 76
     0
 77
     0
 78
     7
170
     0
171
     2
172
     0
173
     0
174
     0
175
     0
176
   256
177
   256
178
     2
  0
DIMSTYLE
  2
AM_ANSI$4
 70
     0
  3

  4
mm
  5

  6

  7

 40
1.0
 41
0.1
 42
0.05
 43
0.5
 44
0.1
 45
0.0
 46
0.0
 47
0.1
 48
0.1
140
0.12
141
0.0
142
0.0
143
25.399999999999999
144
1.0
145
0.0
146
0.71
147
0.06
 71
     0
 72
     0
 73
     1
 74
     1
 75
     0
 76
     0
 77
     0
 78
     7
170
     0
171
     2
172
     0
173
     0
174
     0
175
     0
176
   256
177
   256
178
     2
  0
DIMSTYLE
  2
AM_ANSI$7
 70
     0
  3

  4
mm
  5

  6

  7

 40
1.0
 41
0.1
 42
0.05
 43
0.5
 44
0.1
 45
0.0
 46
0.0
 47
0.1
 48
0.1
140
0.24
141
0.0
142
0.0
143
25.399999999999999
144
1.0
145
0.0
146
0.71
147
0.06
 71
     0
 72
     0
 73
     1
 74
     1
 75
     0
 76
     0
 77
     0
 78
     7
170
     0
171
     2
172
     0
173
     0
174
     0
175
     0
176
   256
177
   256
178
     2
  0
DIMSTYLE
  2
AM_ANSI$SF
 70
     0
  3

  4
mm
  5

  6

  7

 40
1.0
 41
0.1
 42
0.05
 43
0.5
 44
0.1
 45
0.0
 46
0.0
 47
0.1
 48
0.1
140
0.12
141
0.0
142
0.0
143
25.399999999999999
144
1.0
145
0.0
146
0.71
147
0.06
 71
     0
 72
     0
 73
     1
 74
     1
 75
     1
 76
     1
 77
     0
 78
     7
170
     0
171
     2
172
     0
173
     0
174
     0
175
     0
176
   256
177
   256
178
     2
  0
DIMSTYLE
  2
AM_ANSI$SH
 70
     0
  3

  4
mm
  5

  6

  7

 40
1.0
 41
0.1
 42
0.05
 43
0.5
 44
0.1
 45
0.0
 46
0.0
 47
0.1
 48
0.1
140
0.12
141
0.0
142
0.0
143
25.399999999999999
144
1.0
145
0.0
146
0.71
147
0.06
 71
     0
 72
     0
 73
     1
 74
     1
 75
     1
 76
     1
 77
     0
 78
     7
170
     0
171
     2
172
     0
173
     1
174
     0
175
     0
176
   256
177
   256
178
     2
  0
ENDTAB
  0
ENDSEC
  0
SECTION
  2
BLOCKS
  0
BLOCK
  8
0
  2
$MODEL_SPACE
 70
     0
 10
0.0
 20
0.0
 30
0.0
  3
$MODEL_SPACE
  1

  0
ENDBLK
  5
322B
  8
0
  0
BLOCK
 67
     1
  8
0
  2
$PAPER_SPACE
 70
     0
 10
0.0
 20
0.0
 30
0.0
  3
$PAPER_SPACE
  1

  0
ENDBLK
  5
3227
 67
     1
  8
0
  0
BLOCK
  8
0
  2
GENAXEH
 70
     0
 10
0.0
 20
0.0
 30
0.0
  3
GENAXEH
  1

  0
LINE
  5
2FD2
  8
0
 10
-1.0
 20
0.0
 30
0.0
 11
1.0
 21
0.0
 31
0.0
  0
ENDBLK
  5
2FD3
  8
0
  0
BLOCK
  8
0
  2
_OPEN30
 70
     0
 10
0.0
 20
0.0
 30
0.0
  3
_OPEN30
  1

  0
LINE
  5
2FD6
  8
0
 62
     0
 10
-1.0
 20
0.26794919
 30
0.0
 11
0.0
 21
0.0
 31
0.0
  0
LINE
  5
2FD7
  8
0
 62
     0
 10
0.0
 20
0.0
 30
0.0
 11
-1.0
 21
-0.26794919
 31
0.0
  0
LINE
  5
2FD8
  8
0
 62
     0
 10
0.0
 20
0.0
 30
0.0
 11
-1.0
 21
0.0
 31
0.0
  0
ENDBLK
  5
2FD9
  8
0
  0
BLOCK
  8
0
  2
_NONE
 70
     0
 10
0.0
 20
0.0
 30
0.0
  3
_NONE
  1

  0
ENDBLK
  5
2FDC
  8
0
  0
BLOCK
  8
0
  2
_ACMFILLEDHALF
 70
     0
 10
0.0
 20
0.0
 30
0.0
  3
_ACMFILLEDHALF
  1

  0
TRACE
  5
3323
  8
AM_0
 62
     0
 10
-0.8
 20
0.0
 30
0.0
 11
-1.0
 21
0.166666666
 31
0.0
 12
0.0
 22
0.0
 32
0.0
 13
0.0
 23
0.0
 33
0.0
  0
LINE
  5
3324
  8
AM_0
 62
     0
 10
-1.0
 20
0.0
 30
0.0
 11
-0.8
 21
0.0
 31
0.0
  0
ENDBLK
  5
3322
  8
0
  0
ENDSEC
  0
SECTION
  2
ENTITIES
  0
LINE
  5
2FDD
  8
ﾁｭｳｼﾝｾﾝ
 10
250.23439257338279
 20
677.2148442073302
 30
0.0
 11
555.43905803809025
 21
677.2148442073302
 31
0.0
  0
LINE
  5
2FDE
  8
AM_0
 10
499.05953803809052
 20
682.21484420733043
 30
0.0
 11
544.05953803809052
 21
682.21484420733043
 31
0.0
  0
LINE
  5
2FDF
  8
AM_0
 10
499.05953803809052
 20
672.21484420733043
 30
0.0
 11
544.05953803809052
 21
672.21484420733043
 31
0.0
  0
LINE
  5
2FE0
  8
AM_0
 10
544.05953803809052
 20
661.21484420733043
 30
0.0
 11
486.0595680380905
 21
661.21484420733043
 31
0.0
  0
LINE
  5
2FE1
  8
AM_0
 10
544.05953803809052
 20
693.21484420733032
 30
0.0
 11
486.0595680380905
 21
693.21484420733032
 31
0.0
  0
ARC
  5
2FE2
  8
AM_0
 10
370.20950803809052
 20
665.21484420733043
 30
0.0
 40
3.1499977000000001
 50
270.0
 51
90.00000299999769
  0
ARC
  5
2FE3
  8
AM_0
 10
343.90951803809048
 20
665.21484420733043
 30
0.0
 40
3.1499977000000001
 50
90.00000299999769
 51
270.0
  0
LINE
  5
2FE4
  8
AM_0
 10
339.05953803809052
 20
591.21484420732986
 30
0.0
 11
339.05953803809052
 21
763.21484420733032
 31
0.0
  0
LINE
  5
2FE5
  8
AM_0
 10
454.0595680380905
 20
608.00811420733044
 30
0.0
 11
454.0595680380905
 21
746.42156420733033
 31
0.0
  0
LINE
  5
2FE6
  8
AM_0
 10
486.0595680380905
 20
659.71484420733043
 30
0.0
 11
486.0595680380905
 21
694.71484420733032
 31
0.0
  0
LINE
  5
2FE7
  8
AM_0
 10
482.05953803809052
 20
649.94689420733039
 30
0.0
 11
482.05953803809052
 21
677.2148442073302
 31
0.0
  0
LINE
  5
2FE8
  8
AM_0
 10
475.0595680380905
 20
616.11147420733005
 30
0.0
 11
475.0595680380905
 21
738.31823420733031
 31
0.0
  0
LINE
  5
2FE9
  8
AM_0
 10
343.90951803809048
 20
662.0648142073303
 30
0.0
 11
370.20950803809052
 21
662.0648142073303
 31
0.0
  0
LINE
  5
2FEA
  8
AM_0
 10
369.05953803809052
 20
646.93841420733042
 30
0.0
 11
359.05953803809052
 21
646.93841420733042
 31
0.0
  0
LINE
  5
2FEB
  8
AM_0
 10
369.05953803809052
 20
599.79803420733026
 30
0.0
 11
359.05953803809052
 21
599.79803420733026
 31
0.0
  0
LINE
  5
2FEC
  8
AM_0
 10
369.05953803809052
 20
582.42465420733038
 30
0.0
 11
359.05953803809052
 21
582.42465420733038
 31
0.0
  0
LINE
  5
2FED
  8
AM_0
 10
361.95486803809052
 20
577.96295420733043
 30
0.0
 11
369.05947803809062
 21
577.71484420733043
 31
0.0
  0
LINE
  5
2FEE
  8
AM_0
 10
360.3210180380903
 20
569.52722420733005
 30
0.0
 11
368.7109680380903
 21
568.79318420733046
 31
0.0
  0
LINE
  5
2FEF
  8
AM_0
 10
324.71090803809051
 20
566.61977420733024
 30
0.0
 11
375.05953803809058
 21
562.21484420733032
 31
0.0
  0
LINE
  5
2FF0
  8
AM_0
 10
359.05953803809052
 20
580.96111420732996
 30
0.0
 11
359.05953803809052
 21
653.25659420733007
 31
0.0
  0
LINE
  5
2FF1
  8
ﾁｭｳｼﾝｾﾝ1
 10
325.55953803809052
 20
582.21484420733043
 30
0.0
 11
352.55953803809052
 21
582.21484420733043
 31
0.0
  0
LINE
  5
2FF2
  8
AM_0
 10
321.05953803809052
 20
585.25925667677325
 30
0.0
 11
321.05953803809052
 21
570.60455420733035
 31
0.0
  0
ARC
  5
2FF3
  8
AM_0
 10
325.05953803809058
 20
570.60455420733035
 30
0.0
 40
4.0
 50
179.9999899999988
 51
265.0
  0
LINE
  5
2FF4
  8
ﾁｭｳｼﾝｾﾝ1
 10
339.05953803809052
 20
595.71484420733043
 30
0.0
 11
339.05953803809052
 21
568.7148442073302
 31
0.0
  0
ARC
  5
2FF5
  8
AM_0
 10
360.05953803809052
 20
566.53863420733035
 30
0.0
 40
3.0
 50
85.000003999997659
 51
265.0
  0
ARC
  5
2FF6
  8
AM_0
 10
362.05953803809052
 20
580.96111420732996
 30
0.0
 40
3.0
 50
180.00001000000091
 51
267.99999999999631
  0
LINE
  5
2FF7
  8
AM_0
 10
339.05953803809052
 20
593.71487420733024
 30
0.0
 11
354.23403803809038
 21
593.18496420733004
 31
0.0
  0
ARC
  5
2FF8
  8
AM_0
 10
354.05953803809058
 20
588.18798420733037
 30
0.0
 40
5.0
 50
0.0
 51
87.999999999996248
  0
ARC
  5
2FF9
  8
AM_0
 10
357.05953803809052
 20
665.21484420733043
 30
0.0
 40
9.0
 50
200.4873
 51
265.21980000000372
  0
ARC
  5
2FFA
  8
AM_0
 10
357.05953803809052
 20
665.21484420733043
 30
0.0
 40
8.0
 50
203.18801999999641
 51
336.81196999999531
  0
ARC
  5
2FFB
  8
AM_0
 10
356.05953803809058
 20
653.25659420733007
 30
0.0
 40
3.0
 50
0.0
 51
85.219805999998442
  0
ARC
  5
2FFC
  8
AM_0
 10
442.05953803809052
 20
572.55941420733041
 30
0.0
 40
8.0
 50
180.00001000000091
 51
271.99999000000139
  0
ARC
  5
2FFD
  8
AM_0
 10
446.05953803809052
 20
588.00124420733027
 30
0.0
 40
12.0
 50
91.500001000001546
 51
180.00001000000091
  0
LINE
  5
2FFE
  8
AM_0
 10
375.05953803809058
 20
562.21481420733039
 30
0.0
 11
478.19915803809027
 21
565.81652420733008
 31
0.0
  0
POLYLINE
  5
2FFF
  8
AM_0
 66
     1
 10
0.0
 20
0.0
 30
0.0
  0
VERTEX
  5
3000
  8
AM_0
 10
369.05953803809052
 20
646.93841420733042
 30
0.0
 42
-0.07005559
  0
VERTEX
  5
3001
  8
AM_0
 10
395.42019803809052
 20
626.74107420733014
 30
0.0
 42
-0.27110578
  0
VERTEX
  5
3002
  8
AM_0
 10
404.05953803809058
 20
606.85772420733031
 30
0.0
 42
-0.21303172
  0
VERTEX
  5
3003
  8
AM_0
 10
384.46909803809052
 20
588.72291420733006
 30
0.0
  0
VERTEX
  5
3004
  8
AM_0
 10
369.05953803809052
 20
582.42465420733038
 30
0.0
 42
-1.0
  0
SEQEND
  5
3005
  8
AM_0
  0
LINE
  5
3006
  8
AM_0
 10
369.05953803809052
 20
577.71484420733043
 30
0.0
 11
369.05953803809052
 21
662.0648142073303
 31
0.0
  0
POLYLINE
  5
3007
  8
AM_0
 66
     1
 10
0.0
 20
0.0
 30
0.0
  0
VERTEX
  5
3008
  8
AM_0
 10
369.05953803809052
 20
599.79803420733026
 30
0.0
 42
0.040443759
  0
VERTEX
  5
3009
  8
AM_0
 10
380.58771803809049
 20
600.02140420733008
 30
0.0
 42
0.042469384
  0
VERTEX
  5
300A
  8
AM_0
 10
391.92140803809048
 20
602.13491420733044
 30
0.0
 42
0.022671411
  0
VERTEX
  5
300B
  8
AM_0
 10
397.40589803809058
 20
603.92585420733008
 30
0.0
  0
VERTEX
  5
300C
  8
AM_0
 10
402.7115180380905
 20
606.19469420733014
 30
0.0
 42
-1.0
  0
SEQEND
  5
300D
  8
AM_0
  0
ARC
  5
300E
  8
AM_0
 10
369.05953803809052
 20
572.77795420733025
 30
0.0
 40
4.0
 50
265.00001000000032
 51
0.0000006832429909
  0
LINE
  5
300F
  8
AM_0
 10
373.05953803809052
 20
577.71484420733043
 30
0.0
 11
373.05953803809052
 21
567.8463742073302
 31
0.0
  0
ARC
  5
3010
  8
AM_0
 10
368.05953803809052
 20
567.8463742073302
 30
0.0
 40
5.0
 50
265.00001000000032
 51
0.0000006832429909
  0
LINE
  5
3011
  8
AM_0
 10
369.05953803809052
 20
577.71484420733043
 30
0.0
 11
373.05953803809052
 21
577.71484420733043
 31
0.0
  0
ARC
  5
3012
  8
AM_0
 10
461.51177803809048
 20
603.85735420733045
 30
0.0
 40
8.0
 50
91.500001000001546
 51
164.96420000000299
  0
ARC
  5
3013
  8
AM_0
 10
478.0595680380905
 20
608.21484420733043
 30
0.0
 40
4.0
 50
0.0
 51
82.819247000003429
  0
CIRCLE
  5
3014
  8
AM_0
 10
464.05956803809022
 20
582.21484420733043
 30
0.0
 40
7.5
  0
LINE
  5
3015
  8
ﾁｭｳｼﾝｾﾝ1
 10
450.55956803809039
 20
582.21484420733043
 30
0.0
 11
477.5595680380905
 21
582.21484420733043
 31
0.0
  0
LINE
  5
3016
  8
AM_0
 10
434.0595380380903
 20
572.55941420733041
 30
0.0
 11
434.0595380380903
 21
588.00124420733027
 31
0.0
  0
LINE
  5
3017
  8
ﾁｭｳｼﾝｾﾝ1
 10
464.05956803809022
 20
595.71484420733043
 30
0.0
 11
464.05956803809022
 21
568.7148442073302
 31
0.0
  0
ARC
  5
3018
  8
AM_0
 10
446.0595680380905
 20
608.00811420733044
 30
0.0
 40
8.0
 50
271.49999999999608
 51
0.0
  0
LINE
  5
3019
  8
AM_0
 10
446.26897803809038
 20
600.01083420733028
 30
0.0
 11
445.74541803809052
 21
599.99712420733022
 31
0.0
  0
LINE
  5
301A
  8
AM_0
 10
482.0595680380905
 20
608.21484420733043
 30
0.0
 11
482.0595680380905
 21
569.81411420733025
 31
0.0
  0
ARC
  5
301B
  8
AM_0
 10
478.0595680380905
 20
569.81411420733025
 30
0.0
 40
4.0
 50
272.00000000000369
 51
0.0
  0
LINE
  5
301C
  8
AM_0
 10
471.16427803809057
 20
612.11282420733039
 30
0.0
 11
461.30239803809059
 21
611.85458420733028
 31
0.0
  0
ARC
  5
301D
  8
AM_0
 10
471.0595680380905
 20
616.11147420733005
 30
0.0
 40
4.0
 50
271.49999999999608
 51
0.0
  0
ARC
  5
301E
  8
AM_0
 10
479.0595680380905
 20
616.15209420733004
 30
0.0
 40
4.0
 50
180.00001000000091
 51
262.81924999999637
  0
LINE
  5
301F
  8
AM_0
 10
486.0595680380905
 20
659.71484420733043
 30
0.0
 11
482.05953803809052
 21
659.71484420733043
 31
0.0
  0
ARC
  5
3020
  8
AM_0
 10
478.0595680380905
 20
642.44134420733008
 30
0.0
 40
3.0
 50
120.0000000000005
 51
180.00001000000091
  0
ARC
  5
3021
  8
AM_0
 10
479.05953803809052
 20
649.94689420733039
 30
0.0
 40
3.0
 50
300.00001000000083
 51
0.0
  0
LINE
  5
3022
  8
AM_0
 10
476.55950803809048
 20
645.03942420733006
 30
0.0
 11
480.55950803809048
 21
647.34887420733025
 31
0.0
  0
LINE
  5
3023
  8
AM_0
 10
343.90951803809048
 20
668.36486420733036
 30
0.0
 11
370.20950803809052
 21
668.36486420733036
 31
0.0
  0
LINE
  5
3024
  8
ﾁｭｳｼﾝｾﾝ1
 10
339.67983803809022
 20
665.21484420733043
 30
0.0
 11
374.97811803809032
 21
665.21484420733043
 31
0.0
  0
LINE
  5
3025
  8
AM_0
 10
369.05953803809052
 20
772.00500420733033
 30
0.0
 11
359.05953803809052
 21
772.00500420733033
 31
0.0
  0
LINE
  5
3026
  8
AM_0
 10
361.9548080380905
 20
776.46673420733032
 30
0.0
 11
369.05947803809062
 21
776.71484420733032
 31
0.0
  0
LINE
  5
3027
  8
AM_0
 10
369.05953803809052
 20
754.63165420733026
 30
0.0
 11
359.05953803809052
 21
754.63165420733026
 31
0.0
  0
LINE
  5
3028
  8
AM_0
 10
369.05953803809052
 20
707.49127420733032
 30
0.0
 11
359.05953803809052
 21
707.49127420733032
 31
0.0
  0
LINE
  5
3029
  8
AM_0
 10
360.32107803809049
 20
784.90246420733035
 30
0.0
 11
368.7109680380903
 21
785.63647420733037
 31
0.0
  0
LINE
  5
302A
  8
AM_0
 10
324.71090803809051
 20
787.80987420733015
 30
0.0
 11
375.05959803809048
 21
792.21484420733032
 31
0.0
  0
LINE
  5
302B
  8
AM_0
 10
359.05953803809052
 20
677.17309420733045
 30
0.0
 11
359.05953803809052
 21
773.46856420733025
 31
0.0
  0
LINE
  5
302C
  8
ﾁｭｳｼﾝｾﾝ1
 10
339.05953803809052
 20
758.71484420733032
 30
0.0
 11
339.05953803809052
 21
785.71484420733032
 31
0.0
  0
ARC
  5
302D
  8
AM_0
 10
356.05953803809058
 20
691.70623420733034
 30
0.0
 40
3.0
 50
272.00000000000369
 51
0.0
  0
ARC
  5
302E
  8
AM_0
 10
347.60885803809037
 20
668.48351420733024
 30
0.0
 40
1.0
 50
353.18505000000079
 51
87.999999999996248
  0
ARC
  5
302F
  8
AM_0
 10
357.05953803809052
 20
665.21484420733043
 30
0.0
 40
9.0
 50
94.780191999998834
 51
159.51269999999971
  0
LINE
  5
3030
  8
AM_0
 10
341.05953803809052
 20
688.18060420733036
 30
0.0
 11
356.16421803809038
 21
688.70806420733027
 31
0.0
  0
LINE
  5
3031
  8
AM_0
 10
341.05947803809062
 20
684.71685420733024
 30
0.0
 11
356.16427803809052
 21
685.24432420733024
 31
0.0
  0
LINE
  5
3032
  8
AM_0
 10
341.05953803809052
 20
669.71282420733007
 30
0.0
 11
341.05953803809052
 21
688.18060420733036
 31
0.0
  0
LINE
  5
3033
  8
AM_0
 10
341.05953803809052
 20
669.71282420733007
 30
0.0
 11
347.64370803809038
 21
669.48290420733042
 31
0.0
  0
ARC
  5
3034
  8
AM_0
 10
357.05953803809052
 20
665.21484420733043
 30
0.0
 40
8.0
 50
23.18801899999854
 51
156.8119800000035
  0
ARC
  5
3035
  8
AM_0
 10
356.05953803809058
 20
677.17309420733045
 30
0.0
 40
3.0
 50
274.78019999999628
 51
0.0
  0
ARC
  5
3036
  8
AM_0
 10
356.05953803809058
 20
688.24249420733031
 30
0.0
 40
3.0
 50
272.00000000000369
 51
0.0
  0
LINE
  5
3037
  8
AM_0
 10
339.05947803809062
 20
760.71478420733035
 30
0.0
 11
354.23403803809038
 21
761.24468420733035
 31
0.0
  0
ARC
  5
3038
  8
AM_0
 10
354.05953803809058
 20
766.24169420733028
 30
0.0
 40
5.0
 50
272.00000000000369
 51
0.0
  0
LINE
  5
3039
  8
ﾁｭｳｼﾝｾﾝ1
 10
325.55953803809052
 20
772.21484420733032
 30
0.0
 11
352.55953803809052
 21
772.21484420733032
 31
0.0
  0
ARC
  5
303A
  8
AM_0
 10
325.05953803809058
 20
783.82513420732982
 30
0.0
 40
4.0
 50
95.00000199999856
 51
180.00001000000091
  0
LINE
  5
303B
  8
AM_0
 10
321.05953803809052
 20
769.17043173788727
 30
0.0
 11
321.05953803809052
 21
783.82513420732982
 31
0.0
  0
ARC
  5
303C
  8
AM_0
 10
360.05953803809052
 20
787.89105420733017
 30
0.0
 40
3.0
 50
95.00000199999856
 51
275.0
  0
ARC
  5
303D
  8
AM_0
 10
362.05953803809052
 20
773.46856420733025
 30
0.0
 40
3.0
 50
91.999998000000545
 51
180.00001000000091
  0
POLYLINE
  5
303E
  8
AM_0
 66
     1
 10
0.0
 20
0.0
 30
0.0
  0
VERTEX
  5
303F
  8
AM_0
 10
369.05953803809052
 20
707.49127420733032
 30
0.0
 42
0.070055609
  0
VERTEX
  5
3040
  8
AM_0
 10
395.42019803809052
 20
727.68861420733015
 30
0.0
 42
0.27110581
  0
VERTEX
  5
3041
  8
AM_0
 10
404.05953803809058
 20
747.57195420733035
 30
0.0
 42
0.21303143
  0
VERTEX
  5
3042
  8
AM_0
 10
384.46909803809052
 20
765.70679420733029
 30
0.0
  0
VERTEX
  5
3043
  8
AM_0
 10
369.05953803809052
 20
772.00506420733029
 30
0.0
 42
-1.0
  0
SEQEND
  5
3044
  8
AM_0
  0
CIRCLE
  5
3045
  8
AM_0
 10
464.05956803809022
 20
772.21484420733032
 30
0.0
 40
7.5
  0
LINE
  5
3046
  8
AM_0
 10
369.05953803809052
 20
668.36486420733036
 30
0.0
 11
369.05953803809052
 21
776.71484420733032
 31
0.0
  0
LINE
  5
3047
  8
AM_0
 10
434.0595380380903
 20
766.42846420733031
 30
0.0
 11
434.0595380380903
 21
781.87029420733018
 31
0.0
  0
LINE
  5
3048
  8
ﾁｭｳｼﾝｾﾝ1
 10
464.05956803809022
 20
758.71484420733032
 30
0.0
 11
464.05956803809022
 21
785.71484420733032
 31
0.0
  0
LINE
  5
3049
  8
AM_0
 10
482.0595680380905
 20
746.21484420733032
 30
0.0
 11
482.0595680380905
 21
784.61553420733026
 31
0.0
  0
ARC
  5
304A
  8
AM_0
 10
446.05953803809052
 20
766.42846420733031
 30
0.0
 40
12.0
 50
180.00001000000091
 51
268.50000000000381
  0
POLYLINE
  5
304B
  8
AM_0
 66
     1
 10
0.0
 20
0.0
 30
0.0
  0
VERTEX
  5
304C
  8
AM_0
 10
369.05953803809052
 20
754.63165420733026
 30
0.0
 42
-0.040443759
  0
VERTEX
  5
304D
  8
AM_0
 10
380.58771803809049
 20
754.40828420733033
 30
0.0
 42
-0.042469384
  0
VERTEX
  5
304E
  8
AM_0
 10
391.92140803809048
 20
752.29476420733033
 30
0.0
 42
-0.022671411
  0
VERTEX
  5
304F
  8
AM_0
 10
397.40589803809058
 20
750.50382420733035
 30
0.0
  0
VERTEX
  5
3050
  8
AM_0
 10
402.7115180380905
 20
748.23499420733026
 30
0.0
 42
-1.0
  0
SEQEND
  5
3051
  8
AM_0
  0
LINE
  5
3052
  8
AM_0
 10
482.05953803809052
 20
677.2148442073302
 30
0.0
 11
482.05953803809052
 21
704.48278420733027
 31
0.0
  0
ARC
  5
3053
  8
AM_0
 10
499.05953803809052
 20
677.2148442073302
 30
0.0
 40
4.9999924
 50
90.00000299999769
 51
270.0
  0
LINE
  5
3054
  8
AM_0
 10
499.0595680380905
 20
672.21484420733043
 30
0.0
 11
499.0595680380905
 21
682.21484420733043
 31
0.0
  0
LINE
  5
3055
  8
AM_0
 10
486.0595680380905
 20
694.71484420733032
 30
0.0
 11
482.05953803809052
 21
694.71484420733032
 31
0.0
  0
ARC
  5
3056
  8
AM_0
 10
478.0595680380905
 20
711.98834420733033
 30
0.0
 40
3.0
 50
179.9999899999988
 51
240.00000999999969
  0
ARC
  5
3057
  8
AM_0
 10
479.05953803809052
 20
704.48278420733027
 30
0.0
 40
3.0
 50
0.0
 51
60.000002000001302
  0
LINE
  5
3058
  8
AM_0
 10
476.55956803809022
 20
709.39025420733026
 30
0.0
 11
480.55953803809052
 21
707.08086420733025
 31
0.0
  0
LINE
  5
3059
  8
AM_0
 10
471.16424803809059
 20
742.31683420733032
 30
0.0
 11
461.30236803809021
 21
742.57507420733032
 31
0.0
  0
ARC
  5
305A
  8
AM_0
 10
461.51177803809048
 20
750.57232420733033
 30
0.0
 40
8.0
 50
195.0357999999969
 51
268.50000000000381
  0
ARC
  5
305B
  8
AM_0
 10
446.0595680380905
 20
746.42156420733033
 30
0.0
 40
8.0
 50
0.0
 51
88.499997000000647
  0
LINE
  5
305C
  8
AM_0
 10
446.26894803809029
 20
754.41882420733032
 30
0.0
 11
445.74541803809052
 21
754.43255420733033
 31
0.0
  0
ARC
  5
305D
  8
AM_0
 10
478.0595680380905
 20
746.21484420733032
 30
0.0
 40
4.0
 50
277.18075000000363
 51
0.0
  0
ARC
  5
305E
  8
AM_0
 10
471.0595680380905
 20
738.31823420733031
 30
0.0
 40
4.0
 50
0.0
 51
88.499997000000647
  0
ARC
  5
305F
  8
AM_0
 10
479.0595680380905
 20
738.27758420733028
 30
0.0
 40
4.0
 50
97.180758000000822
 51
180.00001000000091
  0
ARC
  5
3060
  8
AM_0
 10
442.05953803809052
 20
781.87029420733018
 30
0.0
 40
8.0
 50
87.999999999996248
 51
180.00001000000091
  0
LINE
  5
3061
  8
AM_0
 10
375.05953803809058
 20
792.21478420733035
 30
0.0
 11
478.19915803809027
 21
788.61309420732982
 31
0.0
  0
ARC
  5
3062
  8
AM_0
 10
369.05953803809052
 20
781.65173420733038
 30
0.0
 40
4.0
 50
0.0
 51
95.00000199999856
  0
LINE
  5
3063
  8
AM_0
 10
373.05953803809052
 20
776.71484420733032
 30
0.0
 11
373.05953803809052
 21
786.58331420733032
 31
0.0
  0
LINE
  5
3064
  8
AM_0
 10
369.05953803809052
 20
776.71484420733032
 30
0.0
 11
373.05953803809052
 21
776.71484420733032
 31
0.0
  0
ARC
  5
3065
  8
AM_0
 10
368.05953803809052
 20
786.58331420733032
 30
0.0
 40
5.0
 50
0.0
 51
95.00000199999856
  0
LINE
  5
3066
  8
ﾁｭｳｼﾝｾﾝ1
 10
450.55956803809039
 20
772.21484420733032
 30
0.0
 11
477.5595680380905
 21
772.21484420733032
 31
0.0
  0
ARC
  5
3067
  8
AM_0
 10
478.0595680380905
 20
784.61553420733026
 30
0.0
 40
4.0
 50
0.0
 51
87.999999999996248
  0
LINE
  5
3068
  8
AM_0
 10
544.05953803809052
 20
661.21484420733043
 30
0.0
 11
544.05953803809052
 21
693.21484420733032
 31
0.0
  0
ARC
  5
3069
  8
AM_0
 10
339.05953803809052
 20
772.21484420733032
 30
0.0
 40
7.5
 50
262.33774433923418
 51
212.84669370322061
  0
ARC
  5
306A
  8
AM_0
 10
339.05953803809052
 20
582.21484420733043
 30
0.0
 40
7.5
 50
147.15330629677811
 51
97.662255660765695
  0
LINE
  5
306C
  8
AM_0
 10
446.05955803809047
 20
232.61558797168561
 30
0.0
 11
482.05955803809047
 21
232.61558797168561
 31
0.0
  0
LINE
  5
306D
  8
ﾁｭｳｼﾝｾﾝ
 10
348.3575650827687
 20
372.6155769716857
 30
0.0
 11
546.83876803809051
 21
372.6155769716857
 31
0.0
  0
LINE
  5
306E
  8
AM_0
 10
449.05955803809047
 20
250.61558797168561
 30
0.0
 11
480.05951803809057
 21
250.61558797168561
 31
0.0
  0
ARC
  5
306F
  8
AM_0
 10
462.05951803809052
 20
428.61560197168558
 30
0.0
 40
8.0000000999999976
 50
179.9999899999988
 51
270.0
  0
LINE
  5
3070
  8
AM_0
 10
454.05953803809058
 20
273.07332097168552
 30
0.0
 11
454.05953803809058
 21
434.09654197168572
 31
0.0
  0
LINE
  5
3071
  8
AM_0
 10
434.05955803809047
 20
265.61560297168552
 30
0.0
 11
434.05955803809047
 21
404.05832197168559
 31
0.0
  0
LINE
  5
3072
  8
AM_0
 10
339.0595480380905
 20
430.61560497168563
 30
0.0
 11
339.0595480380905
 21
258.61560497168563
 31
0.0
  0
LINE
  5
3073
  8
AM_0
 10
259.5595480380905
 20
469.61560497168563
 30
0.0
 11
259.5595480380905
 21
219.61560497168571
 31
0.0
  0
LINE
  5
3074
  8
AM_0
 10
275.55954803809038
 20
468.61560497168551
 30
0.0
 11
275.55954803809038
 21
220.61560497168551
 31
0.0
  0
LINE
  5
3075
  8
AM_0
 10
359.05955803809047
 20
256.86560197168552
 30
0.0
 11
359.05955803809047
 21
441.83501197168567
 31
0.0
  0
LINE
  5
3076
  8
AM_0
 10
369.05954803809038
 20
288.11560297168558
 30
0.0
 11
369.05954803809038
 21
444.11561197168572
 31
0.0
  0
LINE
  5
3077
  8
ﾁｭｳｼﾝｾﾝ
 10
250.23439257338279
 20
344.61560497168568
 30
0.0
 11
379.0285673626326
 21
344.61560497168568
 31
0.0
  0
LINE
  5
3078
  8
AM_0
 10
323.05955803809047
 20
250.61558797168561
 30
0.0
 11
354.13973803809051
 21
250.61558797168561
 31
0.0
  0
LINE
  5
3079
  8
AM_0
 10
321.05954803809038
 20
232.61558797168561
 30
0.0
 11
357.0595480380905
 21
232.61558797168561
 31
0.0
  0
LINE
  5
307A
  8
AM_0
 10
341.05955803809047
 20
288.76265197168561
 30
0.0
 11
359.05955803809047
 21
288.76265197168561
 31
0.0
  0
LINE
  5
307B
  8
AM_0
 10
339.0595480380905
 20
261.11558797168561
 30
0.0
 11
353.91890803809048
 21
260.5966809716856
 31
0.0
  0
LINE
  5
307C
  8
AM_0
 10
341.05955803809047
 20
313.50516097168548
 30
0.0
 11
359.05955803809047
 21
313.50516097168548
 31
0.0
  0
LINE
  5
307D
  8
AM_0
 10
341.05955803809047
 20
301.75303897168561
 30
0.0
 11
359.05955803809047
 21
301.75303897168561
 31
0.0
  0
LINE
  5
307E
  8
AM_0
 10
338.05954803809038
 20
318.86869897168572
 30
0.0
 11
338.05954803809038
 21
284.69670497168562
 31
0.0
  0
LINE
  5
307F
  8
AM_0
 10
341.05955803809047
 20
313.50516097168548
 30
0.0
 11
341.05955803809047
 21
288.76265197168561
 31
0.0
  0
LINE
  5
3080
  8
AM_0
 10
339.0595480380905
 20
258.61560497168563
 30
0.0
 11
278.29808103809029
 21
253.29966497168559
 31
0.0
  0
LINE
  5
3081
  8
AM_0
 10
336.05954803809038
 20
282.69670497168562
 30
0.0
 11
275.55954803809038
 21
282.69670497168562
 31
0.0
  0
ARC
  5
3082
  8
AM_0
 10
278.5595480380905
 20
250.31108097168561
 30
0.0
 40
3.0
 50
94.99999999999973
 51
180.0
  0
LINE
  5
3083
  8
AM_0
 10
259.5595480380905
 20
219.61560497168571
 30
0.0
 11
274.5595480380905
 21
219.61560497168571
 31
0.0
  0
ARC
  5
3084
  8
AM_0
 10
274.5595480380905
 20
220.61560497168551
 30
0.0
 40
1.0
 50
270.0
 51
0.0
  0
LINE
  5
3085
  8
ﾁｭｳｼﾝｾﾝ1
 10
339.0595480380905
 20
229.28427097168569
 30
0.0
 11
339.0595480380905
 21
255.62747497168581
 31
0.0
  0
ARC
  5
3086
  8
AM_0
 10
323.05955803809047
 20
248.6155869716855
 30
0.0
 40
2.00000007
 50
90.00000299999769
 51
180.00001000000091
  0
LINE
  5
3087
  8
AM_0
 10
321.05954803809038
 20
232.61558797168561
 30
0.0
 11
321.05954803809038
 21
248.6155869716855
 31
0.0
  0
LINE
  5
3088
  8
ｶｸﾚｾﾝ2
 10
346.5595480380905
 20
250.61558797168561
 30
0.0
 11
346.5595480380905
 21
232.61558797168561
 31
0.0
  0
LINE
  5
3089
  8
ｶｸﾚｾﾝ2
 10
331.55954803809038
 20
250.61558797168561
 30
0.0
 11
331.55954803809038
 21
232.61558797168561
 31
0.0
  0
ARC
  5
308A
  8
AM_0
 10
336.05954803809038
 20
284.69670497168562
 30
0.0
 40
2.0
 50
270.0
 51
0.0
  0
LINE
  5
308B
  8
AM_0
 10
275.55954803809038
 20
318.86869897168572
 30
0.0
 11
335.36325003809043
 21
318.86869897168572
 31
0.0
  0
LINE
  5
308C
  8
AM_0
 10
275.55954803809038
 20
308.6774669716857
 30
0.0
 11
336.05954803809038
 21
308.6774669716857
 31
0.0
  0
ARC
  5
308D
  8
AM_0
 10
336.05954803809038
 20
310.6774669716857
 30
0.0
 40
2.0
 50
270.0
 51
0.0
  0
LINE
  5
308E
  8
AM_0
 10
357.94943803809048
 20
253.3964709716856
 30
0.0
 11
372.86924803809052
 21
300.02087797168571
 31
0.0
  0
LINE
  5
308F
  8
AM_0
 10
359.05955803809047
 20
234.6155859716855
 30
0.0
 11
444.05951803809029
 21
234.6155859716855
 31
0.0
  0
ARC
  5
3090
  8
AM_0
 10
359.05955803809047
 20
232.61558797168561
 30
0.0
 40
2.00000007
 50
90.00000299999769
 51
180.00001000000091
  0
ARC
  5
3091
  8
AM_0
 10
354.13973803809051
 20
254.61558697168559
 30
0.0
 40
4.000000199999997
 50
270.0
 51
342.25533000000132
  0
LINE
  5
3092
  8
AM_0
 10
357.0595480380905
 20
280.34425597168558
 30
0.0
 11
357.0595480380905
 21
265.34425597168558
 31
0.0
  0
LINE
  5
3093
  8
AM_0
 10
349.05953803809052
 20
279.3442569716857
 30
0.0
 11
349.05953803809052
 21
266.34426997168561
 31
0.0
  0
ARC
  5
3094
  8
AM_0
 10
353.74442803809052
 20
255.59973397168559
 30
0.0
 40
5.0000001000000003
 50
19.999999000000152
 51
88.000000000002899
  0
LINE
  5
3095
  8
AM_0
 10
357.0595480380905
 20
266.34426997168561
 30
0.0
 11
349.05953803809052
 21
266.34426997168561
 31
0.0
  0
LINE
  5
3096
  8
AM_0
 10
359.05955803809047
 20
264.19781797168559
 30
0.0
 11
361.40585803809051
 21
264.19781797168559
 31
0.0
  0
LINE
  5
3097
  8
AM_0
 10
358.44290803809059
 20
257.30983297168552
 30
0.0
 11
358.84670803809058
 21
256.20041197168558
 31
0.0
  0
LINE
  5
3098
  8
AM_0
 10
359.05955803809047
 20
265.34425597168558
 30
0.0
 11
357.0595480380905
 21
265.34425597168558
 31
0.0
  0
LINE
  5
3099
  8
AM_0
 10
359.05955803809047
 20
280.75622797168552
 30
0.0
 11
366.70457803809057
 21
280.75622797168552
 31
0.0
  0
LINE
  5
309A
  8
AM_0
 10
357.0595480380905
 20
279.3442569716857
 30
0.0
 11
349.05953803809052
 21
279.3442569716857
 31
0.0
  0
LINE
  5
309B
  8
AM_0
 10
359.05955803809047
 20
280.34425597168558
 30
0.0
 11
357.0595480380905
 21
280.34425597168558
 31
0.0
  0
ARC
  5
309C
  8
AM_0
 10
449.05955803809047
 20
265.61560297168552
 30
0.0
 40
15.00000029999998
 50
179.9999899999988
 51
270.0
  0
LINE
  5
309D
  8
ｶｸﾚｾﾝ2
 10
456.55955803809059
 20
250.61558797168561
 30
0.0
 11
456.55955803809059
 21
232.61558797168561
 31
0.0
  0
ARC
  5
309E
  8
AM_0
 10
444.05951803809029
 20
232.61558797168561
 30
0.0
 40
2.00000007
 50
0.0
 51
90.00000299999769
  0
LINE
  5
309F
  8
AM_0
 10
446.05955803809047
 20
232.61558797168561
 30
0.0
 11
446.05955803809047
 21
232.61558797168561
 31
0.0
  0
ARC
  5
30A0
  8
AM_0
 10
446.05955803809047
 20
273.07332097168552
 30
0.0
 40
8.0000000999999976
 50
270.0
 51
0.0
  0
LINE
  5
30A1
  8
AM_0
 10
439.13453803809028
 20
265.0733349716856
 30
0.0
 11
446.05955803809047
 21
265.0733349716856
 31
0.0
  0
LINE
  5
30A2
  8
AM_0
 10
373.05953803809052
 20
301.24000897168571
 30
0.0
 11
373.05953803809052
 21
359.26334197168569
 31
0.0
  0
ARC
  5
30A3
  8
AM_0
 10
369.05954803809038
 20
301.24000897168571
 30
0.0
 40
4.000000199999997
 50
342.25533000000132
 51
0.0
  0
LINE
  5
30A4
  8
AM_0
 10
369.05954803809038
 20
359.26334197168569
 30
0.0
 11
373.05953803809052
 21
359.26334197168569
 31
0.0
  0
ARC
  5
30A5
  8
AM_0
 10
357.0595480380905
 20
458.6155719716856
 30
0.0
 40
16.299997799999989
 50
304.109570000004
 51
235.8904200000035
  0
LINE
  5
30A6
  8
AM_0
 10
341.05955803809047
 20
428.18543197168572
 30
0.0
 11
354.23405803809038
 21
428.64548197168563
 31
0.0
  0
LINE
  5
30A7
  8
AM_0
 10
341.05955803809047
 20
443.61560197168569
 30
0.0
 11
349.06595803809029
 21
443.61560197168569
 31
0.0
  0
CIRCLE
  5
30A8
  8
AM_0
 10
357.0595480380905
 20
458.6155719716856
 30
0.0
 40
9.9999992999999971
  0
LINE
  5
30A9
  8
AM_0
 10
348.05954803809038
 20
441.61559197168572
 30
0.0
 11
359.05955803809047
 21
441.61559197168572
 31
0.0
  0
ARC
  5
30AA
  8
AM_0
 10
346.22855803809051
 20
442.64123197168561
 30
0.0
 40
3.0
 50
344.99999999999909
 51
55.86173700000024
  0
LINE
  5
30AB
  8
AM_0
 10
338.05954803809038
 20
430.61560497168563
 30
0.0
 11
338.05954803809038
 21
443.61560497168551
 31
0.0
  0
LINE
  5
30AC
  8
AM_0
 10
348.05954803809038
 20
429.39557197168563
 30
0.0
 11
348.05954803809038
 21
441.61559197168572
 31
0.0
  0
LINE
  5
30AD
  8
AM_0
 10
341.05955803809047
 20
428.18543197168572
 30
0.0
 11
341.05955803809047
 21
443.61560197168569
 31
0.0
  0
LINE
  5
30AE
  8
AM_0
 10
337.0595480380905
 20
430.5511619716857
 30
0.0
 11
275.55954803809038
 21
430.5511619716857
 31
0.0
  0
LINE
  5
30AF
  8
AM_0
 10
338.05954803809038
 20
430.61560497168563
 30
0.0
 11
339.0595480380905
 21
430.61560497168563
 31
0.0
  0
LINE
  5
30B0
  8
AM_0
 10
339.0595480380905
 20
428.11559197168572
 30
0.0
 11
341.05955803809047
 21
428.18543197168572
 31
0.0
  0
ARC
  5
30B1
  8
AM_0
 10
347.05955803809047
 20
429.39557197168563
 30
0.0
 40
1.0000000199999981
 50
271.99999999999687
 51
0.0
  0
LINE
  5
30B2
  8
AM_0
 10
338.05954803809038
 20
443.61560497168551
 30
0.0
 11
278.29808103809029
 21
448.84405597168558
 31
0.0
  0
LINE
  5
30B3
  8
AM_0
 10
259.5595480380905
 20
469.61560497168563
 30
0.0
 11
274.5595480380905
 21
469.61560497168563
 31
0.0
  0
ARC
  5
30B4
  8
AM_0
 10
278.5595480380905
 20
451.83263997168569
 30
0.0
 40
3.0
 50
180.0
 51
265.00000000000028
  0
ARC
  5
30B5
  8
AM_0
 10
274.5595480380905
 20
468.61560497168551
 30
0.0
 40
1.0
 50
0.0
 51
90.0
  0
POLYLINE
  5
30B6
  8
AM_0
 66
     1
 10
0.0
 20
0.0
 30
0.0
  0
VERTEX
  5
30B7
  8
AM_0
  6
CONTINUOUS
 10
396.82874803809051
 20
400.08791197168568
 30
0.0
 42
0.038759412
  0
VERTEX
  5
30B8
  8
AM_0
  6
CONTINUOUS
 10
399.57656803809039
 20
402.99878197168562
 30
0.0
 42
0.04530642
  0
VERTEX
  5
30B9
  8
AM_0
  6
CONTINUOUS
 10
401.79875803809028
 20
406.32650197168562
 30
0.0
 42
0.052171517
  0
VERTEX
  5
30BA
  8
AM_0
  6
CONTINUOUS
 10
403.33544803809048
 20
410.02430197168559
 30
0.0
 42
0.057266797
  0
VERTEX
  5
30BB
  8
AM_0
  6
CONTINUOUS
 10
404.02970803809058
 20
413.96306197168559
 30
0.0
 42
0.058402473
  0
VERTEX
  5
30BC
  8
AM_0
  6
CONTINUOUS
 10
403.79894803809049
 20
417.95126197168571
 30
0.0
 42
0.055045428
  0
VERTEX
  5
30BD
  8
AM_0
  6
CONTINUOUS
 10
402.67343803809052
 20
421.78643197168572
 30
0.0
 42
0.048778207
  0
VERTEX
  5
30BE
  8
AM_0
  6
CONTINUOUS
 10
400.78055803809019
 20
425.30693197168557
 30
0.0
 42
0.041944178
  0
VERTEX
  5
30BF
  8
AM_0
  6
CONTINUOUS
 10
398.28305803809047
 20
428.4299619716856
 30
0.0
 42
0.035908203
  0
VERTEX
  5
30C0
  8
AM_0
  6
CONTINUOUS
 10
395.33045803809051
 20
431.13074197168572
 30
0.0
 42
0.031063143
  0
VERTEX
  5
30C1
  8
AM_0
  6
CONTINUOUS
 10
392.04377803809052
 20
433.4147019716857
 30
0.0
 42
0.027381807
  0
VERTEX
  5
30C2
  8
AM_0
  6
CONTINUOUS
 10
388.51184803809059
 20
435.30182197168563
 30
0.0
 42
0.024647351
  0
VERTEX
  5
30C3
  8
AM_0
  6
CONTINUOUS
 10
384.80282803809052
 20
436.81295197168572
 30
0.0
 42
0.022677519
  0
VERTEX
  5
30C4
  8
AM_0
  6
CONTINUOUS
 10
380.96744803809048
 20
437.96762197168562
 30
0.0
 42
0.021321472
  0
VERTEX
  5
30C5
  8
AM_0
  6
CONTINUOUS
 10
377.04503803809052
 20
438.78143197168572
 30
0.0
 42
0.020471059
  0
VERTEX
  5
30C6
  8
AM_0
  6
CONTINUOUS
 10
373.06814803809038
 20
439.26551197168561
 30
0.0
 42
0.020088491
  0
VERTEX
  5
30C7
  8
AM_0
  6
CONTINUOUS
 10
369.05951803809052
 20
439.4264319716857
 30
0.0
  0
SEQEND
  5
30C8
  8
AM_0
  0
LINE
  5
30C9
  8
AM_0
 10
369.05954803809038
 20
374.80090897168571
 30
0.0
 11
396.82820803809028
 21
400.08737197168563
 31
0.0
  0
LINE
  5
30CA
  8
AM_0
 10
369.05960803809052
 20
374.80090897168571
 30
0.0
 11
369.06113803809052
 21
374.80090897168571
 31
0.0
  0
POLYLINE
  5
30CB
  8
AM_0
 66
     1
 10
0.0
 20
0.0
 30
0.0
  0
VERTEX
  5
30CC
  8
AM_0
  6
CONTINUOUS
 10
402.5162080380905
 20
417.25700197168561
 30
0.0
 42
0.046333928
  0
VERTEX
  5
30CD
  8
AM_0
  6
CONTINUOUS
 10
400.66439803809033
 20
418.3146219716856
 30
0.0
 42
0.024113287
  0
VERTEX
  5
30CE
  8
AM_0
  6
CONTINUOUS
 10
398.68490803809061
 20
419.11448197168562
 30
0.0
 42
0.015482173
  0
VERTEX
  5
30CF
  8
AM_0
  6
CONTINUOUS
 10
396.64796803809048
 20
419.7591519716857
 30
0.0
 42
0.01117072
  0
VERTEX
  5
30D0
  8
AM_0
  6
CONTINUOUS
 10
394.58024803809047
 20
420.29564197168571
 30
0.0
 42
0.0086851636
  0
VERTEX
  5
30D1
  8
AM_0
  6
CONTINUOUS
 10
392.49266803809059
 20
420.75032197168559
 30
0.0
 42
0.0071112813
  0
VERTEX
  5
30D2
  8
AM_0
  6
CONTINUOUS
 10
390.3909880380906
 20
421.13933197168558
 30
0.0
 42
0.0060487741
  0
VERTEX
  5
30D3
  8
AM_0
  6
CONTINUOUS
 10
388.27826803809057
 20
421.47335197168559
 30
0.0
 42
0.0052886701
  0
VERTEX
  5
30D4
  8
AM_0
  6
CONTINUOUS
 10
386.16089803809052
 20
421.7591919716856
 30
0.0
 42
0.0047450804
  0
VERTEX
  5
30D5
  8
AM_0
  6
CONTINUOUS
 10
384.03578803809052
 20
422.00288197168572
 30
0.0
 42
0.004337472
  0
VERTEX
  5
30D6
  8
AM_0
  6
CONTINUOUS
 10
381.90608803809062
 20
422.2080219716857
 30
0.0
 42
0.0040309329
  0
VERTEX
  5
30D7
  8
AM_0
  6
CONTINUOUS
 10
379.7732980380905
 20
422.37752197168561
 30
0.0
 42
0.0038017188
  0
VERTEX
  5
30D8
  8
AM_0
  6
CONTINUOUS
 10
377.63807803809033
 20
422.51363197168558
 30
0.0
 42
0.0036333127
  0
VERTEX
  5
30D9
  8
AM_0
  6
CONTINUOUS
 10
375.50099803809047
 20
422.61803197168553
 30
0.0
 42
0.0035147917
  0
VERTEX
  5
30DA
  8
AM_0
  6
CONTINUOUS
 10
373.36259803809031
 20
422.69189197168561
 30
0.0
 42
0.0034390753
  0
VERTEX
  5
30DB
  8
AM_0
  6
CONTINUOUS
 10
371.22335803809051
 20
422.73602197168572
 30
0.0
 42
0.0034021186
  0
VERTEX
  5
30DC
  8
AM_0
  6
CONTINUOUS
 10
369.08366803809048
 20
422.75090197168561
 30
0.0
  0
SEQEND
  5
30DD
  8
AM_0
  0
LINE
  5
30DE
  8
AM_0
 10
357.0595480380905
 20
408.88694197168559
 30
0.0
 11
357.0595480380905
 21
423.8869419716857
 31
0.0
  0
LINE
  5
30DF
  8
AM_0
 10
349.05953803809052
 20
409.88693197168561
 30
0.0
 11
349.05953803809052
 21
422.88695197168568
 31
0.0
  0
LINE
  5
30E0
  8
AM_0
 10
357.0595480380905
 20
409.88693197168561
 30
0.0
 11
349.05953803809052
 21
409.88693197168561
 31
0.0
  0
LINE
  5
30E1
  8
AM_0
 10
359.05955803809047
 20
408.88694197168559
 30
0.0
 11
357.0595480380905
 21
408.88694197168559
 31
0.0
  0
LINE
  5
30E2
  8
AM_0
 10
360.2393080380906
 20
422.75090197168561
 30
0.0
 11
369.05954803809038
 21
422.75090197168561
 31
0.0
  0
ARC
  5
30E3
  8
AM_0
 10
354.05954803809038
 20
433.64243197168531
 30
0.0
 40
5.0000001000000003
 50
271.99999999999687
 51
0.0
  0
LINE
  5
30E4
  8
AM_0
 10
357.0595480380905
 20
422.88695197168568
 30
0.0
 11
349.05953803809052
 21
422.88695197168568
 31
0.0
  0
LINE
  5
30E5
  8
AM_0
 10
359.05955803809047
 20
423.8869419716857
 30
0.0
 11
357.0595480380905
 21
423.8869419716857
 31
0.0
  0
LINE
  5
30E6
  8
AM_0
 10
442.05953803809052
 20
412.0583319716855
 30
0.0
 11
450.45902803809048
 21
412.0583319716855
 31
0.0
  0
ARC
  5
30E7
  8
AM_0
 10
442.05953803809052
 20
404.05832197168559
 30
0.0
 40
8.0000000999999976
 50
90.00000299999769
 51
180.00001000000091
  0
LINE
  5
30E8
  8
AM_0
 10
369.05960803809052
 20
444.11561197168572
 30
0.0
 11
446.26898803809058
 21
442.0937919716855
 31
0.0
  0
LINE
  5
30E9
  8
AM_0
 10
357.0595480380905
 20
448.61561197168572
 30
0.0
 11
363.12479803809049
 21
446.93342197168568
 31
0.0
  0
LINE
  5
30EA
  8
AM_0
 10
360.9897280380905
 20
443.83379197168563
 30
0.0
 11
369.05954803809038
 21
444.11558197168557
 31
0.0
  0
LINE
  5
30EB
  8
AM_0
 10
350.9333380380906
 20
446.77598197168572
 30
0.0
 11
357.0595480380905
 21
448.61561197168572
 31
0.0
  0
LINE
  5
30EC
  8
AM_0
 10
349.05953803809052
 20
441.61559197168572
 30
0.0
 11
350.2549780380906
 21
446.07701197168558
 31
0.0
  0
ARC
  5
30ED
  8
AM_0
 10
351.22091803809047
 20
445.8182019716856
 30
0.0
 40
1.0000000199999981
 50
106.7144199999974
 51
164.99999000000179
  0
ARC
  5
30EE
  8
AM_0
 10
361.05953803809052
 20
441.83501197168567
 30
0.0
 40
2.00000007
 50
109.0654000000021
 51
180.00001000000091
  0
ARC
  5
30EF
  8
AM_0
 10
361.05953803809052
 20
441.83501197168567
 30
0.0
 40
2.00000007
 50
91.999998000000545
 51
109.0654000000021
  0
ARC
  5
30F0
  8
AM_0
 10
367.89053803809048
 20
442.64123197168561
 30
0.0
 40
3.0
 50
124.1382599999986
 51
153.4747200000015
  0
ARC
  5
30F1
  8
AM_0
 10
362.85758803809051
 20
445.96979197168542
 30
0.0
 40
1.0000000199999981
 50
15.000000000000741
 51
74.498792999996866
  0
LINE
  5
30F2
  8
AM_0
 10
364.4329480380905
 20
443.95406197168569
 30
0.0
 11
363.8234680380906
 21
446.22857197168571
 31
0.0
  0
ARC
  5
30F3
  8
AM_0
 10
446.05955803809047
 20
434.09654197168572
 30
0.0
 40
8.0000000999999976
 50
0.0
 51
88.499997000000747
  0
ARC
  5
30F4
  8
AM_0
 10
779.70840845111832
 20
344.61560497168568
 30
0.0
 40
125.0
 50
96.961368579746704
 51
208.7846730255406
  0
ARC
  5
30F5
  8
AM_0
 10
779.70840845111832
 20
344.61560497168568
 30
0.0
 40
125.0
 50
331.21529369836122
 51
94.059941989384953
  0
LINE
  5
30F6
  8
AM_0
 10
475.05953803809058
 20
258.15498697168562
 30
0.0
 11
475.05953803809058
 21
416.61560197168558
 31
0.0
  0
LINE
  5
30F7
  8
AM_0
 10
482.05955803809047
 20
345.34766197168562
 30
0.0
 11
482.05955803809047
 21
372.6155769716857
 31
0.0
  0
LINE
  5
30F8
  8
AM_0
 10
486.05951803809029
 20
355.11560497168568
 30
0.0
 11
486.05951803809029
 21
390.11561197168572
 31
0.0
  0
LINE
  5
30F9
  8
AM_0
 10
544.05953803809052
 20
356.61560497168563
 30
0.0
 11
544.05953803809052
 21
391.61561197168572
 31
0.0
  0
CIRCLE
  5
30FA
  8
AM_0
 10
779.70840845111832
 20
372.6155769716857
 30
0.0
 40
29.000001000000001
  0
ARC
  5
30FB
  8
AM_0
 10
779.70840845111832
 20
344.61560497168568
 30
0.0
 40
99.500004000000004
 50
8.4654901000001566
 51
171.53449999999941
  0
ARC
  5
30FC
  8
AM_0
 10
779.70840845111832
 20
355.61560597168562
 30
0.0
 40
65.000000999999997
 50
0.0
 51
180.00001000000091
  0
ARC
  5
30FD
  8
AM_0
 10
779.70840845111832
 20
372.6155769716857
 30
0.0
 40
16.000000499999999
 50
108.2099599999986
 51
71.790051999998809
  0
LINE
  5
30FE
  8
AM_0
 10
702.70838945111825
 20
404.70929197168567
 30
0.0
 11
702.70838945111825
 21
306.35286397168562
 31
0.0
  0
LINE
  5
30FF
  8
AM_0
 10
856.70840045111834
 20
404.70929197168567
 30
0.0
 11
856.70840045111834
 21
306.35286397168562
 31
0.0
  0
LINE
  5
3100
  8
ﾁｭｳｼﾝｾﾝ
 10
779.70840845111832
 20
226.43959476298861
 30
0.0
 11
779.70840845111832
 21
453.42534016622039
 31
0.0
  0
LINE
  5
3101
  8
AM_0
 10
894.67571945111831
 20
248.05722097168561
 30
0.0
 11
878.12431745111815
 21
359.26334197168569
 31
0.0
  0
LINE
  5
3102
  8
AM_0
 10
848.7084024511181
 20
250.61558797168561
 30
0.0
 11
891.70840145111845
 21
250.61558797168561
 31
0.0
  0
LINE
  5
3103
  8
AM_0
 10
844.70840045111822
 20
232.61558797168561
 30
0.0
 11
894.70840445111844
 21
232.61558797168561
 31
0.0
  0
LINE
  5
3104
  8
AM_0
 10
710.70839045111825
 20
250.61558797168561
 30
0.0
 11
667.70840345111844
 21
250.61558797168561
 31
0.0
  0
LINE
  5
3105
  8
AM_0
 10
664.70840345111844
 20
232.61558797168561
 30
0.0
 11
714.70838945111825
 21
232.61558797168561
 31
0.0
  0
LINE
  5
3106
  8
AM_0
 10
664.74105845111842
 20
248.05723597168549
 30
0.0
 11
681.29244845111805
 21
359.26334197168569
 31
0.0
  0
ARC
  5
3107
  8
AM_0
 10
483.05951803809052
 20
258.15498697168562
 30
0.0
 40
8.0000000999999976
 50
179.9999899999988
 51
252.54238999999831
  0
LINE
  5
3108
  8
ﾁｭｳｼﾝｾﾝ1
 10
464.05955803809059
 20
229.28427097168569
 30
0.0
 11
464.05955803809059
 21
255.62747497168559
 31
0.0
  0
LINE
  5
3109
  8
AM_0
 10
482.05955803809047
 20
232.61558797168561
 30
0.0
 11
482.05955803809047
 21
248.6155869716855
 31
0.0
  0
LINE
  5
310A
  8
ｶｸﾚｾﾝ2
 10
471.55955803809047
 20
250.61558797168561
 30
0.0
 11
471.55955803809047
 21
232.61558797168561
 31
0.0
  0
ARC
  5
310B
  8
AM_0
 10
480.05951803809057
 20
248.6155869716855
 30
0.0
 40
2.00000007
 50
0.0
 51
90.00000299999769
  0
LINE
  5
310C
  8
AM_0
 10
544.05953803809052
 20
356.61560497168563
 30
0.0
 11
486.05951803809029
 21
356.61560497168563
 31
0.0
  0
ARC
  5
310D
  8
AM_0
 10
479.05955803809047
 20
345.34766197168562
 30
0.0
 40
3.0
 50
300.00000000000051
 51
0.0
  0
LINE
  5
310E
  8
AM_0
 10
476.55950803809031
 20
340.4401899716857
 30
0.0
 11
480.55952803809049
 21
342.74957797168571
 31
0.0
  0
ARC
  5
310F
  8
AM_0
 10
478.05953803809058
 20
337.84210597168561
 30
0.0
 40
3.0
 50
120.0000000000005
 51
180.00001000000091
  0
LINE
  5
3110
  8
AM_0
 10
486.05951803809029
 20
355.11560497168568
 30
0.0
 11
482.05955803809047
 21
355.11560497168568
 31
0.0
  0
LINE
  5
3111
  8
AM_0
 10
664.70840345111844
 20
247.61558797168561
 30
0.0
 11
664.70840345111844
 21
232.61558797168561
 31
0.0
  0
ARC
  5
3112
  8
AM_0
 10
667.70840345111844
 20
247.61558797168561
 30
0.0
 40
3.0
 50
90.00000299999769
 51
180.00001000000091
  0
ARC
  5
3113
  8
AM_0
 10
779.70840845111832
 20
344.61560497168568
 30
0.0
 40
125.0
 50
241.64238175934329
 51
298.35761824065651
  0
LINE
  5
3114
  8
AM_0
 10
716.70839045111836
 20
234.6155859716855
 30
0.0
 11
842.70840245111833
 21
234.6155859716855
 31
0.0
  0
ARC
  5
3115
  8
AM_0
 10
779.70840845111832
 20
306.35286397168562
 30
0.0
 40
77.000000999999983
 50
179.9999899999988
 51
212.41839000000161
  0
LINE
  5
3116
  8
AM_0
 10
714.70838945111825
 20
355.61560597168562
 30
0.0
 11
714.70838945111825
 21
265.61560297168552
 31
0.0
  0
LINE
  5
3117
  8
ﾁｭｳｼﾝｾﾝ1
 10
684.70840445111821
 20
255.6274749716855
 30
0.0
 11
684.70840445111821
 21
229.2842709716856
 31
0.0
  0
ARC
  5
3118
  8
AM_0
 10
699.70838945111836
 20
265.61560297168552
 30
0.0
 40
15.00000029999998
 50
270.0
 51
0.0
  0
LINE
  5
3119
  8
ｶｸﾚｾﾝ2
 10
677.20840445111799
 20
250.61558797168561
 30
0.0
 11
677.20840445111799
 21
232.61558797168561
 31
0.0
  0
LINE
  5
311A
  8
ｶｸﾚｾﾝ2
 10
692.20840445111833
 20
250.61558797168561
 30
0.0
 11
692.20840445111833
 21
232.61558797168561
 31
0.0
  0
LINE
  5
311B
  8
AM_0
 10
714.70838945111825
 20
246.6155709716856
 30
0.0
 11
714.70838945111825
 21
232.61558797168561
 31
0.0
  0
ARC
  5
311C
  8
AM_0
 10
716.70839045111836
 20
232.61558797168561
 30
0.0
 40
2.00000007
 50
90.00000299999769
 51
180.00001000000091
  0
ARC
  5
311D
  8
AM_0
 10
710.70839045111825
 20
246.6155709716856
 30
0.0
 40
4.000000199999997
 50
0.0
 51
90.00000299999769
  0
ARC
  5
311E
  8
AM_0
 10
779.70840845111832
 20
306.35286397168562
 30
0.0
 40
77.000000999999983
 50
327.5816000000014
 51
0.0
  0
LINE
  5
311F
  8
AM_0
 10
844.70840045111822
 20
355.61560597168562
 30
0.0
 11
844.70840045111822
 21
265.61560297168552
 31
0.0
  0
ARC
  5
3120
  8
AM_0
 10
859.70840045111834
 20
265.61560297168552
 30
0.0
 40
15.00000029999998
 50
179.9999899999988
 51
270.0
  0
LINE
  5
3121
  8
ﾁｭｳｼﾝｾﾝ1
 10
874.70840345111844
 20
255.62747497168559
 30
0.0
 11
874.70840345111844
 21
229.2842709716856
 31
0.0
  0
LINE
  5
3122
  8
AM_0
 10
844.70840045111822
 20
246.6155709716856
 30
0.0
 11
844.70840045111822
 21
232.61558797168561
 31
0.0
  0
ARC
  5
3123
  8
AM_0
 10
842.70840245111833
 20
232.61558797168561
 30
0.0
 40
2.00000007
 50
0.0
 51
90.00000299999769
  0
ARC
  5
3124
  8
AM_0
 10
848.7084024511181
 20
246.6155709716856
 30
0.0
 40
4.000000199999997
 50
90.00000299999769
 51
180.00001000000091
  0
LINE
  5
3125
  8
ｶｸﾚｾﾝ2
 10
867.20840345111833
 20
250.61558797168561
 30
0.0
 11
867.20840345111833
 21
232.61558797168561
 31
0.0
  0
LINE
  5
3126
  8
ｶｸﾚｾﾝ2
 10
882.20840345111833
 20
250.61558797168561
 30
0.0
 11
882.20840345111833
 21
232.61558797168561
 31
0.0
  0
LINE
  5
3127
  8
AM_0
 10
894.70840445111844
 20
247.61558797168561
 30
0.0
 11
894.70840445111844
 21
232.61558797168561
 31
0.0
  0
ARC
  5
3128
  8
AM_0
 10
891.70840145111845
 20
247.61558797168561
 30
0.0
 40
3.0
 50
0.0
 51
90.00000299999769
  0
LINE
  5
3129
  8
AM_0
 10
544.05953803809052
 20
391.61561197168572
 30
0.0
 11
499.05953803809058
 21
391.61561197168572
 31
0.0
  0
LINE
  5
312A
  8
AM_0
 10
544.05953803809052
 20
388.61561197168561
 30
0.0
 11
486.05951803809029
 21
388.61561197168561
 31
0.0
  0
LINE
  5
312B
  8
AM_0
 10
482.05955803809047
 20
372.6155769716857
 30
0.0
 11
482.05955803809047
 21
399.88355197168562
 31
0.0
  0
LINE
  5
312C
  8
AM_0
 10
486.05951803809029
 20
390.11561197168572
 30
0.0
 11
482.05955803809047
 21
390.11561197168572
 31
0.0
  0
LINE
  5
312D
  8
AM_0
 10
499.05953803809058
 20
388.61561197168561
 30
0.0
 11
499.05953803809058
 21
391.61561197168572
 31
0.0
  0
LINE
  5
312E
  8
AM_0
 10
476.55953803809052
 20
404.79101197168558
 30
0.0
 11
480.55955803809059
 21
402.48164197168569
 31
0.0
  0
ARC
  5
312F
  8
AM_0
 10
478.05953803809058
 20
407.38910197168559
 30
0.0
 40
3.0
 50
179.9999899999988
 51
240.00000999999969
  0
ARC
  5
3130
  8
AM_0
 10
479.05955803809047
 20
399.88355197168562
 30
0.0
 40
3.0
 50
0.0
 51
60.000002000001302
  0
ARC
  5
3131
  8
AM_0
 10
471.05951803809052
 20
416.61560197168558
 30
0.0
 40
4.000000199999997
 50
0.0
 51
90.00000299999769
  0
LINE
  5
3132
  8
AM_0
 10
462.05951803809052
 20
420.6156219716857
 30
0.0
 11
471.05951803809052
 21
420.6156219716857
 31
0.0
  0
LINE
  5
3133
  8
ﾁｭｳｼﾝｾﾝ
 10
708.73114326157872
 20
372.6155769716857
 30
0.0
 11
850.68567364065768
 21
372.6155769716857
 31
0.0
  0
CIRCLE
  5
3134
  8
AM_5
 10
779.70840845111832
 20
372.6155769716857
 30
0.0
 40
4.000000199999997
  0
CIRCLE
  5
3135
  8
AM_0
 10
779.70840845111832
 20
372.6155769716857
 30
0.0
 40
2.75000007
  0
LINE
  5
3136
  8
AM_0
 10
774.70839245111836
 20
391.61561197168572
 30
0.0
 11
784.70839145111825
 21
391.61561197168572
 31
0.0
  0
LINE
  5
3137
  8
AM_0
 10
774.70839245111836
 20
383.61560197168558
 30
0.0
 11
784.70839145111825
 21
383.61560197168558
 31
0.0
  0
LINE
  5
3138
  8
AM_0
 10
708.38642945111815
 20
426.32963197168561
 30
0.0
 11
749.52305645111835
 21
439.42649197168572
 31
0.0
  0
LINE
  5
3139
  8
AM_0
 10
697.99441445111836
 20
415.93754197168562
 30
0.0
 11
684.89758145111796
 21
374.80090897168571
 31
0.0
  0
ARC
  5
313A
  8
AM_0
 10
713.24034245111807
 20
411.08366197168561
 30
0.0
 40
16.000000499999999
 50
107.079459999999
 51
162.9205300000007
  0
ARC
  5
313B
  8
AM_0
 10
710.70839045111825
 20
404.70929197168567
 30
0.0
 40
8.0000000999999976
 50
138.9466500000008
 51
180.00001000000091
  0
LINE
  5
313C
  8
AM_0
 10
774.70839245111836
 20
383.61560197168558
 30
0.0
 11
774.70839245111836
 21
391.61561197168572
 31
0.0
  0
ARC
  5
313D
  8
AM_0
 10
767.70840545111832
 20
471.76556197168571
 30
0.0
 40
3.1500002999999981
 50
359.999989999999
 51
179.9999899999988
  0
LINE
  5
313E
  8
AM_0
 10
770.85839945111832
 20
471.76556197168571
 30
0.0
 11
770.85839945111832
 21
445.61561197168572
 31
0.0
  0
LINE
  5
313F
  8
AM_0
 10
764.55839645111814
 20
471.76556197168571
 30
0.0
 11
764.55839645111814
 21
445.61561197168572
 31
0.0
  0
LINE
  5
3140
  8
ﾁｭｳｼﾝｾﾝ1
 10
767.70840545111832
 20
440.49923197168562
 30
0.0
 11
767.70840545111832
 21
477.7682014785301
 31
0.0
  0
ARC
  5
3141
  8
AM_0
 10
761.86976945111815
 20
445.8182019716856
 30
0.0
 40
1.0000000199999981
 50
106.7144199999974
 51
164.99999000000179
  0
ARC
  5
3142
  8
AM_0
 10
762.55839845111825
 20
445.61561197168572
 30
0.0
 40
2.00000007
 50
270.0
 51
0.0
  0
LINE
  5
3143
  8
AM_0
 10
761.58215645111818
 20
446.77595197168569
 30
0.0
 11
764.55839645111814
 21
447.66968197168558
 31
0.0
  0
LINE
  5
3144
  8
AM_0
 10
759.84141845111833
 20
442.1120019716858
 30
0.0
 11
760.90384145111807
 21
446.07704197168562
 31
0.0
  0
LINE
  5
3145
  8
AM_0
 10
770.85839945111832
 20
447.66968197168558
 30
0.0
 11
773.83464245111816
 21
446.77595197168569
 31
0.0
  0
ARC
  5
3146
  8
AM_0
 10
772.85840045111831
 20
445.61561197168572
 30
0.0
 40
2.00000007
 50
179.9999899999988
 51
244.1626000000023
  0
ARC
  5
3147
  8
AM_0
 10
773.54704445111815
 20
445.8182019716856
 30
0.0
 40
1.0000000199999981
 50
15.000000000000741
 51
73.285573000002159
  0
LINE
  5
3148
  8
AM_0
 10
775.06753745111837
 20
444.00731197168551
 30
0.0
 11
774.51295745111815
 21
446.07704197168562
 31
0.0
  0
LINE
  5
3149
  8
AM_0
 10
851.22914645111837
 20
426.73154197168571
 30
0.0
 11
808.93132445111826
 21
439.7274519716853
 31
0.0
  0
LINE
  5
314A
  8
AM_0
 10
784.70839145111825
 20
383.61560197168558
 30
0.0
 11
784.70839145111825
 21
391.61561197168572
 31
0.0
  0
LINE
  5
314B
  8
AM_0
 10
861.82436945111817
 20
416.1363219716855
 30
0.0
 11
874.82029445111834
 21
373.83850597168572
 31
0.0
  0
ARC
  5
314C
  8
AM_0
 10
848.7084024511181
 20
404.70929197168567
 30
0.0
 40
8.0000000999999976
 50
0.0
 51
41.053350999999701
  0
ARC
  5
314D
  8
AM_0
 10
846.52999445111834
 20
411.43721197168571
 30
0.0
 40
16.000000499999999
 50
17.07946300000124
 51
72.920533999997687
  0
LINE
  5
314E
  8
AM_0
 10
275.55953803809041
 20
801.21484420733043
 30
0.0
 11
275.55953803809041
 21
553.21484420732997
 31
0.0
  0
LINE
  5
314F
  8
AM_0
 10
259.55953803809041
 20
802.21484420733032
 30
0.0
 11
259.55953803809041
 21
552.2148442073302
 31
0.0
  0
LINE
  5
3150
  8
AM_0
 10
338.05953803809052
 20
688.18060420733036
 30
0.0
 11
338.05953803809052
 21
666.2490842073297
 31
0.0
  0
LINE
  5
3151
  8
AM_0
 10
339.05953803809052
 20
591.21484420732986
 30
0.0
 11
278.29807078747717
 21
585.89890418540438
 31
0.0
  0
LINE
  5
3152
  8
AM_0
 10
338.05953803809052
 20
767.68312442329272
 30
0.0
 11
278.29807103809043
 21
772.91157542329256
 31
0.0
  0
ARC
  5
3153
  8
AM_0
 10
278.55953803809041
 20
775.90015942329273
 30
0.0
 40
3.0
 50
180.0
 51
265.00000000000028
  0
LINE
  5
3154
  8
AM_0
 10
338.05953803809052
 20
763.30233287839872
 30
0.0
 11
338.05953803809052
 21
767.68312442329272
 31
0.0
  0
LINE
  5
3155
  8
AM_0
 10
259.55953803809041
 20
802.21484420733032
 30
0.0
 11
274.55953803809041
 21
802.21484420733032
 31
0.0
  0
ARC
  5
3156
  8
AM_0
 10
274.55953803809041
 20
801.21484420733043
 30
0.0
 40
1.0
 50
0.0
 51
90.0
  0
LINE
  5
3157
  8
AM_0
 10
259.55953803809041
 20
552.2148442073302
 30
0.0
 11
274.55953803809041
 21
552.2148442073302
 31
0.0
  0
ARC
  5
3158
  8
AM_0
 10
274.55953803809041
 20
553.21484420732997
 30
0.0
 40
1.0
 50
270.0
 51
0.0
  0
ARC
  5
3159
  8
AM_0
 10
278.55953803809041
 20
582.91032009308628
 30
0.0
 40
3.0
 50
95.00000042887261
 51
180.0
1001
GENIUS_GENODEF_13
1002
{
1000
HIER
1070
     0
1002
}
1002
{
1000
MANEDIT
1070
     0
1002
}
1002
{
1000
NOSEL
1070
     0
1002
}
1002
{
1000
BEHIND
1070
     0
1002
}
1002
{
1000
OTHER
1070
     0
1002
}
1002
{
1000
REACTOR
1002
}
1001
GENIUS_GENOBJ-N-FIL_13
1002
{
1000
OWNER
1000
GEN
1002
}
  0
LINE
  5
315A
  8
AM_0
 10
339.05953803809052
 20
763.21484420733032
 30
0.0
 11
278.29807078747717
 21
768.53078422925569
 31
0.0
  0
ARC
  5
315B
  8
AM_0
 10
278.55953803809041
 20
771.51936832157412
 30
0.0
 40
3.0
 50
180.0
 51
264.9999995711272
1001
GENIUS_GENODEF_13
1002
{
1000
HIER
1070
     0
1002
}
1002
{
1000
MANEDIT
1070
     0
1002
}
1002
{
1000
NOSEL
1070
     0
1002
}
1002
{
1000
BEHIND
1070
     0
1002
}
1002
{
1000
OTHER
1070
     0
1002
}
1002
{
1000
REACTOR
1002
}
1001
GENIUS_GENOBJ-N-FIL_13
1002
{
1000
OWNER
1000
GEN
1002
}
  0
LINE
  5
315C
  8
AM_0
 10
338.0595380380912
 20
586.74656399136802
 30
0.0
 11
278.29807103809122
 21
581.51811299136762
 31
0.0
  0
LINE
  5
315D
  8
AM_0
 10
338.05953803809092
 20
591.12735553626203
 30
0.0
 11
338.0595380380912
 21
586.74656399136802
 31
0.0
  0
ARC
  5
315E
  8
AM_0
 10
278.55953803809109
 20
578.52952899136756
 30
0.0
 40
3.0
 50
95.000000000000156
 51
180.0000000000004
  0
LINE
  5
315F
  8
AM_0
 10
338.05953803809052
 20
684.71685420733024
 30
0.0
 11
275.55953803809041
 21
686.89940230056447
 31
0.0
  0
LINE
  5
3160
  8
AM_0
 10
338.05953803809052
 20
688.18060420733036
 30
0.0
 11
275.55953803809041
 21
690.36315230056437
 31
0.0
  0
LINE
  5
3161
  8
AM_0
 10
338.05953803809052
 20
666.2490842073297
 30
0.0
 11
275.55953803809041
 21
664.06653611409581
 31
0.0
  0
LINE
  5
3162
  8
AM_0
 10
338.05953803809052
 20
669.71283420732959
 30
0.0
 11
275.55953803809041
 21
667.5302861140957
 31
0.0
  0
LINE
  5
3163
  8
ﾁｭｳｼﾝｾﾝ
 10
677.89388945111796
 20
344.61560497168568
 30
0.0
 11
884.79799445111837
 21
344.61560497168568
 31
0.0
  0
TEXT
  5
3348
  8
AM_0
 10
644.03254109876559
 20
715.42811324108209
 30
0.0
 40
15.0
  1
VX22-003A~VX22-020A
  0
ENDSEC
  0
EOF
