  0
SECTION
  2
HEADER
  9
$ACADVER
  1
AC1009
  9
$INSBASE
 10
0.0
 20
0.0
 30
0.0
  9
$EXTMIN
 10
351.04511633054932
 20
309.75270512956672
 30
-0.0000000349181948
  9
$EXTMAX
 10
1068.633158722814
 20
1003.8358630885911
 30
0.0000000814935747
  9
$LIMMIN
 10
0.0
 20
0.0
  9
$LIMMAX
 10
1422.5
 20
925.0
  9
$ORTHOMODE
 70
     0
  9
$REGENMODE
 70
     1
  9
$FILLMODE
 70
     1
  9
$QTEXTMODE
 70
     0
  9
$MIRRTEXT
 70
     1
  9
$DRAGMODE
 70
     2
  9
$LTSCALE
 40
5.0
  9
$OSMODE
 70
   551
  9
$ATTMODE
 70
     1
  9
$TEXTSIZE
 40
2.5
  9
$TRACEWID
 40
1.0
  9
$TEXTSTYLE
  7
STANDARD
  9
$CLAYER
  8
AM_0
  9
$CELTYPE
  6
BYLAYER
  9
$CECOLOR
 62
   256
  9
$DIMSCALE
 40
1.0
  9
$DIMASZ
 40
2.5
  9
$DIMEXO
 40
1.0
  9
$DIMDLI
 40
8.0
  9
$DIMRND
 40
0.0
  9
$DIMDLE
 40
0.0
  9
$DIMEXE
 40
0.6
  9
$DIMTP
 40
0.1
  9
$DIMTM
 40
0.1
  9
$DIMTXT
 40
2.5
  9
$DIMCEN
 40
0.0
  9
$DIMTSZ
 40
0.0
  9
$DIMTOL
 70
     0
  9
$DIMLIM
 70
     0
  9
$DIMTIH
 70
     0
  9
$DIMTOH
 70
     0
  9
$DIMSE1
 70
     0
  9
$DIMSE2
 70
     0
  9
$DIMTAD
 70
     1
  9
$DIMZIN
 70
     8
  9
$DIMBLK
  1

  9
$DIMASO
 70
     1
  9
$DIMSHO
 70
     1
  9
$DIMPOST
  1

  9
$DIMAPOST
  1
"
  9
$DIMALT
 70
     0
  9
$DIMALTD
 70
     2
  9
$DIMALTF
 40
0.0393701
  9
$DIMLFAC
 40
1.0
  9
$DIMTOFL
 70
     1
  9
$DIMTVP
 40
0.0
  9
$DIMTIX
 70
     0
  9
$DIMSOXD
 70
     0
  9
$DIMSAH
 70
     0
  9
$DIMBLK1
  1

  9
$DIMBLK2
  1

  9
$DIMSTYLE
  2
AM_ISO
  9
$DIMCLRD
 70
   256
  9
$DIMCLRE
 70
   256
  9
$DIMCLRT
 70
     4
  9
$DIMTFAC
 40
0.71
  9
$DIMGAP
 40
0.8
  9
$LUNITS
 70
     2
  9
$LUPREC
 70
     2
  9
$SKETCHINC
 40
1.0
  9
$FILLETRAD
 40
4.0
  9
$AUNITS
 70
     0
  9
$AUPREC
 70
     0
  9
$MENU
  1
.
  9
$ELEVATION
 40
0.0
  9
$PELEVATION
 40
0.0
  9
$THICKNESS
 40
0.0
  9
$LIMCHECK
 70
     0
  9
$BLIPMODE
 70
     0
  9
$CHAMFERA
 40
10.0
  9
$CHAMFERB
 40
5.0
  9
$SKPOLY
 70
     0
  9
$TDCREATE
 40
2452066.6231886572
  9
$TDUPDATE
 40
2458541.4752888889
  9
$TDINDWG
 40
0.1312593287
  9
$TDUSRTIMER
 40
0.1312593056
  9
$USRTIMER
 70
     1
  9
$ANGBASE
 50
0.0
  9
$ANGDIR
 70
     0
  9
$PDMODE
 70
     0
  9
$PDSIZE
 40
0.0
  9
$PLINEWID
 40
0.0
  9
$COORDS
 70
     1
  9
$SPLFRAME
 70
     0
  9
$SPLINETYPE
 70
     6
  9
$SPLINESEGS
 70
     8
  9
$ATTDIA
 70
     1
  9
$ATTREQ
 70
     1
  9
$HANDLING
 70
     1
  9
$HANDSEED
  5
312F
  9
$SURFTAB1
 70
     6
  9
$SURFTAB2
 70
     6
  9
$SURFTYPE
 70
     6
  9
$SURFU
 70
     6
  9
$SURFV
 70
     6
  9
$UCSNAME
  2

  9
$UCSORG
 10
0.0
 20
0.0
 30
0.0
  9
$UCSXDIR
 10
1.0
 20
0.0
 30
0.0
  9
$UCSYDIR
 10
0.0
 20
1.0
 30
0.0
  9
$PUCSNAME
  2

  9
$PUCSORG
 10
0.0
 20
0.0
 30
0.0
  9
$PUCSXDIR
 10
1.0
 20
0.0
 30
0.0
  9
$PUCSYDIR
 10
0.0
 20
1.0
 30
0.0
  9
$USERI1
 70
     0
  9
$USERI2
 70
     0
  9
$USERI3
 70
     0
  9
$USERI4
 70
     0
  9
$USERI5
 70
     0
  9
$USERR1
 40
0.0
  9
$USERR2
 40
0.0
  9
$USERR3
 40
0.0
  9
$USERR4
 40
0.0
  9
$USERR5
 40
0.0
  9
$WORLDVIEW
 70
     1
  9
$SHADEDGE
 70
     3
  9
$SHADEDIF
 70
    70
  9
$TILEMODE
 70
     1
  9
$MAXACTVP
 70
    64
  9
$PLIMCHECK
 70
     0
  9
$PEXTMIN
 10
1.0000000000000000E+020
 20
1.0000000000000000E+020
 30
1.0000000000000000E+020
  9
$PEXTMAX
 10
-1.0000000000000000E+020
 20
-1.0000000000000000E+020
 30
-1.0000000000000000E+020
  9
$PLIMMIN
 10
0.0
 20
0.0
  9
$PLIMMAX
 10
420.0
 20
297.0
  9
$UNITMODE
 70
     0
  9
$VISRETAIN
 70
     1
  9
$PLINEGEN
 70
     0
  9
$PSLTSCALE
 70
     1
  0
ENDSEC
  0
SECTION
  2
TABLES
  0
TABLE
  2
VPORT
 70
     1
  0
VPORT
  2
*ACTIVE
 70
     0
 10
0.0
 20
0.0
 11
1.0
 21
1.0
 12
709.83913752668184
 22
656.79428410907917
 13
0.0
 23
0.0
 14
12.5
 24
12.5
 15
50.0
 25
50.0
 16
0.0
 26
0.0
 36
1.0
 17
0.0
 27
0.0
 37
0.0
 40
698.84803089695868
 41
1.7571592210767459
 42
50.0
 43
0.0
 44
0.0
 50
0.0
 51
0.0
 71
     0
 72
   100
 73
     1
 74
     3
 75
     0
 76
     0
 77
     0
 78
     0
  0
ENDTAB
  0
TABLE
  2
LTYPE
 70
    26
  0
LTYPE
  2
CONTINUOUS
 70
     0
  3
Solid line
 72
    65
 73
     0
 40
0.0
  0
LTYPE
  2
AM_ISO02W050
 70
     0
  3
__ __ __ __ __ __ __ __ __ __ __ __ __ __ __
 72
    65
 73
     2
 40
7.5
 49
6.0
 49
-1.5
  0
LTYPE
  2
AM_ISO08W050
 70
     0
  3
____ . ____ . ____ . ____ . ____ . ____ . ____
 72
    65
 73
     4
 40
18.0
 49
12.0
 49
-1.5
 49
3.0
 49
-1.5
  0
LTYPE
  2
AM_ISO09W050
 70
     0
  3
_____ . . _____ . . _____ . . ____ .. ____
 72
    65
 73
     6
 40
22.5
 49
12.0
 49
-1.5
 49
3.0
 49
-1.5
 49
3.0
 49
-1.5
  0
LTYPE
  2
AMCONSTR
 70
     0
  3
_______________________
 72
    65
 73
     2
 40
9999.0
 49
9999.0
 49
0.0
  0
LTYPE
  2
AM_ISO08W050X2
 70
     0
  3
__ . __ . __ . __ . __ . __
 72
    65
 73
     4
 40
9.0
 49
6.0
 49
-0.75
 49
1.5
 49
-0.75
  0
LTYPE
  2
AM_ISO02W050X2
 70
     0
  3
 _ _ _ _ _ _ _ _ _ _ _ _
 72
    65
 73
     2
 40
3.75
 49
3.0
 49
-0.75
  0
LTYPE
  2
AMZIGZAG
 70
     0
  3
/\/-/\/-/\/-/\/-/\/-/\/
 72
    65
 73
     2
 40
11.000099999999991
 49
0.0001
 49
-11.0
  0
LTYPE
  2
ACISOWELD
 70
     0
  3
_ _ _ _ _
 72
    65
 73
     2
 40
2.0
 49
2.0
 49
-1.0
  0
LTYPE
  2
ACISOTGB
 70
     0
  3
__ . . __ . .
 72
    65
 73
     6
 40
9.0
 49
4.0
 49
-1.0
 49
1.0
 49
-1.0
 49
1.0
 49
-1.0
  0
LTYPE
  2
ACISOTGL
 70
     0
  3
_ _ _ _ _
 72
    65
 73
     2
 40
3.0
 49
2.0
 49
-1.0
  0
LTYPE
  2
CENTER
 70
     0
  3
__ . __
 72
    65
 73
     4
 40
7.0
 49
4.0
 49
-1.0
 49
1.0
 49
-1.0
  0
LTYPE
  2
PHANTOM2
 70
     0
  3
Phantom (.5x) ___ _ _ ___ _ _ ___ _ _ ___ _ _
 72
    65
 73
     6
 40
31.75
 49
15.875
 49
-3.174999999999998
 49
3.174999999999998
 49
-3.174999999999998
 49
3.174999999999998
 49
-3.174999999999998
  0
LTYPE
  2
ACANSTGBM
 70
     0
  3
__ . . __ . .
 72
    65
 73
     6
 40
9.0
 49
4.0
 49
-1.0
 49
1.0
 49
-1.0
 49
1.0
 49
-1.0
  0
LTYPE
  2
ACANSTGLM
 70
     0
  3
_ _ _ _ _
 72
    65
 73
     2
 40
3.0
 49
2.0
 49
-1.0
  0
LTYPE
  2
GEN3B
 70
     0
  3
 - - - - -
 72
    65
 73
     2
 40
1.0
 49
0.5
 49
-0.5
  0
LTYPE
  2
GEN7A
 70
     0
  3
__ . __ . __
 72
    65
 73
     4
 40
7.375
 49
4.75
 49
-0.875
 49
0.875
 49
-0.875
  0
LTYPE
  2
ACJISTGB
 70
     0
  3
__ . . __ . .
 72
    65
 73
     6
 40
9.0
 49
4.0
 49
-1.0
 49
1.0
 49
-1.0
 49
1.0
 49
-1.0
  0
LTYPE
  2
ACJISTGL
 70
     0
  3
_ _ _ _ _
 72
    65
 73
     2
 40
3.0
 49
2.0
 49
-1.0
  0
LTYPE
  2
HIDDEN
 70
     0
  3
Hidden __ __ __ __ __ __ __ __ __ __ __ __ __ _
 72
    65
 73
     2
 40
0.375
 49
0.25
 49
-0.125
  0
LTYPE
  2
CENTER2
 70
     0
  3
Center (.5x) ___ _ ___ _ ___ _ ___ _ ___ _ ___
 72
    65
 73
     4
 40
1.125
 49
0.75
 49
-0.125
 49
0.125
 49
-0.125
  0
LTYPE
  2
HIDDEN2
 70
     0
  3
Hidden (.5x) _ _ _ _ _ _ _ _ _ _ _ _ _ _ _ _ _
 72
    65
 73
     2
 40
0.1875
 49
0.125
 49
-0.0625
  0
LTYPE
  2
AMZIGZAG2
 70
     0
  3
/\/-/\/-/\/-/\/-/\/-/\/
 72
    65
 73
     2
 40
0.4401
 49
0.0001
 49
-0.4400000000000002
  0
LTYPE
  2
ACANSTGB
 70
     0
  3
__ . . __ . .
 72
    65
 73
     6
 40
0.35433070866
 49
0.15748031496
 49
-0.03937007874
 49
0.03937007874
 49
-0.03937007874
 49
0.03937007874
 49
-0.03937007874
  0
LTYPE
  2
ACANSTGL
 70
     0
  3
_ _ _ _ _
 72
    65
 73
     2
 40
0.11811023622
 49
0.07874015748
 49
-0.03937007874
  0
ENDTAB
  0
TABLE
  2
LAYER
 70
     9
  0
LAYER
  2
0
 70
     0
 62
     7
  6
CONTINUOUS
  0
LAYER
  2
AM_0
 70
     0
 62
     7
  6
CONTINUOUS
  0
LAYER
  2
AM_5
 70
     0
 62
     2
  6
CONTINUOUS
  0
LAYER
  2
DEFPOINTS
 70
     0
 62
     7
  6
CONTINUOUS
  0
LAYER
  2
ｶｸﾚｾﾝ2
 70
     0
 62
     3
  6
GEN3B
  0
LAYER
  2
ﾁｭｳｼﾝｾﾝ1
 70
     0
 62
     1
  6
GEN7A
  0
LAYER
  2
GEV_FROZEN
 70
     1
 62
     7
  6
CONTINUOUS
  0
LAYER
  2
BHII
 70
     0
 62
     7
  6
CONTINUOUS
  0
LAYER
  2
CENN
 70
     0
 62
     7
  6
CONTINUOUS
  0
ENDTAB
  0
TABLE
  2
STYLE
 70
     9
  0
STYLE
  2
STANDARD
 70
     0
 40
0.0
 41
0.8299999999999999
 50
0.0
 71
     0
 42
2.5
  3
txt.shx
  4
bigfont.shx
  0
STYLE
  2
ANNOTATIVE
 70
     0
 40
0.0
 41
1.0
 50
0.0
 71
     0
 42
0.2
  3
txt
  4

  0
STYLE
  2

 70
     1
 40
0.0
 41
1.0
 50
0.0
 71
     0
 42
2.5
  3
ltypeshp.shx
  4

  0
STYLE
  2
ACISOTS
 70
     0
 40
1.0
 41
1.0
 50
0.0
 71
     0
 42
2.5
  3
isocp.shx
  4
extfont.shx
  0
STYLE
  2
ACISOGDT
 70
     0
 40
0.0
 41
1.0
 50
0.0
 71
     0
 42
2.5
  3
amgdt.shx
  4

  0
STYLE
  2
ACANSTS
 70
     0
 40
1.0
 41
1.0
 50
0.0
 71
     0
 42
2.5
  3
romans.shx
  4
bigfont.shx
  0
STYLE
  2
ACANSGDT
 70
     0
 40
0.0
 41
1.0
 50
0.0
 71
     0
 42
2.5
  3
amgdt.shx
  4

  0
STYLE
  2
ACJISTS
 70
     0
 40
1.0
 41
1.0
 50
0.0
 71
     0
 42
2.5
  3
isocp.shx
  4
bigfont.shx
  0
STYLE
  2
ACJISGDT
 70
     0
 40
0.0
 41
1.0
 50
0.0
 71
     0
 42
2.5
  3
amgdt.shx
  4

  0
ENDTAB
  0
TABLE
  2
VIEW
 70
     6
  0
VIEW
  2
AM_VIEW1
 70
     0
 40
462.5
 10
416.07965009208078
 20
693.75
 41
832.15930018416213
 11
0.0
 21
0.0
 31
1.0
 12
0.0
 22
0.0
 32
0.0
 42
50.0
 43
0.0
 44
0.0
 50
0.0
 71
     0
  0
VIEW
  2
AM_VIEW2
 70
     0
 40
462.5
 10
1006.420349907918
 20
693.75
 41
832.15930018416213
 11
0.0
 21
0.0
 31
1.0
 12
0.0
 22
0.0
 32
0.0
 42
50.0
 43
0.0
 44
0.0
 50
0.0
 71
     0
  0
VIEW
  2
AM_VIEW3
 70
     0
 40
462.5
 10
416.07965009208078
 20
231.25
 41
832.15930018416213
 11
0.0
 21
0.0
 31
1.0
 12
0.0
 22
0.0
 32
0.0
 42
50.0
 43
0.0
 44
0.0
 50
0.0
 71
     0
  0
VIEW
  2
AM_VIEW4
 70
     0
 40
462.5
 10
1006.420349907918
 20
231.25
 41
832.15930018416213
 11
0.0
 21
0.0
 31
1.0
 12
0.0
 22
0.0
 32
0.0
 42
50.0
 43
0.0
 44
0.0
 50
0.0
 71
     0
  0
VIEW
  2
AM_VIEW5
 70
     0
 40
462.5
 10
711.24999999999966
 20
462.5
 41
832.15930018416179
 11
0.0
 21
0.0
 31
1.0
 12
0.0
 22
0.0
 32
0.0
 42
50.0
 43
0.0
 44
0.0
 50
0.0
 71
     0
  0
VIEW
  2
AM_VIEW6
 70
     0
 40
924.99075000000005
 10
711.24999999999966
 20
462.5
 41
1664.3019571823199
 11
0.0
 21
0.0
 31
1.0
 12
0.0
 22
0.0
 32
0.0
 42
50.0
 43
0.0
 44
0.0
 50
0.0
 71
     0
  0
ENDTAB
  0
TABLE
  2
UCS
 70
     0
  0
ENDTAB
  0
TABLE
  2
APPID
 70
    95
  0
APPID
  2
ACAD
 70
     0
  0
APPID
  2
ACADANNOTATIVE
 70
     0
  0
APPID
  2
MCAD_NO_VIS
 70
     0
  0
APPID
  2
ACAD_TEMP_GRAPHIC
 70
     0
  0
APPID
  2
ACATTRIBSERVICES
 70
     0
  0
APPID
  2
GENIUS_GENREC_14
 70
     0
  0
APPID
  2
GENIUS_GENOBJ-N-REC_13
 70
     0
  0
APPID
  2
GENIUS_GENODEF_13
 70
     0
  0
APPID
  2
GENIUS_GENOLIS_13
 70
     0
  0
APPID
  2
GENIUS_GENOBJ-N-TIT_13
 70
     0
  0
APPID
  2
GENIUS_GENOENT_13
 70
     0
  0
APPID
  2
GENIUS_GENTITLE_13
 70
     0
  0
APPID
  2
GENIUS_GENOREF_13
 70
     0
  0
APPID
  2
GENIUS_GENSCREG_15
 70
     0
  0
APPID
  2
GENIUS_GENOBJ-N-SDF_13
 70
     0
  0
APPID
  2
GENIUS_GENFIL_13
 70
     0
  0
APPID
  2
GENIUS_GENOBJ-N-CHA_13
 70
     0
  0
APPID
  2
GENIUS_GENDTOL_13
 70
     0
  0
APPID
  2
GENIUS_GENOBJ-N-FIL_13
 70
     0
  0
APPID
  2
AD_DRAW
 70
     0
  0
APPID
  2
DESIGNERASSEMBLIES
 70
     0
  0
APPID
  2
ASURF_PCURVE_APPNAME
 70
     0
  0
APPID
  2
GENIUS_GE3SECT_13
 70
     0
  0
APPID
  2
GENIUS_GENCFG_13
 70
     0
  0
APPID
  2
GENIUS_GE3CFG0_13
 70
     0
  0
APPID
  2
GENIUS_GENCFG0_13
 70
     0
  0
APPID
  2
GENIUS_GENCFG1_13
 70
     0
  0
APPID
  2
GENIUS_GENCFG2_13
 70
     0
  0
APPID
  2
GENIUS_GENCFG3_13
 70
     0
  0
APPID
  2
GENIUS_GENCFG4_13
 70
     0
  0
APPID
  2
GENIUS_GEVCFG0_13
 70
     0
  0
APPID
  2
GENIUS_GENHINW_13
 70
     0
  0
APPID
  2
GENIUS_FIRSTVISTXT_14
 70
     0
  0
APPID
  2
GENIUS_GENOBJ-N-LEADER_13
 70
     0
  0
APPID
  2
GEV_VCCNULL_SWITCH_OFF
 70
     0
  0
APPID
  2
GENIUS_GEFCFG0_13
 70
     0
  0
APPID
  2
GENIUS_GENZVEED_13
 70
     0
  0
APPID
  2
GENIUS_GENSCREG_13
 70
     0
  0
APPID
  2
GENIUS_DUMCFG0_13
 70
     0
  0
APPID
  2
GEVID936201362
 70
     0
  0
APPID
  2
GEVDC
 70
     0
  0
APPID
  2
GEVCON
 70
     0
  0
APPID
  2
VCC
 70
     0
  0
APPID
  2
GEVPT
 70
     0
  0
APPID
  2
GEVIT
 70
     0
  0
APPID
  2
GENBH
 70
     0
  0
APPID
  2
GEVMK
 70
     0
  0
APPID
  2
GENIUS_GENBH_13
 70
     0
  0
APPID
  2
GENIUS_GENOBJ-NBEHI-BHF_13
 70
     0
  0
APPID
  2
GENIUS_GENOBJ-NBEHI-BHB_13
 70
     0
  0
APPID
  2
GENIUS_GENOBJ-F-DESC_13
 70
     0
  0
APPID
  2
GENIUS_GEFDESC_14
 70
     0
  0
APPID
  2
GENIUS_GENOBJ-F-PART_13
 70
     0
  0
APPID
  2
GENIUS_GEFSTDP_13
 70
     0
  0
APPID
  2
GENIUS_GEFPARTINS_13
 70
     0
  0
APPID
  2
GENIUS_GENTRA_14
 70
     0
  0
APPID
  2
GENIUS_GENINF13_13
 70
     0
  0
APPID
  2
GENIUS_GENOBJ-N-INFOPT_13
 70
     0
  0
APPID
  2
GENIUS_GENOBJ-N-RSSYM_13
 70
     0
  0
APPID
  2
GENIUS_GENSYMENT_13
 70
     0
  0
APPID
  2
GENIUS_GENSCSYM_13
 70
     0
  0
APPID
  2
GENIUS_GEFINFNAM_13
 70
     0
  0
APPID
  2
GENIUS_GENOBJ-N-CEN_13
 70
     0
  0
APPID
  2
GENIUS_GENOBJ-N-CRS_13
 70
     0
  0
APPID
  2
GENIUS_GENOBJ-N-CRC_13
 70
     0
  0
APPID
  2
GENIUS_GENCRC_14
 70
     0
  0
APPID
  2
GEVID942827039
 70
     0
  0
APPID
  2
GEVID942827040
 70
     0
  0
APPID
  2
GEVID942827041
 70
     0
  0
APPID
  2
GENIUS_GENOBJ-F-SCPASSM_13
 70
     0
  0
APPID
  2
GENIUS_GENDIMSH_14
 70
     0
  0
APPID
  2
GEVID942827042
 70
     0
  0
APPID
  2
GEVID946020473
 70
     0
  0
APPID
  2
GEVID946020474
 70
     0
  0
APPID
  2
GEVID946020475
 70
     0
  0
APPID
  2
GENIUS_GENOBJ-N-HTC_13
 70
     0
  0
APPID
  2
GENIUS_GENHATCH_13
 70
     0
  0
APPID
  2
GEVID948854295
 70
     0
  0
APPID
  2
GEVID939402019
 70
     0
  0
APPID
  2
GEVID952919491
 70
     0
  0
APPID
  2
GEVID952919492
 70
     0
  0
APPID
  2
GENIUS_GEFWELD_13
 70
     0
  0
APPID
  2
GENIUS_GENOBJ-F-WELS_13
 70
     0
  0
APPID
  2
GEVID952919493
 70
     0
  0
APPID
  2
GENIUS_GENOBJ-N-RSBK_13
 70
     0
  0
APPID
  2
GENIUS_GENOBJ-N-LIB_13
 70
     0
  0
APPID
  2
GENIUS_GENSCALE_13
 70
     0
  0
APPID
  2
GEVID986376691
 70
     0
  0
APPID
  2
DCO15
 70
     0
  0
APPID
  2
ACAD_DSTYLE_DIMBREAK
 70
     0
  0
APPID
  2
ACAD_DSTYLE_DIMJAG
 70
     0
  0
APPID
  2
ACAD_NAV_VCDISPLAY
 70
     0
  0
APPID
  2
ACADANNOPO
 70
     0
  0
APPID
  2
ACAD_EXEMPT_FROM_CAD_STANDARDS
 70
     0
  0
APPID
  2
ACAD_MLEADERVER
 70
     0
  0
ENDTAB
  0
TABLE
  2
DIMSTYLE
 70
    22
  0
DIMSTYLE
  2
STANDARD
 70
     0
  3

  4

  5

  6

  7

 40
1.0
 41
0.18
 42
0.0625
 43
0.38
 44
0.18
 45
0.0
 46
0.0
 47
0.0
 48
0.0
140
0.18
141
0.09
142
0.0
143
25.399999999999999
144
1.0
145
0.0
146
1.0
147
0.09
 71
     0
 72
     0
 73
     1
 74
     1
 75
     0
 76
     0
 77
     0
 78
     0
170
     0
171
     2
172
     0
173
     0
174
     0
175
     0
176
     0
177
     0
178
     0
  0
DIMSTYLE
  2
ANNOTATIVE
 70
     0
  3

  4

  5

  6

  7

 40
1.0
 41
0.18
 42
0.0625
 43
0.38
 44
0.18
 45
0.0
 46
0.0
 47
0.0
 48
0.0
140
0.18
141
0.09
142
0.0
143
25.399999999999999
144
1.0
145
0.0
146
1.0
147
0.09
 71
     0
 72
     0
 73
     1
 74
     1
 75
     0
 76
     0
 77
     0
 78
     0
170
     0
171
     2
172
     0
173
     0
174
     0
175
     0
176
     0
177
     0
178
     0
  0
DIMSTYLE
  2
AM_ISO
 70
     0
  3

  4
"
  5

  6

  7

 40
1.0
 41
2.5
 42
1.0
 43
8.0
 44
0.6
 45
0.0
 46
0.0
 47
0.1
 48
0.1
140
2.5
141
0.0
142
0.0
143
0.0393701
144
1.0
145
0.0
146
0.71
147
0.8
 71
     0
 72
     0
 73
     0
 74
     0
 75
     0
 76
     0
 77
     1
 78
     8
170
     0
171
     2
172
     1
173
     0
174
     0
175
     0
176
   256
177
   256
178
     4
  0
DIMSTYLE
  2
AM_ISO$3
 70
     0
  3

  4
"
  5

  6

  7

 40
1.0
 41
2.5
 42
1.0
 43
8.0
 44
0.6
 45
0.0
 46
0.0
 47
0.1
 48
0.1
140
2.5
141
0.0
142
0.0
143
0.0393701
144
1.0
145
0.0
146
0.71
147
0.8
 71
     0
 72
     0
 73
     0
 74
     1
 75
     0
 76
     0
 77
     1
 78
     8
170
     0
171
     2
172
     0
173
     0
174
     0
175
     0
176
   256
177
   256
178
     4
  0
DIMSTYLE
  2
AM_ISO$4
 70
     0
  3

  4
"
  5

  6

  7

 40
1.0
 41
2.5
 42
1.0
 43
8.0
 44
0.6
 45
0.0
 46
0.0
 47
0.1
 48
0.1
140
2.5
141
0.0
142
0.0
143
0.0393701
144
1.0
145
0.0
146
0.71
147
0.8
 71
     0
 72
     0
 73
     0
 74
     1
 75
     0
 76
     0
 77
     1
 78
     8
170
     0
171
     2
172
     0
173
     0
174
     0
175
     0
176
   256
177
   256
178
     4
  0
DIMSTYLE
  2
AM_ISO$6
 70
     0
  3

  4
"
  5

  6

  7

 40
1.0
 41
2.5
 42
1.0
 43
8.0
 44
0.6
 45
0.0
 46
0.0
 47
0.1
 48
0.1
140
2.5
141
0.0
142
0.0
143
0.0393701
144
1.0
145
0.0
146
0.71
147
0.8
 71
     0
 72
     0
 73
     0
 74
     0
 75
     0
 76
     0
 77
     0
 78
     8
170
     0
171
     2
172
     1
173
     0
174
     0
175
     0
176
   256
177
   256
178
     4
  0
DIMSTYLE
  2
AM_ISO$7
 70
     0
  3

  4
"
  5

  6

  7

 40
1.0
 41
2.5
 42
1.0
 43
8.0
 44
0.6
 45
0.0
 46
0.0
 47
0.1
 48
0.1
140
2.5
141
0.0
142
0.0
143
0.0393701
144
1.0
145
0.0
146
0.71
147
0.8
 71
     0
 72
     0
 73
     0
 74
     0
 75
     0
 76
     0
 77
     1
 78
     8
170
     0
171
     2
172
     1
173
     0
174
     0
175
     0
176
   256
177
   256
178
     4
  0
DIMSTYLE
  2
AM_ISO$SF
 70
     0
  3

  4
"
  5

  6

  7

 40
1.0
 41
2.5
 42
1.0
 43
10.0
 44
1.0
 45
0.0
 46
0.0
 47
0.1
 48
0.1
140
3.5
141
0.0
142
0.0
143
0.0393701
144
1.0
145
0.0
146
0.71
147
1.5
 71
     0
 72
     0
 73
     0
 74
     0
 75
     1
 76
     1
 77
     1
 78
     8
170
     0
171
     2
172
     1
173
     0
174
     0
175
     0
176
   256
177
   256
178
     2
  0
DIMSTYLE
  2
AM_ISO$SH
 70
     0
  3

  4
"
  5

  6

  7

 40
1.0
 41
2.5
 42
1.0
 43
10.0
 44
1.0
 45
0.0
 46
0.0
 47
0.1
 48
0.1
140
3.5
141
0.0
142
0.0
143
0.0393701
144
2.0
145
0.0
146
0.71
147
1.5
 71
     0
 72
     0
 73
     0
 74
     0
 75
     1
 76
     1
 77
     1
 78
     8
170
     0
171
     2
172
     1
173
     1
174
     0
175
     0
176
   256
177
   256
178
     2
  0
DIMSTYLE
  2
AM_JIS
 70
     0
  3

  4
"
  5

  6

  7

 40
1.0
 41
2.5
 42
1.0
 43
7.0
 44
1.0
 45
0.0
 46
0.0
 47
0.1
 48
0.1000000001
140
2.5
141
0.0
142
0.0
143
0.0393701
144
1.0
145
0.0
146
0.71
147
1.0
 71
     0
 72
     0
 73
     0
 74
     0
 75
     0
 76
     0
 77
     3
 78
     8
170
     0
171
     2
172
     1
173
     0
174
     0
175
     0
176
   256
177
   256
178
     4
  0
DIMSTYLE
  2
AM_JIS$3
 70
     0
  3

  4
"
  5

  6

  7

 40
1.0
 41
2.5
 42
1.0
 43
7.0
 44
1.0
 45
0.0
 46
0.0
 47
0.1
 48
0.1000000001
140
2.5
141
0.0
142
0.0
143
0.0393701
144
1.0
145
0.0
146
0.71
147
1.0
 71
     0
 72
     0
 73
     0
 74
     1
 75
     0
 76
     0
 77
     3
 78
     8
170
     0
171
     2
172
     0
173
     0
174
     0
175
     0
176
   256
177
   256
178
     4
  0
DIMSTYLE
  2
AM_JIS$4
 70
     0
  3

  4
"
  5

  6

  7

 40
1.0
 41
2.5
 42
1.0
 43
7.0
 44
1.0
 45
0.0
 46
0.0
 47
0.1
 48
0.1000000001
140
2.5
141
0.0
142
0.0
143
0.0393701
144
1.0
145
0.0
146
0.71
147
1.0
 71
     0
 72
     0
 73
     0
 74
     0
 75
     0
 76
     0
 77
     3
 78
     8
170
     0
171
     2
172
     0
173
     0
174
     0
175
     0
176
   256
177
   256
178
     4
  0
DIMSTYLE
  2
AM_JIS$6
 70
     0
  3

  4
"
  5

  6

  7

 40
1.0
 41
2.5
 42
1.0
 43
7.0
 44
1.0
 45
0.0
 46
0.0
 47
0.1
 48
0.1000000001
140
2.5
141
0.0
142
0.0
143
0.0393701
144
1.0
145
0.0
146
0.71
147
1.0
 71
     0
 72
     0
 73
     0
 74
     0
 75
     0
 76
     0
 77
     0
 78
     8
170
     0
171
     2
172
     1
173
     0
174
     0
175
     0
176
   256
177
   256
178
     4
  0
DIMSTYLE
  2
AM_JIS$7
 70
     0
  3

  4
"
  5

  6

  7

 40
1.0
 41
2.5
 42
1.0
 43
7.0
 44
1.0
 45
0.0
 46
0.0
 47
0.1
 48
0.1000000001
140
2.5
141
0.0
142
0.0
143
0.0393701
144
1.0
145
0.0
146
0.71
147
1.0
 71
     0
 72
     0
 73
     0
 74
     0
 75
     0
 76
     0
 77
     3
 78
     8
170
     0
171
     2
172
     1
173
     0
174
     0
175
     0
176
   256
177
   256
178
     4
  0
DIMSTYLE
  2
AM_JIS$SF
 70
     0
  3

  4
"
  5

  6

  7

 40
1.0
 41
2.5
 42
1.0
 43
10.0
 44
1.0
 45
0.0
 46
0.0
 47
0.1
 48
0.1
140
3.5
141
0.0
142
0.0
143
0.0393701
144
1.0
145
0.0
146
0.71
147
1.5
 71
     0
 72
     0
 73
     0
 74
     0
 75
     1
 76
     1
 77
     3
 78
     8
170
     0
171
     2
172
     1
173
     0
174
     0
175
     0
176
   256
177
   256
178
     4
  0
DIMSTYLE
  2
AM_JIS$SH
 70
     0
  3

  4
"
  5

  6

  7

 40
1.0
 41
2.5
 42
1.0
 43
10.0
 44
1.0
 45
0.0
 46
0.0
 47
0.1
 48
0.1
140
3.5
141
0.0
142
0.0
143
0.0393701
144
1.0
145
0.0
146
0.71
147
1.5
 71
     0
 72
     0
 73
     0
 74
     0
 75
     1
 76
     0
 77
     3
 78
     8
170
     0
171
     2
172
     1
173
     1
174
     0
175
     0
176
   256
177
   256
178
     4
  0
DIMSTYLE
  2
AM_ANSI
 70
     0
  3

  4
mm
  5

  6

  7

 40
1.0
 41
0.1
 42
0.05
 43
0.5
 44
0.1
 45
0.0
 46
0.0
 47
0.1
 48
0.1
140
0.12
141
0.0
142
0.0
143
25.399999999999999
144
1.0
145
0.0
146
0.71
147
0.06
 71
     0
 72
     0
 73
     1
 74
     1
 75
     0
 76
     0
 77
     0
 78
     7
170
     0
171
     2
172
     0
173
     0
174
     0
175
     0
176
   256
177
   256
178
     2
  0
DIMSTYLE
  2
AM_ANSI$3
 70
     0
  3

  4
mm
  5

  6

  7

 40
1.0
 41
0.1
 42
0.05
 43
0.5
 44
0.1
 45
0.0
 46
0.0
 47
0.1
 48
0.1
140
0.12
141
0.0
142
0.0
143
25.399999999999999
144
1.0
145
0.0
146
0.71
147
0.06
 71
     0
 72
     0
 73
     1
 74
     1
 75
     0
 76
     0
 77
     0
 78
     7
170
     0
171
     2
172
     0
173
     0
174
     0
175
     0
176
   256
177
   256
178
     2
  0
DIMSTYLE
  2
AM_ANSI$4
 70
     0
  3

  4
mm
  5

  6

  7

 40
1.0
 41
0.1
 42
0.05
 43
0.5
 44
0.1
 45
0.0
 46
0.0
 47
0.1
 48
0.1
140
0.12
141
0.0
142
0.0
143
25.399999999999999
144
1.0
145
0.0
146
0.71
147
0.06
 71
     0
 72
     0
 73
     1
 74
     1
 75
     0
 76
     0
 77
     0
 78
     7
170
     0
171
     2
172
     0
173
     0
174
     0
175
     0
176
   256
177
   256
178
     2
  0
DIMSTYLE
  2
AM_ANSI$7
 70
     0
  3

  4
mm
  5

  6

  7

 40
1.0
 41
0.1
 42
0.05
 43
0.5
 44
0.1
 45
0.0
 46
0.0
 47
0.1
 48
0.1
140
0.24
141
0.0
142
0.0
143
25.399999999999999
144
1.0
145
0.0
146
0.71
147
0.06
 71
     0
 72
     0
 73
     1
 74
     1
 75
     0
 76
     0
 77
     0
 78
     7
170
     0
171
     2
172
     0
173
     0
174
     0
175
     0
176
   256
177
   256
178
     2
  0
DIMSTYLE
  2
AM_ANSI$SF
 70
     0
  3

  4
mm
  5

  6

  7

 40
1.0
 41
0.1
 42
0.05
 43
0.5
 44
0.1
 45
0.0
 46
0.0
 47
0.1
 48
0.1
140
0.12
141
0.0
142
0.0
143
25.399999999999999
144
1.0
145
0.0
146
0.71
147
0.06
 71
     0
 72
     0
 73
     1
 74
     1
 75
     1
 76
     1
 77
     0
 78
     7
170
     0
171
     2
172
     0
173
     0
174
     0
175
     0
176
   256
177
   256
178
     2
  0
DIMSTYLE
  2
AM_ANSI$SH
 70
     0
  3

  4
mm
  5

  6

  7

 40
1.0
 41
0.1
 42
0.05
 43
0.5
 44
0.1
 45
0.0
 46
0.0
 47
0.1
 48
0.1
140
0.12
141
0.0
142
0.0
143
25.399999999999999
144
1.0
145
0.0
146
0.71
147
0.06
 71
     0
 72
     0
 73
     1
 74
     1
 75
     1
 76
     1
 77
     0
 78
     7
170
     0
171
     2
172
     0
173
     1
174
     0
175
     0
176
   256
177
   256
178
     2
  0
ENDTAB
  0
ENDSEC
  0
SECTION
  2
BLOCKS
  0
BLOCK
  8
0
  2
$MODEL_SPACE
 70
     0
 10
0.0
 20
0.0
 30
0.0
  3
$MODEL_SPACE
  1

  0
ENDBLK
  5
2F94
  8
0
  0
BLOCK
 67
     1
  8
0
  2
$PAPER_SPACE
 70
     0
 10
0.0
 20
0.0
 30
0.0
  3
$PAPER_SPACE
  1

  0
ENDBLK
  5
2F90
 67
     1
  8
0
  0
BLOCK
  8
0
  2
GENAXEH
 70
     0
 10
0.0
 20
0.0
 30
0.0
  3
GENAXEH
  1

  0
LINE
  5
2CF4
  8
0
 10
-1.0
 20
0.0
 30
0.0
 11
1.0
 21
0.0
 31
0.0
  0
ENDBLK
  5
2CF5
  8
0
  0
BLOCK
  8
0
  2
_OPEN30
 70
     0
 10
0.0
 20
0.0
 30
0.0
  3
_OPEN30
  1

  0
LINE
  5
2CF8
  8
0
 62
     0
 10
-1.0
 20
0.26794919
 30
0.0
 11
0.0
 21
0.0
 31
0.0
  0
LINE
  5
2CF9
  8
0
 62
     0
 10
0.0
 20
0.0
 30
0.0
 11
-1.0
 21
-0.26794919
 31
0.0
  0
LINE
  5
2CFA
  8
0
 62
     0
 10
0.0
 20
0.0
 30
0.0
 11
-1.0
 21
0.0
 31
0.0
  0
ENDBLK
  5
2CFB
  8
0
  0
BLOCK
  8
0
  2
*U4
 70
     1
 10
0.0
 20
0.0
 30
0.0
  3
*U4
  1
*U
  0
LINE
  5
2CFE
  8
BHII
 10
0.0
 20
7.6999999999999984
 30
0.0
 11
0.0000000000000021
 21
-0.3279404685324049
 31
0.0
  0
LINE
  5
2CFF
  8
BHII
 10
2.0
 20
7.6999999999999984
 30
0.0
 11
2.0000000000000022
 21
0.3999999999999986
 31
0.0
  0
LINE
  5
2D00
  8
BHII
 10
0.0
 20
-7.6999999999999984
 30
0.0
 11
2.0
 21
-7.6999999999999984
 31
0.0
  0
LINE
  5
2D01
  8
BHII
 10
2.0
 20
-0.3999999999999999
 30
0.0
 11
0.0000000000000001
 21
-1.127940468532403
 31
0.0
  0
LINE
  5
2D02
  8
BHII
 10
2.0000000000000022
 20
0.3999999999999986
 30
0.0
 11
0.0000000000000021
 21
-0.3279404685324049
 31
0.0
  0
LINE
  5
2D03
  8
BHII
 10
2.0
 20
-0.3999999999999999
 30
0.0
 11
2.0
 21
-7.6999999999999984
 31
0.0
  0
LINE
  5
2D04
  8
BHII
 10
0.0000000000000001
 20
-1.127940468532403
 30
0.0
 11
0.0
 21
-7.6999999999999984
 31
0.0
  0
LINE
  5
2D05
  8
CENN
 10
-2.999999999999996
 20
0.0
 30
0.0
 11
5.0
 21
0.0
 31
0.0
  0
LINE
  5
2D06
  8
BHII
 10
2.0
 20
7.6999999999999984
 30
0.0
 11
0.0
 21
7.6999999999999984
 31
0.0
  0
ENDBLK
  5
2D07
  8
0
  0
BLOCK
  8
0
  2
*U5
 70
     1
 10
0.0
 20
0.0
 30
0.0
  3
*U5
  1
*U
  0
LINE
  5
2D0A
  8
BHII
 10
0.0
 20
7.6999999999999984
 30
0.0
 11
0.0000000000000021
 21
-0.3279404685324049
 31
0.0
  0
LINE
  5
2D0B
  8
BHII
 10
2.0
 20
7.6999999999999984
 30
0.0
 11
2.0000000000000022
 21
0.3999999999999986
 31
0.0
  0
LINE
  5
2D0C
  8
BHII
 10
0.0
 20
-7.6999999999999984
 30
0.0
 11
2.0
 21
-7.6999999999999984
 31
0.0
  0
LINE
  5
2D0D
  8
BHII
 10
2.0
 20
-0.3999999999999999
 30
0.0
 11
0.0000000000000001
 21
-1.127940468532403
 31
0.0
  0
LINE
  5
2D0E
  8
BHII
 10
2.0000000000000022
 20
0.3999999999999986
 30
0.0
 11
0.0000000000000021
 21
-0.3279404685324049
 31
0.0
  0
LINE
  5
2D0F
  8
BHII
 10
2.0
 20
-0.3999999999999999
 30
0.0
 11
2.0
 21
-7.6999999999999984
 31
0.0
  0
LINE
  5
2D10
  8
BHII
 10
0.0000000000000001
 20
-1.127940468532403
 30
0.0
 11
0.0
 21
-7.6999999999999984
 31
0.0
  0
LINE
  5
2D11
  8
CENN
 10
-2.999999999999996
 20
0.0
 30
0.0
 11
5.0
 21
0.0
 31
0.0
  0
LINE
  5
2D12
  8
BHII
 10
2.0
 20
7.6999999999999984
 30
0.0
 11
0.0
 21
7.6999999999999984
 31
0.0
  0
ENDBLK
  5
2D13
  8
0
  0
BLOCK
  8
0
  2
_NONE
 70
     0
 10
0.0
 20
0.0
 30
0.0
  3
_NONE
  1

  0
ENDBLK
  5
2D16
  8
0
  0
BLOCK
  8
0
  2
*U7
 70
     1
 10
0.0
 20
0.0
 30
0.0
  3
*U7
  1
*U
  0
LINE
  5
2D19
  8
BHII
 10
0.0
 20
7.6999999999999984
 30
0.0
 11
0.0000000000000021
 21
-0.3279404685324049
 31
0.0
  0
LINE
  5
2D1A
  8
BHII
 10
2.0
 20
7.6999999999999984
 30
0.0
 11
2.0000000000000022
 21
0.3999999999999986
 31
0.0
  0
LINE
  5
2D1B
  8
BHII
 10
0.0
 20
-7.6999999999999984
 30
0.0
 11
2.0
 21
-7.6999999999999984
 31
0.0
  0
LINE
  5
2D1C
  8
BHII
 10
2.0
 20
-0.3999999999999999
 30
0.0
 11
0.0000000000000001
 21
-1.127940468532403
 31
0.0
  0
LINE
  5
2D1D
  8
BHII
 10
2.0000000000000022
 20
0.3999999999999986
 30
0.0
 11
0.0000000000000021
 21
-0.3279404685324049
 31
0.0
  0
LINE
  5
2D1E
  8
BHII
 10
2.0
 20
-0.3999999999999999
 30
0.0
 11
2.0
 21
-7.6999999999999984
 31
0.0
  0
LINE
  5
2D1F
  8
BHII
 10
0.0000000000000001
 20
-1.127940468532403
 30
0.0
 11
0.0
 21
-7.6999999999999984
 31
0.0
  0
LINE
  5
2D20
  8
CENN
 10
-2.999999999999996
 20
0.0
 30
0.0
 11
5.0
 21
0.0
 31
0.0
  0
LINE
  5
2D21
  8
BHII
 10
2.0
 20
7.6999999999999984
 30
0.0
 11
0.0
 21
7.6999999999999984
 31
0.0
  0
ENDBLK
  5
2D22
  8
0
  0
BLOCK
  8
0
  2
*U8
 70
     1
 10
0.0
 20
0.0
 30
0.0
  3
*U8
  1
*U
  0
LINE
  5
2D25
  8
BHII
 10
0.0
 20
7.6999999999999984
 30
0.0
 11
0.0000000000000021
 21
-0.3279404685324049
 31
0.0
  0
LINE
  5
2D26
  8
BHII
 10
2.0
 20
7.6999999999999984
 30
0.0
 11
2.0000000000000022
 21
0.3999999999999986
 31
0.0
  0
LINE
  5
2D27
  8
BHII
 10
0.0
 20
-7.6999999999999984
 30
0.0
 11
2.0
 21
-7.6999999999999984
 31
0.0
  0
LINE
  5
2D28
  8
BHII
 10
2.0
 20
-0.3999999999999999
 30
0.0
 11
0.0000000000000001
 21
-1.127940468532403
 31
0.0
  0
LINE
  5
2D29
  8
BHII
 10
2.0000000000000022
 20
0.3999999999999986
 30
0.0
 11
0.0000000000000021
 21
-0.3279404685324049
 31
0.0
  0
LINE
  5
2D2A
  8
BHII
 10
2.0
 20
-0.3999999999999999
 30
0.0
 11
2.0
 21
-7.6999999999999984
 31
0.0
  0
LINE
  5
2D2B
  8
BHII
 10
0.0000000000000001
 20
-1.127940468532403
 30
0.0
 11
0.0
 21
-7.6999999999999984
 31
0.0
  0
LINE
  5
2D2C
  8
CENN
 10
-2.999999999999996
 20
0.0
 30
0.0
 11
5.0
 21
0.0
 31
0.0
  0
LINE
  5
2D2D
  8
BHII
 10
2.0
 20
7.6999999999999984
 30
0.0
 11
0.0
 21
7.6999999999999984
 31
0.0
  0
ENDBLK
  5
2D2E
  8
0
  0
BLOCK
  8
0
  2
_ACMFILLEDHALF
 70
     0
 10
0.0
 20
0.0
 30
0.0
  3
_ACMFILLEDHALF
  1

  0
TRACE
  5
3095
  8
AM_0
 62
     0
 10
-0.8
 20
0.0
 30
0.0
 11
-1.0
 21
0.166666666
 31
0.0
 12
0.0
 22
0.0
 32
0.0
 13
0.0
 23
0.0
 33
0.0
  0
LINE
  5
3096
  8
AM_0
 62
     0
 10
-1.0
 20
0.0
 30
0.0
 11
-0.8
 21
0.0
 31
0.0
  0
ENDBLK
  5
3094
  8
0
  0
ENDSEC
  0
SECTION
  2
ENTITIES
  0
INSERT
  5
2D2F
  8
GEV_FROZEN
  2
*U4
 10
908.63419872493876
 20
575.41071207004165
 30
0.0
 41
0.1
 42
0.1
 43
0.1
 50
179.9999999999998
1001
GENBH
1002
{
1000
-NOBRK
1002
}
  0
INSERT
  5
2D30
  8
GEV_FROZEN
  2
*U5
 10
908.63419872493876
 20
575.41071207004165
 30
0.0
 41
0.1
 42
0.1
 43
0.1
 50
179.9999999999998
1001
GENBH
1002
{
1000
-NOBRK
1002
}
  0
INSERT
  5
2D31
  8
GEV_FROZEN
  2
*U7
 10
908.63419872493876
 20
575.41071207004165
 30
0.0
 41
0.1
 42
0.1
 43
0.1
 50
179.9999999999998
1001
GENBH
1002
{
1000
-NOBRK
1002
}
  0
INSERT
  5
2D32
  8
GEV_FROZEN
  2
*U8
 10
908.63419872493876
 20
575.41071207004165
 30
0.0
 41
0.1
 42
0.1
 43
0.1
 50
179.9999999999998
1001
GENBH
1002
{
1000
-NOBRK
1002
}
  0
LINE
  5
2D34
  8
ﾁｭｳｼﾝｾﾝ1
 10
351.05846801251022
 20
863.774591940292
 30
0.0
 11
675.38484737035265
 21
863.774591940292
 31
0.0
  0
ARC
  5
2D35
  8
AM_0
 10
453.87080737035279
 20
847.9000819402919
 30
0.0
 40
5.0
 50
0.0
 51
82.818802999995938
  0
LINE
  5
2D36
  8
AM_0
 10
442.87087737035279
 20
777.77456194029207
 30
0.0
 11
442.87087737035279
 21
859.77459194029188
 31
0.0
  0
LINE
  5
2D37
  8
AM_0
 10
486.87087737035267
 20
814.21008194029207
 30
0.0
 11
486.87087737035267
 21
913.33911194029201
 31
0.0
  0
LINE
  5
2D38
  8
AM_0
 10
561.8708773703529
 20
772.774591940292
 30
0.0
 11
561.8708773703529
 21
954.774591940292
 31
0.0
  0
LINE
  5
2D39
  8
AM_0
 10
589.87087737035267
 20
903.5319819402921
 30
0.0
 11
589.87087737035267
 21
830.0172119402921
 31
0.0
  0
LINE
  5
2D3A
  8
AM_0
 10
471.87087737035279
 20
724.03662194029209
 30
0.0
 11
471.87087737035279
 21
859.77459194029188
 31
0.0
  0
LINE
  5
2D3B
  8
AM_0
 10
583.8708773703529
 20
949.65521194029202
 30
0.0
 11
583.8708773703529
 21
777.89404194029203
 31
0.0
  0
LINE
  5
2D3C
  8
AM_0
 10
663.8708773703529
 20
842.77459194029188
 30
0.0
 11
663.8708773703529
 21
884.77459194029188
 31
0.0
  0
LINE
  5
2D3D
  8
AM_0
 10
593.87087737035279
 20
841.27459194029188
 30
0.0
 11
593.87087737035279
 21
886.274591940292
 31
0.0
  0
LINE
  5
2D3E
  8
AM_0
 10
458.87080737035279
 20
727.5648119402922
 30
0.0
 11
458.87080737035279
 21
854.23516194029185
 31
0.0
  0
LINE
  5
2D3F
  8
AM_0
 10
515.96120737035267
 20
740.60046194029201
 30
0.0
 11
534.15004737035269
 21
741.23565194029163
 31
0.0
  0
LINE
  5
2D40
  8
AM_0
 10
476.87080737035268
 20
723.774591940292
 30
0.0
 11
586.01039737035285
 21
727.58587194029178
 31
0.0
  0
LINE
  5
2D41
  8
AM_0
 10
401.66151737035273
 20
727.71618194029202
 30
0.0
 11
476.87087737035279
 21
723.774591940292
 31
0.0
  0
LINE
  5
2D42
  8
AM_0
 10
397.87087737035279
 20
731.71069194029189
 30
0.0
 11
397.87087737035279
 21
768.197580015825
 31
0.0
  0
ARC
  5
2D43
  8
AM_0
 10
401.87087737035279
 20
731.71069194029189
 30
0.0
 40
4.0
 50
180.00001000000091
 51
266.99999000000008
  0
CIRCLE
  5
2D44
  8
AM_0
 10
418.87087737035279
 20
748.774591940292
 30
0.0
 40
9.5
  0
POLYLINE
  5
2D45
  8
AM_0
 66
     1
 10
0.0
 20
0.0
 30
0.0
  0
VERTEX
  5
2D46
  8
AM_0
 10
491.80056737035272
 20
784.0431019402921
 30
0.0
 42
0.110757
  0
VERTEX
  5
2D47
  8
AM_0
 10
504.68151737035271
 20
793.95084194029209
 30
0.0
 42
0.2037583
  0
VERTEX
  5
2D48
  8
AM_0
 10
506.939237370353
 20
801.61631194029201
 30
0.0
  0
VERTEX
  5
2D49
  8
AM_0
 10
492.16943737035291
 20
820.5314319402919
 30
0.0
 42
-1.0
  0
SEQEND
  5
2D4A
  8
AM_0
  0
LINE
  5
2D4B
  8
AM_0
 10
486.87087737035267
 20
737.09942194029202
 30
0.0
 11
486.87087737035267
 21
784.20880194029201
 31
0.0
  0
LINE
  5
2D4C
  8
AM_0
 10
471.87080737035279
 20
734.64422194029203
 30
0.0
 11
484.94069737035272
 21
735.10064194029201
 31
0.0
  0
LINE
  5
2D4D
  8
AM_0
 10
460.80110737035278
 20
735.03082194029184
 30
0.0
 11
471.87093737035292
 21
734.64422194029203
 31
0.0
  0
ARC
  5
2D4E
  8
AM_0
 10
450.87087737035279
 20
738.06463194029163
 30
0.0
 40
5.0
 50
180.00001000000091
 51
277.13983000000007
  0
ARC
  5
2D4F
  8
AM_0
 10
460.87087737035267
 20
737.02966194029204
 30
0.0
 40
2.0
 50
179.9999899999988
 51
268.00000999999861
  0
LINE
  5
2D50
  8
AM_0
 10
458.87087737035279
 20
734.02764194029203
 30
0.0
 11
451.49233737035291
 21
733.10339194029189
 31
0.0
  0
LINE
  5
2D51
  8
AM_0
 10
445.87087737035267
 20
726.37939194029195
 30
0.0
 11
445.87087737035267
 21
734.22814194029206
 31
0.0
  0
ARC
  5
2D52
  8
AM_0
 10
461.87080737035279
 20
727.5648119402922
 30
0.0
 40
3.0
 50
180.00001000000091
 51
266.99999000000008
  0
LINE
  5
2D53
  8
AM_0
 10
455.01045737035281
 20
776.99060194029187
 30
0.0
 11
444.87099737035271
 21
777.34466194029199
 31
0.0
  0
LINE
  5
2D54
  8
AM_0
 10
455.01039737035268
 20
779.35070194029208
 30
0.0
 11
442.87093737035292
 21
779.77465194029185
 31
0.0
  0
LINE
  5
2D55
  8
AM_0
 10
444.87093737035281
 20
779.7047119402921
 30
0.0
 11
444.87093737035281
 21
777.34460194029202
 31
0.0
  0
ARC
  5
2D56
  8
AM_0
 10
454.87080737035291
 20
775.35314194029206
 30
0.0
 40
4.0
 50
0.0
 51
87.999999999996248
  0
ARC
  5
2D57
  8
AM_0
 10
454.87080737035291
 20
772.99304194029185
 30
0.0
 40
4.0
 50
0.0
 51
87.999999999996248
  0
LINE
  5
2D58
  8
AM_0
 10
488.80110737035301
 20
741.21514194029203
 30
0.0
 11
513.40407737035275
 21
742.07434194029202
 31
0.0
  0
LINE
  5
2D59
  8
AM_0
 10
499.68727737035272
 20
727.61120194029195
 30
0.0
 11
509.05446737035282
 21
737.48797194029203
 31
0.0
  0
ARC
  5
2D5A
  8
AM_0
 10
484.87087737035279
 20
737.09942194029202
 30
0.0
 40
2.0
 50
272.00000000000369
 51
0.0
  0
LINE
  5
2D5B
  8
AM_0
 10
491.37087737035267
 20
727.53747194029211
 30
0.0
 11
491.37087737035267
 21
739.56982194029206
 31
0.0
  0
ARC
  5
2D5C
  8
AM_0
 10
492.431537370353
 20
734.49255194029195
 30
0.0
 40
10.0
 50
272.00000000000369
 51
316.51703999999847
  0
ARC
  5
2D5D
  8
AM_0
 10
488.87087737035279
 20
739.21636194029202
 30
0.0
 40
2.0
 50
91.999998000000545
 51
180.00001000000091
  0
ARC
  5
2D5E
  8
AM_0
 10
516.31020737035294
 20
730.60656194029207
 30
0.0
 40
10.0
 50
91.999998000000545
 51
136.5170399999985
  0
ARC
  5
2D5F
  8
AM_0
 10
490.8989473703528
 20
785.8283619402921
 30
0.0
 40
2.0
 50
270.0
 51
296.80019999999712
  0
LINE
  5
2D60
  8
AM_0
 10
458.87080737035279
 20
812.21008194029196
 30
0.0
 11
484.87087737035279
 21
812.21008194029196
 31
0.0
  0
LINE
  5
2D61
  8
AM_0
 10
458.87080737035279
 20
786.20880194029201
 30
0.0
 11
484.87087737035279
 21
786.20880194029201
 31
0.0
  0
LINE
  5
2D62
  8
AM_0
 10
491.37087737035267
 20
786.20880194029201
 30
0.0
 11
491.37087737035267
 21
812.21008194029196
 31
0.0
  0
ARC
  5
2D63
  8
AM_0
 10
484.87087737035279
 20
784.20880194029201
 30
0.0
 40
2.0
 50
0.0
 51
90.00000299999769
  0
ARC
  5
2D64
  8
AM_0
 10
484.87087737035279
 20
814.21008194029207
 30
0.0
 40
2.0
 50
270.0
 51
0.0
  0
ARC
  5
2D65
  8
AM_0
 10
490.42049737035268
 20
818.0939919402922
 30
0.0
 40
3.0
 50
54.348324000004709
 51
90.00000299999769
  0
LINE
  5
2D66
  8
AM_0
 10
593.87087737035279
 20
842.77459194029188
 30
0.0
 11
663.8708773703529
 21
842.77459194029188
 31
0.0
  0
ARC
  5
2D67
  8
AM_0
 10
553.8708773703529
 20
772.774591940292
 30
0.0
 40
8.0
 50
270.0
 51
0.0
  0
CIRCLE
  5
2D68
  8
AM_0
 10
568.87087737035279
 20
748.774591940292
 30
0.0
 40
9.5
  0
LINE
  5
2D69
  8
AM_0
 10
541.8708773703529
 20
754.77459194029188
 30
0.0
 11
541.8708773703529
 21
749.23077194029202
 31
0.0
  0
ARC
  5
2D6A
  8
AM_0
 10
533.8708773703529
 20
749.23077194029202
 30
0.0
 40
8.0
 50
272.00000000000369
 51
0.0
  0
LINE
  5
2D6B
  8
AM_0
 10
541.8708773703529
 20
731.22210194029208
 30
0.0
 11
541.8708773703529
 21
749.23077194029202
 31
0.0
  0
ARC
  5
2D6C
  8
AM_0
 10
546.8708773703529
 20
731.22210194029208
 30
0.0
 40
5.0
 50
180.00001000000091
 51
271.99999000000139
  0
ARC
  5
2D6D
  8
AM_0
 10
551.87087737035279
 20
754.77459194029188
 30
0.0
 40
10.0
 50
90.00000299999769
 51
180.00001000000091
  0
LINE
  5
2D6E
  8
AM_0
 10
551.87087737035279
 20
764.774591940292
 30
0.0
 11
553.8708773703529
 21
764.774591940292
 31
0.0
  0
LINE
  5
2D6F
  8
AM_0
 10
589.87087737035267
 20
731.58337194029195
 30
0.0
 11
589.87087737035267
 21
770.9658219402919
 31
0.0
  0
ARC
  5
2D70
  8
AM_0
 10
585.87087737035267
 20
731.58337194029195
 30
0.0
 40
4.0
 50
272.00000000000369
 51
0.0
  0
ARC
  5
2D71
  8
AM_0
 10
578.8708773703529
 20
782.573851940292
 30
0.0
 40
5.0
 50
272.00000000000369
 51
0.0
  0
LINE
  5
2D72
  8
AM_0
 10
569.19588737035303
 20
777.23290194029209
 30
0.0
 11
579.04530737035282
 21
777.57684194029196
 31
0.0
  0
ARC
  5
2D73
  8
AM_0
 10
569.47505737035306
 20
769.23779194029203
 30
0.0
 40
8.0
 50
91.999998000000545
 51
167.22924999999881
  0
ARC
  5
2D74
  8
AM_0
 10
585.87087737035267
 20
770.9658219402919
 30
0.0
 40
4.0
 50
0.0
 51
81.786789000000198
  0
ARC
  5
2D75
  8
AM_0
 10
586.8708773703529
 20
777.89404194029203
 30
0.0
 40
3.0
 50
180.00001000000091
 51
261.78677999999701
  0
ARC
  5
2D76
  8
AM_0
 10
586.8708773703529
 20
830.0172119402921
 30
0.0
 40
3.0
 50
315.0
 51
0.0
  0
ARC
  5
2D77
  8
AM_0
 10
586.8708773703529
 20
830.0172119402921
 30
0.0
 40
3.0
 50
315.0
 51
0.0
  0
ARC
  5
2D78
  8
AM_0
 10
586.8708773703529
 20
821.5319819402921
 30
0.0
 40
3.0
 50
135.0
 51
180.00001000000091
  0
ARC
  5
2D79
  8
AM_0
 10
586.8708773703529
 20
821.5319819402921
 30
0.0
 40
3.0
 50
135.0
 51
180.00001000000091
  0
LINE
  5
2D7A
  8
AM_0
 10
584.74965737035291
 20
823.65325194029208
 30
0.0
 11
588.99233737035286
 21
827.89593194029203
 31
0.0
  0
LINE
  5
2D7B
  8
AM_0
 10
589.87093737035275
 20
841.27459194029188
 30
0.0
 11
593.87087737035279
 21
841.27459194029188
 31
0.0
  0
LINE
  5
2D7C
  8
AM_0
 10
515.96126737035274
 20
986.94873194029208
 30
0.0
 11
534.15010737035266
 21
986.31353194029191
 31
0.0
  0
LINE
  5
2D7D
  8
AM_0
 10
476.87093737035269
 20
1003.774591940292
 30
0.0
 11
586.01051737035266
 21
999.96337194029195
 31
0.0
  0
CIRCLE
  5
2D7E
  8
AM_0
 10
418.87087737035279
 20
978.77459194029211
 30
0.0
 40
9.5
  0
LINE
  5
2D7F
  8
AM_0
 10
458.87080737035279
 20
873.31402194029215
 30
0.0
 11
458.87080737035279
 21
999.98437194029191
 31
0.0
  0
LINE
  5
2D80
  8
AM_0
 10
471.87087737035279
 20
867.77453194029192
 30
0.0
 11
471.87087737035279
 21
1003.512571940292
 31
0.0
  0
LINE
  5
2D81
  8
AM_0
 10
486.87087737035267
 20
990.44976194029209
 30
0.0
 11
486.87087737035267
 21
943.34039194029197
 31
0.0
  0
LINE
  5
2D82
  8
AM_0
 10
397.87087737035279
 20
995.83850194029208
 30
0.0
 11
397.87087737035279
 21
959.35163067745032
 31
0.0
  0
LINE
  5
2D83
  8
AM_0
 10
439.37093737035269
 20
867.77453194029192
 30
0.0
 11
472.37093737035281
 21
867.77453194029192
 31
0.0
  0
LINE
  5
2D84
  8
AM_0
 10
439.37093737035269
 20
859.77459194029188
 30
0.0
 11
472.37093737035281
 21
859.77459194029188
 31
0.0
  0
ARC
  5
2D85
  8
AM_0
 10
439.37093737035269
 20
863.774591940292
 30
0.0
 40
3.9999962
 50
90.00000299999769
 51
270.0
  0
POLYLINE
  5
2D86
  8
AM_0
 66
     1
 10
0.0
 20
0.0
 30
0.0
  0
VERTEX
  5
2D87
  8
AM_0
 10
491.80056737035272
 20
943.50608194029201
 30
0.0
 42
-0.110757
  0
VERTEX
  5
2D88
  8
AM_0
 10
504.68151737035271
 20
933.59834194029202
 30
0.0
 42
-0.2037583
  0
VERTEX
  5
2D89
  8
AM_0
 10
506.939237370353
 20
925.9328719402921
 30
0.0
  0
VERTEX
  5
2D8A
  8
AM_0
 10
492.16943737035291
 20
907.0177519402921
 30
0.0
 42
-1.0
  0
SEQEND
  5
2D8B
  8
AM_0
  0
LINE
  5
2D8C
  8
AM_0
 10
442.87087737035279
 20
867.77453194029192
 30
0.0
 11
442.87087737035279
 21
949.77456194029196
 31
0.0
  0
ARC
  5
2D8D
  8
AM_0
 10
455.87093737035281
 20
863.774591940292
 30
0.0
 40
10.0
 50
203.5782699999985
 51
336.4217200000013
  0
ARC
  5
2D8E
  8
AM_0
 10
455.87093737035281
 20
863.774591940292
 30
0.0
 40
10.0
 50
23.57803699999776
 51
156.42196000000081
  0
ARC
  5
2D8F
  8
AM_0
 10
455.87093737035281
 20
863.774591940292
 30
0.0
 40
11.0
 50
201.32377999999761
 51
262.81880000000041
  0
ARC
  5
2D90
  8
AM_0
 10
455.87093737035281
 20
863.774591940292
 30
0.0
 40
11.0
 50
97.181195000004124
 51
158.67647999999841
  0
ARC
  5
2D91
  8
AM_0
 10
453.87080737035279
 20
879.6491019402921
 30
0.0
 40
5.0
 50
277.18119999999942
 51
0.0
  0
ARC
  5
2D92
  8
AM_0
 10
472.37093737035281
 20
863.774591940292
 30
0.0
 40
3.9999962
 50
270.0
 51
90.00000299999769
  0
ARC
  5
2D93
  8
AM_0
 10
490.42049737035268
 20
909.455201940292
 30
0.0
 40
3.0
 50
270.0
 51
305.65166999999718
  0
LINE
  5
2D94
  8
AM_0
 10
458.87080737035279
 20
941.34039194029197
 30
0.0
 11
484.87087737035279
 21
941.34039194029197
 31
0.0
  0
LINE
  5
2D95
  8
AM_0
 10
458.87080737035279
 20
915.33911194029201
 30
0.0
 11
484.87087737035279
 21
915.33911194029201
 31
0.0
  0
LINE
  5
2D96
  8
AM_0
 10
455.01045737035281
 20
950.5585919402921
 30
0.0
 11
444.87093737035281
 21
950.2045219402919
 31
0.0
  0
LINE
  5
2D97
  8
AM_0
 10
455.01039737035268
 20
948.1985419402921
 30
0.0
 11
442.87087737035279
 21
947.774591940292
 31
0.0
  0
LINE
  5
2D98
  8
AM_0
 10
444.87093737035281
 20
947.84442194029202
 30
0.0
 11
444.87093737035281
 21
950.20458194029209
 31
0.0
  0
ARC
  5
2D99
  8
AM_0
 10
454.87080737035291
 20
952.19610194029212
 30
0.0
 40
4.0
 50
272.00000000000369
 51
0.0
  0
ARC
  5
2D9A
  8
AM_0
 10
454.87080737035291
 20
954.55621194029209
 30
0.0
 40
4.0
 50
272.00000000000369
 51
0.0
  0
LINE
  5
2D9B
  8
AM_0
 10
491.37087737035267
 20
941.34039194029197
 30
0.0
 11
491.37087737035267
 21
915.33911194029201
 31
0.0
  0
ARC
  5
2D9C
  8
AM_0
 10
484.87087737035279
 20
913.33911194029201
 30
0.0
 40
2.0
 50
0.0
 51
90.00000299999769
  0
ARC
  5
2D9D
  8
AM_0
 10
490.8989473703528
 20
941.72082194029213
 30
0.0
 40
2.0
 50
63.199809000002318
 51
90.00000299999769
  0
ARC
  5
2D9E
  8
AM_0
 10
484.87087737035279
 20
943.34039194029197
 30
0.0
 40
2.0
 50
270.0
 51
0.0
  0
LINE
  5
2D9F
  8
AM_0
 10
401.66145737035271
 20
999.83300194029209
 30
0.0
 11
476.87080737035268
 21
1003.774591940292
 31
0.0
  0
ARC
  5
2DA0
  8
AM_0
 10
401.87087737035279
 20
995.83850194029208
 30
0.0
 40
4.0
 50
92.999999000001679
 51
180.00001000000091
  0
LINE
  5
2DA1
  8
AM_0
 10
471.87087737035279
 20
992.9049619402922
 30
0.0
 11
484.9407573703528
 21
992.4485419402921
 31
0.0
  0
LINE
  5
2DA2
  8
AM_0
 10
460.80110737035278
 20
992.5183719402919
 30
0.0
 11
471.87087737035279
 21
992.9049619402922
 31
0.0
  0
ARC
  5
2DA3
  8
AM_0
 10
450.87087737035279
 20
989.48455194029202
 30
0.0
 40
5.0
 50
82.860167000000104
 51
180.00001000000091
  0
LINE
  5
2DA4
  8
AM_0
 10
445.87087737035267
 20
1001.169791940291
 30
0.0
 11
445.87087737035267
 21
993.32104194029205
 31
0.0
  0
LINE
  5
2DA5
  8
AM_0
 10
458.87080737035279
 20
993.5215419402922
 30
0.0
 11
451.49233737035291
 21
994.44580194029209
 31
0.0
  0
ARC
  5
2DA6
  8
AM_0
 10
460.87087737035267
 20
990.519591940292
 30
0.0
 40
2.0
 50
91.999998000000545
 51
180.00001000000091
  0
ARC
  5
2DA7
  8
AM_0
 10
461.87080737035279
 20
999.98437194029191
 30
0.0
 40
3.0
 50
92.999999000001679
 51
180.00001000000091
  0
LINE
  5
2DA8
  8
AM_0
 10
488.80110737035301
 20
986.3340419402922
 30
0.0
 11
513.40413737035294
 21
985.47485194029207
 31
0.0
  0
LINE
  5
2DA9
  8
AM_0
 10
499.68733737035279
 20
999.93798194029193
 30
0.0
 11
509.05440737035292
 21
990.06127194029204
 31
0.0
  0
LINE
  5
2DAA
  8
AM_0
 10
491.37087737035267
 20
988.05444194029189
 30
0.0
 11
491.37087737035267
 21
1000.007931940291
 31
0.0
  0
ARC
  5
2DAB
  8
AM_0
 10
488.87087737035279
 20
988.33282194029209
 30
0.0
 40
2.0
 50
180.00001000000091
 51
267.99999999999631
  0
ARC
  5
2DAC
  8
AM_0
 10
484.87087737035279
 20
990.44976194029209
 30
0.0
 40
2.0
 50
0.0
 51
87.999999999996248
  0
ARC
  5
2DAD
  8
AM_0
 10
492.431537370353
 20
993.05657194029197
 30
0.0
 40
10.0
 50
43.482964999999631
 51
87.999999999996248
  0
ARC
  5
2DAE
  8
AM_0
 10
516.31020737035294
 20
996.94262194029216
 30
0.0
 40
10.0
 50
223.48296000000141
 51
267.99999999999631
  0
CIRCLE
  5
2DAF
  8
AM_0
 10
568.87087737035279
 20
978.77459194029211
 30
0.0
 40
9.5
  0
LINE
  5
2DB0
  8
AM_0
 10
541.8708773703529
 20
972.774591940292
 30
0.0
 11
541.8708773703529
 21
978.31842194029207
 31
0.0
  0
LINE
  5
2DB1
  8
ﾁｭｳｼﾝｾﾝ1
 10
568.87087737035279
 20
998.27459194029188
 30
0.0
 11
568.87087737035279
 21
959.274591940292
 31
0.0
  0
LINE
  5
2DB2
  8
AM_0
 10
589.87087737035267
 20
995.9658219402919
 30
0.0
 11
589.87087737035267
 21
956.58337194029195
 31
0.0
  0
LINE
  5
2DB3
  8
AM_0
 10
593.87087737035279
 20
884.77459194029188
 30
0.0
 11
663.8708773703529
 21
884.77459194029188
 31
0.0
  0
LINE
  5
2DB4
  8
AM_0
 10
589.87093737035275
 20
886.274591940292
 30
0.0
 11
593.87087737035279
 21
886.274591940292
 31
0.0
  0
ARC
  5
2DB5
  8
AM_0
 10
586.8708773703529
 20
903.5319819402921
 30
0.0
 40
3.0
 50
0.0
 51
44.999998000001611
  0
ARC
  5
2DB6
  8
AM_0
 10
586.8708773703529
 20
903.5319819402921
 30
0.0
 40
3.0
 50
0.0
 51
45.000001000003799
  0
ARC
  5
2DB7
  8
AM_0
 10
586.8708773703529
 20
912.0172119402921
 30
0.0
 40
3.0
 50
180.00001000000091
 51
225.0
  0
ARC
  5
2DB8
  8
AM_0
 10
586.8708773703529
 20
912.0172119402921
 30
0.0
 40
3.0
 50
179.9999899999988
 51
225.0
  0
LINE
  5
2DB9
  8
AM_0
 10
584.74965737035291
 20
909.89593194029203
 30
0.0
 11
588.99233737035286
 21
905.65325194029208
 31
0.0
  0
ARC
  5
2DBA
  8
AM_0
 10
553.8708773703529
 20
954.774591940292
 30
0.0
 40
8.0
 50
0.0
 51
90.00000299999769
  0
ARC
  5
2DBB
  8
AM_0
 10
551.87087737035279
 20
972.774591940292
 30
0.0
 40
10.0
 50
180.00001000000091
 51
270.0
  0
LINE
  5
2DBC
  8
AM_0
 10
551.87087737035279
 20
962.774591940292
 30
0.0
 11
553.8708773703529
 21
962.774591940292
 31
0.0
  0
ARC
  5
2DBD
  8
AM_0
 10
578.8708773703529
 20
944.9753419402922
 30
0.0
 40
5.0
 50
0.0
 51
87.999999999996248
  0
LINE
  5
2DBE
  8
AM_0
 10
569.195947370353
 20
950.31628194029201
 30
0.0
 11
579.04543737035306
 21
949.97235194029201
 31
0.0
  0
ARC
  5
2DBF
  8
AM_0
 10
569.47505737035306
 20
958.31140194029194
 30
0.0
 40
8.0
 50
192.7707500000011
 51
267.99999999999631
  0
ARC
  5
2DC0
  8
AM_0
 10
585.87087737035267
 20
956.58337194029195
 30
0.0
 40
4.0
 50
278.2132199999964
 51
0.0
  0
ARC
  5
2DC1
  8
AM_0
 10
586.8708773703529
 20
949.65521194029202
 30
0.0
 40
3.0
 50
98.213209000002095
 51
180.00001000000091
  0
LINE
  5
2DC2
  8
AM_0
 10
607.8708773703529
 20
869.77459194029188
 30
0.0
 11
663.8708773703529
 21
869.77459194029188
 31
0.0
  0
LINE
  5
2DC3
  8
AM_0
 10
607.8708773703529
 20
857.774591940292
 30
0.0
 11
663.8708773703529
 21
857.774591940292
 31
0.0
  0
ARC
  5
2DC4
  8
AM_0
 10
607.8708773703529
 20
863.774591940292
 30
0.0
 40
6.0000037999999991
 50
90.00000299999769
 51
270.0
  0
LINE
  5
2DC5
  8
AM_0
 10
607.8708773703529
 20
869.77459194029188
 30
0.0
 11
607.8708773703529
 21
857.774591940292
 31
0.0
  0
LINE
  5
2DC6
  8
ﾁｭｳｼﾝｾﾝ1
 10
549.3708773703529
 20
978.77459194029211
 30
0.0
 11
588.3708773703529
 21
978.77459194029211
 31
0.0
  0
ARC
  5
2DC7
  8
AM_0
 10
533.8708773703529
 20
978.31842194029207
 30
0.0
 40
8.0
 50
0.0
 51
87.999999999996248
  0
LINE
  5
2DC8
  8
AM_0
 10
541.8708773703529
 20
996.32708194029203
 30
0.0
 11
541.8708773703529
 21
978.31842194029207
 31
0.0
  0
ARC
  5
2DC9
  8
AM_0
 10
546.8708773703529
 20
996.32708194029203
 30
0.0
 40
5.0
 50
87.999999999996248
 51
180.00001000000091
  0
ARC
  5
2DCA
  8
AM_0
 10
585.87087737035267
 20
995.9658219402919
 30
0.0
 40
4.0
 50
0.0
 51
87.999999999996248
  0
ARC
  5
2DCB
  8
AM_0
 10
401.87087737035279
 20
768.197580015825
 30
0.0
 40
4.0
 50
161.37443052144221
 51
180.0
1001
GENIUS_GENOBJ-N-FIL_13
1002
{
1000
OWNER
1000
GEN
1002
}
1001
GENIUS_GENODEF_13
1002
{
1000
HIER
1070
     0
1002
}
1002
{
1000
MANEDIT
1070
     0
1002
}
1002
{
1000
NOSEL
1070
     0
1002
}
1002
{
1000
BEHIND
1070
     0
1002
}
1002
{
1000
OTHER
1070
     0
1002
}
1002
{
1000
REACTOR
1002
}
  0
ARC
  5
2DCC
  8
AM_0
 10
401.87087737035279
 20
959.35163067745032
 30
0.0
 40
4.0
 50
180.0
 51
198.62692158112699
1001
GENIUS_GENODEF_13
1002
{
1000
HIER
1070
     0
1002
}
1002
{
1000
MANEDIT
1070
     0
1002
}
1002
{
1000
NOSEL
1070
     0
1002
}
1002
{
1000
BEHIND
1070
     0
1002
}
1002
{
1000
OTHER
1070
     0
1002
}
1002
{
1000
REACTOR
1002
}
1001
GENIUS_GENOBJ-N-FIL_13
1002
{
1000
OWNER
1000
GEN
1002
}
  0
LINE
  5
2DCD
  8
AM_0
 10
441.87087737035267
 20
775.71247250354816
 30
0.0
 11
455.64440365323952
 21
776.91752264365971
 31
0.0
  0
LINE
  5
2DCE
  8
AM_0
 10
441.87087737035267
 20
951.83671058566813
 30
0.0
 11
455.644121778341
 21
950.63167568407016
 31
0.0
  0
LINE
  5
2DCF
  8
ﾁｭｳｼﾝｾﾝ1
 10
418.87087737035279
 20
998.27459194029188
 30
0.0
 11
418.87087737035279
 21
959.274591940292
 31
0.0
  0
LINE
  5
2DD0
  8
ﾁｭｳｼﾝｾﾝ1
 10
399.37087737035279
 20
978.77459194029211
 30
0.0
 11
438.37087737035279
 21
978.77459194029211
 31
0.0
  0
LINE
  5
2DD1
  8
ﾁｭｳｼﾝｾﾝ1
 10
418.87087737035279
 20
768.27459194029177
 30
0.0
 11
418.87087737035279
 21
729.274591940292
 31
0.0
  0
LINE
  5
2DD2
  8
ﾁｭｳｼﾝｾﾝ1
 10
399.37087737035279
 20
748.774591940292
 30
0.0
 11
438.37087737035279
 21
748.774591940292
 31
0.0
  0
LINE
  5
2DD3
  8
ﾁｭｳｼﾝｾﾝ1
 10
568.87087737035279
 20
768.27459194029177
 30
0.0
 11
568.87087737035279
 21
729.274591940292
 31
0.0
  0
LINE
  5
2DD4
  8
ﾁｭｳｼﾝｾﾝ1
 10
549.3708773703529
 20
748.774591940292
 30
0.0
 11
588.3708773703529
 21
748.774591940292
 31
0.0
  0
LINE
  5
2DD5
  8
AM_0
 10
363.37087737035279
 20
738.77456194029185
 30
0.0
 11
378.37087737035279
 21
738.77456194029185
 31
0.0
  0
LINE
  5
2DD6
  8
AM_0
 10
363.37087737035279
 20
988.77456194029196
 30
0.0
 11
378.37087737035279
 21
988.77456194029196
 31
0.0
  0
LINE
  5
2DD7
  8
AM_0
 10
363.37087737035279
 20
988.77456194029196
 30
0.0
 11
363.37087737035279
 21
738.77456194029185
 31
0.0
  0
LINE
  5
2DD8
  8
AM_0
 10
379.37087737035279
 20
987.77456194029196
 30
0.0
 11
379.37087737035279
 21
739.77456194029185
 31
0.0
  0
LINE
  5
2DD9
  8
AM_0
 10
441.87087737035341
 20
773.30628172432978
 30
0.0
 11
382.10941037035349
 21
768.07783072432926
 31
0.0
  0
LINE
  5
2DDA
  8
AM_0
 10
442.87087737035279
 20
777.77456194029207
 30
0.0
 11
382.10941011973961
 21
772.45862191836625
 31
0.0
  0
ARC
  5
2DDB
  8
AM_0
 10
378.37087737035279
 20
739.77456194029185
 30
0.0
 40
1.0
 50
270.0
 51
0.0
  0
ARC
  5
2DDC
  8
AM_0
 10
382.37087737035353
 20
765.08924672432954
 30
0.0
 40
3.0
 50
95.0
 51
180.0
  0
ARC
  5
2DDD
  8
AM_0
 10
382.37087737035279
 20
769.47003782604816
 30
0.0
 40
3.0
 50
95.000000428873591
 51
180.0
1001
GENIUS_GENODEF_13
1002
{
1000
HIER
1070
     0
1002
}
1002
{
1000
MANEDIT
1070
     0
1002
}
1002
{
1000
NOSEL
1070
     0
1002
}
1002
{
1000
BEHIND
1070
     0
1002
}
1002
{
1000
OTHER
1070
     0
1002
}
1002
{
1000
REACTOR
1002
}
1001
GENIUS_GENOBJ-N-FIL_13
1002
{
1000
OWNER
1000
GEN
1002
}
  0
LINE
  5
2DDE
  8
AM_0
 10
441.87087737035267
 20
856.27255194029146
 30
0.0
 11
379.37087737035279
 21
854.09000384705735
 31
0.0
  0
LINE
  5
2DDF
  8
AM_0
 10
441.87087737035267
 20
852.80880194029146
 30
0.0
 11
379.37087737035279
 21
850.62625384705746
 31
0.0
  0
LINE
  5
2DE0
  8
AM_0
 10
441.87087737035267
 20
874.74032194029201
 30
0.0
 11
379.37087737035279
 21
876.92287003352635
 31
0.0
  0
LINE
  5
2DE1
  8
AM_0
 10
441.87087737035267
 20
871.276571940292
 30
0.0
 11
379.37087737035279
 21
873.45912003352635
 31
0.0
  0
LINE
  5
2DE2
  8
AM_0
 10
441.87087737035267
 20
954.24284215625437
 30
0.0
 11
382.1094103703528
 21
959.47129315625432
 31
0.0
  0
LINE
  5
2DE3
  8
AM_0
 10
442.87087737035279
 20
949.77456194029196
 30
0.0
 11
382.10941011973961
 21
955.09050196221756
 31
0.0
  0
ARC
  5
2DE4
  8
AM_0
 10
382.37087737035279
 20
958.07908605453588
 30
0.0
 40
3.0
 50
180.0
 51
264.9999995711263
1001
GENIUS_GENODEF_13
1002
{
1000
HIER
1070
     0
1002
}
1002
{
1000
MANEDIT
1070
     0
1002
}
1002
{
1000
NOSEL
1070
     0
1002
}
1002
{
1000
BEHIND
1070
     0
1002
}
1002
{
1000
OTHER
1070
     0
1002
}
1002
{
1000
REACTOR
1002
}
1001
GENIUS_GENOBJ-N-FIL_13
1002
{
1000
OWNER
1000
GEN
1002
}
  0
ARC
  5
2DE5
  8
AM_0
 10
382.37087737035279
 20
962.45987715625438
 30
0.0
 40
3.0
 50
180.0
 51
265.0
  0
ARC
  5
2DE6
  8
AM_0
 10
378.37087737035279
 20
987.77456194029196
 30
0.0
 40
1.0
 50
0.0
 51
90.0
  0
LINE
  5
2DE7
  8
AM_0
 10
441.87087737035341
 20
777.6870732692239
 30
0.0
 11
441.87087737035341
 21
773.30628172432978
 31
0.0
  0
LINE
  5
2DE8
  8
AM_0
 10
441.87087737035267
 20
874.74032194029201
 30
0.0
 11
441.87087737035267
 21
867.77453194029192
 31
0.0
  0
LINE
  5
2DE9
  8
AM_0
 10
441.87087737035267
 20
949.86205061136025
 30
0.0
 11
441.87087737035267
 21
954.24284215625437
 31
0.0
  0
LINE
  5
2DEA
  8
AM_0
 10
441.87087737035267
 20
859.77459194029234
 30
0.0
 11
441.87087737035267
 21
852.80880194029146
 31
0.0
  0
LINE
  5
2DEB
  8
AM_0
 10
593.87087737035279
 20
512.76172084100131
 30
0.0
 11
663.87087737035279
 21
512.76172084100131
 31
0.0
  0
LINE
  5
2DEC
  8
AM_0
 10
593.87087737035279
 20
470.7616908410011
 30
0.0
 11
663.87087737035279
 21
470.7616908410011
 31
0.0
  0
LINE
  5
2DED
  8
AM_0
 10
607.87087737035267
 20
515.76169084100115
 30
0.0
 11
663.87087737035279
 21
515.76169084100115
 31
0.0
  0
LINE
  5
2DEE
  8
ﾁｭｳｼﾝｾﾝ1
 10
447.71852737035272
 20
491.7616908410011
 30
0.0
 11
671.8152773703531
 21
491.7616908410011
 31
0.0
  0
LINE
  5
2DEF
  8
AM_0
 10
458.87087737035279
 20
358.53589084100122
 30
0.0
 11
458.87087737035279
 21
581.37632584100129
 31
0.0
  0
LINE
  5
2DF0
  8
AM_0
 10
589.87092737035289
 20
491.7616908410011
 30
0.0
 11
589.87092737035289
 21
458.00433584100102
 31
0.0
  0
LINE
  5
2DF1
  8
AM_0
 10
561.87087737035267
 20
395.35956084100121
 30
0.0
 11
561.87087737035267
 21
567.60712584100111
 31
0.0
  0
LINE
  5
2DF2
  8
AM_0
 10
583.87087737035279
 20
491.7616908410011
 30
0.0
 11
583.87087737035279
 21
345.50769084100119
 31
0.0
  0
LINE
  5
2DF3
  8
AM_0
 10
541.87087737035267
 20
525.93454084100108
 30
0.0
 11
541.87087737035267
 21
349.76172084100108
 31
0.0
  0
LINE
  5
2DF4
  8
AM_0
 10
492.26757737035268
 20
474.2492408410011
 30
0.0
 11
504.40622737035272
 21
460.33584584100117
 31
0.0
  0
LINE
  5
2DF5
  8
AM_0
 10
471.87087737035279
 20
375.31009084100123
 30
0.0
 11
471.87087737035279
 21
583.76167584100131
 31
0.0
  0
LINE
  5
2DF6
  8
AM_0
 10
363.37087737035279
 20
578.76169084100115
 30
0.0
 11
363.37087737035279
 21
328.7616908410011
 31
0.0
  0
LINE
  5
2DF7
  8
AM_0
 10
379.37087737035279
 20
577.76169084100127
 30
0.0
 11
379.37087737035279
 21
329.76169084100121
 31
0.0
  0
LINE
  5
2DF8
  8
AM_0
 10
442.87087737035279
 20
367.76169084100121
 30
0.0
 11
382.1094103703528
 21
362.44575084100092
 31
0.0
  0
LINE
  5
2DF9
  8
AM_0
 10
439.87087737035267
 20
391.84279084100092
 30
0.0
 11
379.37087737035279
 21
391.84279084100092
 31
0.0
  0
LINE
  5
2DFA
  8
AM_0
 10
379.37087737035279
 20
428.01478484100107
 30
0.0
 11
439.17457937035277
 21
428.01478484100107
 31
0.0
  0
LINE
  5
2DFB
  8
AM_0
 10
379.37087737035279
 20
417.82355284100112
 30
0.0
 11
439.87087737035267
 21
417.82355284100112
 31
0.0
  0
LINE
  5
2DFC
  8
ﾁｭｳｼﾝｾﾝ1
 10
351.05846801251022
 20
453.7616908410011
 30
0.0
 11
478.46642737035268
 21
453.7616908410011
 31
0.0
  0
LINE
  5
2DFD
  8
AM_0
 10
363.37087737035279
 20
328.7616908410011
 30
0.0
 11
378.37087737035279
 21
328.7616908410011
 31
0.0
  0
ARC
  5
2DFE
  8
AM_0
 10
378.37087737035279
 20
329.76169084100121
 30
0.0
 40
1.0
 50
270.0
 51
0.0
  0
ARC
  5
2DFF
  8
AM_0
 10
382.37087737035279
 20
359.45716684100103
 30
0.0
 40
3.0
 50
95.0
 51
180.0
  0
LINE
  5
2E00
  8
ﾁｭｳｼﾝｾﾝ1
 10
418.87087737035279
 20
343.72210584100122
 30
0.0
 11
418.87087737035279
 21
314.00396584100122
 31
0.0
  0
LINE
  5
2E01
  8
AM_0
 10
397.87087737035279
 20
337.76172084100108
 30
0.0
 11
397.87087737035279
 21
316.76168584100122
 31
0.0
  0
LINE
  5
2E02
  8
ｶｸﾚｾﾝ2
 10
409.37087737035279
 20
341.76168584100122
 30
0.0
 11
409.37087737035279
 21
316.76168584100122
 31
0.0
  0
LINE
  5
2E03
  8
ﾁｭｳｼﾝｾﾝ1
 10
568.87087737035279
 20
343.72210584100122
 30
0.0
 11
568.87087737035279
 21
314.00396584100122
 31
0.0
  0
LINE
  5
2E04
  8
AM_0
 10
589.87092737035289
 20
337.76172084100108
 30
0.0
 11
589.87092737035289
 21
316.76168584100122
 31
0.0
  0
LINE
  5
2E05
  8
ｶｸﾚｾﾝ2
 10
578.37087737035267
 20
341.76168584100122
 30
0.0
 11
578.37087737035267
 21
316.76168584100122
 31
0.0
  0
LINE
  5
2E06
  8
ｶｸﾚｾﾝ2
 10
559.37087737035279
 20
341.76168584100122
 30
0.0
 11
559.37087737035279
 21
316.76168584100122
 31
0.0
  0
LINE
  5
2E07
  8
ｶｸﾚｾﾝ2
 10
428.37087737035267
 20
341.76168584100122
 30
0.0
 11
428.37087737035267
 21
316.76168584100122
 31
0.0
  0
LINE
  5
2E08
  8
AM_0
 10
397.87087737035279
 20
316.76168584100122
 30
0.0
 11
589.87092737035289
 21
316.76168584100122
 31
0.0
  0
ARC
  5
2E09
  8
AM_0
 10
496.87087737035279
 20
453.7616908410011
 30
0.0
 40
10.0
 50
306.82303999999999
 51
41.102821999997772
  0
LINE
  5
2E0A
  8
AM_0
 10
476.87087737035279
 20
427.57361084100103
 30
0.0
 11
476.87087737035279
 21
381.76169084100121
 31
0.0
  0
LINE
  5
2E0B
  8
AM_0
 10
441.87087737035267
 20
428.01478484100107
 30
0.0
 11
441.87087737035267
 21
393.84279084100092
 31
0.0
  0
LINE
  5
2E0C
  8
AM_0
 10
475.82292737035289
 20
380.4095458410012
 30
0.0
 11
448.27287737035272
 21
344.86114584100108
 31
0.0
  0
LINE
  5
2E0D
  8
AM_0
 10
442.87087737035279
 20
370.26172084100108
 30
0.0
 11
455.97557737035271
 21
369.80407584100112
 31
0.0
  0
LINE
  5
2E0E
  8
AM_0
 10
401.87087737035279
 20
341.76168584100122
 30
0.0
 11
441.94962737035269
 21
341.76168584100122
 31
0.0
  0
ARC
  5
2E0F
  8
AM_0
 10
401.87087737035279
 20
337.76172084100108
 30
0.0
 40
4.000000049999997
 50
90.00000299999769
 51
180.00001000000091
  0
ARC
  5
2E10
  8
AM_0
 10
441.94962737035269
 20
349.76172084100108
 30
0.0
 40
8.0
 50
270.0
 51
322.22431999999588
  0
ARC
  5
2E11
  8
AM_0
 10
439.87087737035267
 20
393.84279084100092
 30
0.0
 40
2.0
 50
270.0
 51
0.0
  0
ARC
  5
2E12
  8
AM_0
 10
455.87087737035279
 20
366.80590584100122
 30
0.0
 40
3.0000000500000001
 50
0.0
 51
88.000000000002785
  0
ARC
  5
2E13
  8
AM_0
 10
471.87087737035279
 20
383.47238084100121
 30
0.0
 40
5.0
 50
322.22431999999588
 51
0.0
  0
LINE
  5
2E14
  8
AM_0
 10
444.87092737035272
 20
422.65127584100122
 30
0.0
 11
458.87087737035279
 21
422.65127584100122
 31
0.0
  0
LINE
  5
2E15
  8
AM_0
 10
444.87092737035272
 20
397.90875084100122
 30
0.0
 11
458.87087737035279
 21
397.90875084100122
 31
0.0
  0
LINE
  5
2E16
  8
AM_0
 10
444.87092737035272
 20
410.89914084100121
 30
0.0
 11
458.87087737035279
 21
410.89914084100121
 31
0.0
  0
LINE
  5
2E17
  8
AM_0
 10
444.87092737035272
 20
422.65127584100122
 30
0.0
 11
444.87092737035272
 21
397.90875084100122
 31
0.0
  0
ARC
  5
2E18
  8
AM_0
 10
439.87087737035267
 20
419.82355284100117
 30
0.0
 40
2.0
 50
270.0
 51
0.0
  0
LINE
  5
2E19
  8
AM_0
 10
486.87087737035267
 20
434.15136584100122
 30
0.0
 11
486.87087737035267
 21
427.57361084100103
 31
0.0
  0
LINE
  5
2E1A
  8
AM_0
 10
476.87087737035279
 20
427.57361084100103
 30
0.0
 11
486.87087737035267
 21
427.57361084100103
 31
0.0
  0
LINE
  5
2E1B
  8
AM_0
 10
471.87087737035279
 20
437.15140084100102
 30
0.0
 11
483.87087737035279
 21
437.15140084100102
 31
0.0
  0
LINE
  5
2E1C
  8
AM_0
 10
458.87087737035279
 20
438.74991084100122
 30
0.0
 11
471.87087737035279
 21
438.74991084100122
 31
0.0
  0
LINE
  5
2E1D
  8
AM_0
 10
491.37087737035267
 20
466.24951084100121
 30
0.0
 11
491.37087737035267
 21
439.13736084100123
 31
0.0
  0
LINE
  5
2E1E
  8
AM_0
 10
489.6285273703528
 20
435.8468008410012
 30
0.0
 11
502.86437737035271
 21
445.75677584100129
 31
0.0
  0
ARC
  5
2E1F
  8
AM_0
 10
483.87087737035279
 20
434.15136584100122
 30
0.0
 40
3.0000000500000001
 50
0.0
 51
90.00000299999769
  0
ARC
  5
2E20
  8
AM_0
 10
553.87087737035267
 20
395.35956084100121
 30
0.0
 40
8.0
 50
270.0
 51
0.0
  0
LINE
  5
2E21
  8
AM_0
 10
549.87092737035289
 20
341.76168584100122
 30
0.0
 11
585.87087737035267
 21
341.76168584100122
 31
0.0
  0
ARC
  5
2E22
  8
AM_0
 10
549.87092737035289
 20
349.76172084100108
 30
0.0
 40
8.0
 50
180.00001000000091
 51
270.0
  0
LINE
  5
2E23
  8
AM_0
 10
553.87087737035267
 20
387.35956084100121
 30
0.0
 11
545.35417737035255
 21
387.35956084100121
 31
0.0
  0
ARC
  5
2E24
  8
AM_0
 10
585.87087737035267
 20
337.76172084100108
 30
0.0
 40
4.000000049999997
 50
0.0
 51
90.00000299999769
  0
ARC
  5
2E25
  8
AM_0
 10
587.87087737035279
 20
345.50769084100119
 30
0.0
 40
4.000000049999997
 50
179.9999899999988
 51
255.52248999999699
  0
ARC
  5
2E26
  8
AM_0
 10
586.87087737035267
 20
458.00433584100102
 30
0.0
 40
3.0000000500000001
 50
315.0
 51
0.0
  0
ARC
  5
2E27
  8
AM_0
 10
586.87087737035267
 20
449.51907584100132
 30
0.0
 40
3.0000000500000001
 50
135.0
 51
180.00001000000091
  0
LINE
  5
2E28
  8
AM_0
 10
584.74952737035267
 20
451.6403808410011
 30
0.0
 11
588.99222737035245
 21
455.88302584100097
 31
0.0
  0
LINE
  5
2E29
  8
AM_0
 10
440.87087737035267
 20
539.69724784100106
 30
0.0
 11
379.37087737035279
 21
539.69724784100106
 31
0.0
  0
LINE
  5
2E2A
  8
AM_0
 10
441.87087737035267
 20
552.76169084100115
 30
0.0
 11
382.1094103703528
 21
557.9901418410011
 31
0.0
  0
ARC
  5
2E2B
  8
AM_0
 10
382.37087737035279
 20
560.97872584100105
 30
0.0
 40
3.0
 50
180.0
 51
265.0
  0
LINE
  5
2E2C
  8
AM_0
 10
363.37087737035279
 20
578.76169084100115
 30
0.0
 11
378.37087737035279
 21
578.76169084100115
 31
0.0
  0
ARC
  5
2E2D
  8
AM_0
 10
378.37087737035279
 20
577.76169084100127
 30
0.0
 40
1.0
 50
0.0
 51
90.0
  0
ARC
  5
2E2E
  8
AM_0
 10
455.87087737035279
 20
604.26167584100119
 30
0.0
 40
20.500000499999992
 50
304.61364000000231
 51
235.3863500000021
  0
CIRCLE
  5
2E2F
  8
AM_0
 10
455.87087737035279
 20
604.26167584100119
 30
0.0
 40
12.5
  0
LINE
  5
2E30
  8
AM_0
 10
488.80112737035267
 20
577.88427584100123
 30
0.0
 11
554.15007737035273
 21
575.60222584100131
 31
0.0
  0
ARC
  5
2E31
  8
AM_0
 10
496.87087737035279
 20
561.58187584100119
 30
0.0
 40
10.0
 50
288.4682099999992
 51
59.833878000001903
  0
LINE
  5
2E32
  8
AM_0
 10
442.87087737035279
 20
539.76169084100115
 30
0.0
 11
442.87087737035279
 21
367.76169084100121
 31
0.0
  0
LINE
  5
2E33
  8
AM_0
 10
444.87092737035272
 20
537.33152584100105
 30
0.0
 11
444.87092737035272
 21
581.76167584100131
 31
0.0
  0
ARC
  5
2E34
  8
AM_0
 10
455.87087737035279
 20
540.71752584100113
 30
0.0
 40
3.0000000500000001
 50
271.9999999999971
 51
0.0
  0
LINE
  5
2E35
  8
AM_0
 10
486.87087737035267
 20
471.7734708410012
 30
0.0
 11
486.87087737035267
 21
555.0859258410012
 31
0.0
  0
LINE
  5
2E36
  8
AM_0
 10
444.87082737035291
 20
537.33152584100105
 30
0.0
 11
455.97547737035268
 21
537.71932584100114
 31
0.0
  0
LINE
  5
2E37
  8
AM_0
 10
442.87077737035281
 20
537.26167584100108
 30
0.0
 11
444.87082737035291
 21
537.33152584100105
 31
0.0
  0
LINE
  5
2E38
  8
AM_0
 10
471.87087737035279
 20
468.7734708410012
 30
0.0
 11
483.87087737035279
 21
468.7734708410012
 31
0.0
  0
LINE
  5
2E39
  8
AM_0
 10
458.87087737035279
 20
468.7734708410012
 30
0.0
 11
471.87087737035279
 21
468.7734708410012
 31
0.0
  0
ARC
  5
2E3A
  8
AM_0
 10
490.0069273703528
 20
472.27698084100132
 30
0.0
 40
3.0000000500000001
 50
41.102821999997772
 51
90.00000299999769
  0
ARC
  5
2E3B
  8
AM_0
 10
483.87087737035279
 20
471.7734708410012
 30
0.0
 40
3.0000000500000001
 50
270.0
 51
0.0
  0
LINE
  5
2E3C
  8
AM_0
 10
448.36752737035278
 20
590.37632584100129
 30
0.0
 11
455.87092737035272
 21
591.76167584100119
 31
0.0
  0
LINE
  5
2E3D
  8
AM_0
 10
448.05372737035287
 20
590.26172584100095
 30
0.0
 11
463.687977370353
 21
590.26172584100095
 31
0.0
  0
LINE
  5
2E3E
  8
AM_0
 10
445.54802737035271
 20
583.26172584100095
 30
0.0
 11
460.2034773703528
 21
583.26172584100095
 31
0.0
  0
LINE
  5
2E3F
  8
AM_0
 10
441.87087737035267
 20
539.76169084100115
 30
0.0
 11
441.87087737035267
 21
552.76169084100115
 31
0.0
  0
LINE
  5
2E40
  8
AM_0
 10
441.87087737035267
 20
539.76169084100115
 30
0.0
 11
442.87087737035279
 21
539.76169084100115
 31
0.0
  0
ARC
  5
2E41
  8
AM_0
 10
448.54902737035269
 20
589.39292584100133
 30
0.0
 40
1.0
 50
100.4607200000025
 51
164.99999000000491
  0
ARC
  5
2E42
  8
AM_0
 10
441.95387737035281
 20
584.09822584100095
 30
0.0
 40
4.000000049999997
 50
347.9293300000017
 51
55.386359000001512
  0
ARC
  5
2E43
  8
AM_0
 10
446.87087737035279
 20
581.76167584100131
 30
0.0
 40
2.0000000500000001
 50
131.40962000000101
 51
180.00001000000091
  0
LINE
  5
2E44
  8
AM_0
 10
445.87082737035269
 20
583.26167584100097
 30
0.0
 11
447.5830273703528
 21
589.65177584100115
 31
0.0
  0
LINE
  5
2E45
  8
AM_0
 10
492.06992737035279
 20
575.93867584100133
 30
0.0
 11
501.89597737035268
 21
570.2276258410011
 31
0.0
  0
LINE
  5
2E46
  8
AM_0
 10
471.87087737035279
 20
558.08592584100074
 30
0.0
 11
483.87087737035279
 21
558.08592584100074
 31
0.0
  0
LINE
  5
2E47
  8
AM_0
 10
460.12687737035282
 20
575.00527584100075
 30
0.0
 11
486.87087737035267
 21
575.00527584100075
 31
0.0
  0
LINE
  5
2E48
  8
AM_0
 10
458.87087737035279
 20
558.08592584100074
 30
0.0
 11
471.87087737035279
 21
558.08592584100074
 31
0.0
  0
ARC
  5
2E49
  8
AM_0
 10
483.87087737035279
 20
555.0859258410012
 30
0.0
 40
3.0000000500000001
 50
0.0
 51
90.00000299999769
  0
LINE
  5
2E4A
  8
AM_0
 10
491.37087737035267
 20
553.23737584100093
 30
0.0
 11
491.37087737035267
 21
574.41057584100133
 31
0.0
  0
LINE
  5
2E4B
  8
AM_0
 10
488.23727737035279
 20
548.15547584100113
 30
0.0
 11
500.03867737035267
 21
552.09687584100107
 31
0.0
  0
ARC
  5
2E4C
  8
AM_0
 10
490.88322737035247
 20
552.20202584100105
 30
0.0
 40
3.0000000500000001
 50
270.0
 51
288.46821999999821
  0
LINE
  5
2E4D
  8
AM_0
 10
471.87087737035279
 20
583.76167584100131
 30
0.0
 11
484.94072737035259
 21
583.30532584100115
 31
0.0
  0
LINE
  5
2E4E
  8
AM_0
 10
471.87087737035279
 20
576.34497584100086
 30
0.0
 11
490.56237737035281
 21
576.34497584100086
 31
0.0
  0
LINE
  5
2E4F
  8
AM_0
 10
460.80097737035271
 20
583.37512584100114
 30
0.0
 11
471.87077737035293
 21
583.76172584100129
 31
0.0
  0
LINE
  5
2E50
  8
AM_0
 10
458.87087737035279
 20
576.34497584100086
 30
0.0
 11
471.87087737035279
 21
576.34497584100086
 31
0.0
  0
LINE
  5
2E51
  8
AM_0
 10
465.7937273703526
 20
583.54937584100094
 30
0.0
 11
464.1586273703528
 21
589.65172584100094
 31
0.0
  0
ARC
  5
2E52
  8
AM_0
 10
463.19277737035281
 20
589.39292584100133
 30
0.0
 40
1.0
 50
15.000000000000741
 51
79.539281000002006
  0
ARC
  5
2E53
  8
AM_0
 10
460.87087737035267
 20
581.37632584100129
 30
0.0
 40
2.0000000500000001
 50
91.999998000000545
 51
180.00001000000091
  0
LINE
  5
2E54
  8
AM_0
 10
455.8708273703524
 20
591.76172584100095
 30
0.0
 11
463.3742273703528
 21
590.37632584100129
 31
0.0
  0
ARC
  5
2E55
  8
AM_0
 10
469.78782737035272
 20
584.09822584100095
 30
0.0
 40
4.000000049999997
 50
124.6136499999977
 51
187.86821999999509
  0
LINE
  5
2E56
  8
AM_0
 10
469.87092737035272
 20
583.76167584100131
 30
0.0
 11
471.87087737035279
 21
583.76167584100131
 31
0.0
  0
ARC
  5
2E57
  8
AM_0
 10
488.87087737035279
 20
579.88307584100119
 30
0.0
 40
2.0000000500000001
 50
179.9999899999988
 51
268.00000999999861
  0
ARC
  5
2E58
  8
AM_0
 10
490.56237737035281
 20
573.34502584100085
 30
0.0
 40
3.0000000500000001
 50
59.833878000001903
 51
90.00000299999769
  0
LINE
  5
2E59
  8
AM_0
 10
486.87087737035267
 20
576.34497584100086
 30
0.0
 11
486.87087737035267
 21
581.30652584100085
 31
0.0
  0
ARC
  5
2E5A
  8
AM_0
 10
484.87092737035272
 20
581.30652584100085
 30
0.0
 40
2.0000000500000001
 50
0.0
 51
88.000000000002785
  0
ARC
  5
2E5B
  8
AM_0
 10
586.87087737035267
 20
540.00432584100122
 30
0.0
 40
3.0000000500000001
 50
179.9999899999988
 51
225.0
  0
LINE
  5
2E5C
  8
AM_0
 10
583.87087737035279
 20
491.7616908410011
 30
0.0
 11
583.87087737035279
 21
548.76167584100131
 31
0.0
  0
ARC
  5
2E5D
  8
AM_0
 10
551.87087737035279
 20
525.93454084100108
 30
0.0
 40
10.0
 50
90.00000299999769
 51
180.00001000000091
  0
LINE
  5
2E5E
  8
AM_0
 10
556.92917737035282
 20
535.93452584100123
 30
0.0
 11
551.87087737035279
 21
535.93452584100123
 31
0.0
  0
LINE
  5
2E5F
  8
AM_0
 10
589.87092737035289
 20
491.7616908410011
 30
0.0
 11
589.87092737035289
 21
531.51907584100115
 31
0.0
  0
LINE
  5
2E60
  8
AM_0
 10
593.87087737035279
 20
469.26169084100121
 30
0.0
 11
593.87087737035279
 21
514.26169084100115
 31
0.0
  0
LINE
  5
2E61
  8
AM_0
 10
589.87092737035289
 20
469.26169084100121
 30
0.0
 11
593.87087737035279
 21
469.26169084100121
 31
0.0
  0
LINE
  5
2E62
  8
AM_0
 10
589.87092737035289
 20
514.26169084100115
 30
0.0
 11
593.87087737035279
 21
514.26169084100115
 31
0.0
  0
ARC
  5
2E63
  8
AM_0
 10
586.87087737035267
 20
531.51907584100115
 30
0.0
 40
3.0000000500000001
 50
0.0
 51
45.000001000003799
  0
LINE
  5
2E64
  8
AM_0
 10
584.74947737035279
 20
537.88307584100107
 30
0.0
 11
588.99217737035235
 21
533.64037584100106
 31
0.0
  0
LINE
  5
2E65
  8
AM_0
 10
607.87087737035267
 20
515.76169084100115
 30
0.0
 11
607.87087737035267
 21
512.76172084100131
 31
0.0
  0
ARC
  5
2E66
  8
AM_0
 10
553.87087737035267
 20
567.60712584100111
 30
0.0
 40
8.0
 50
0.0
 51
88.000000000002785
  0
ARC
  5
2E67
  8
AM_0
 10
569.87092737035289
 20
559.76172584100118
 30
0.0
 40
8.0
 50
180.00001000000091
 51
270.0
  0
LINE
  5
2E68
  8
AM_0
 10
569.87092737035289
 20
551.76167584100131
 30
0.0
 11
580.87087737035279
 21
551.76167584100131
 31
0.0
  0
ARC
  5
2E69
  8
AM_0
 10
580.87087737035279
 20
548.76167584100131
 30
0.0
 40
3.0000000500000001
 50
0.0
 51
90.00000299999769
  0
LINE
  5
2E6A
  8
ﾁｭｳｼﾝｾﾝ1
 10
910.21969452438873
 20
633.3974201647809
 30
0.0
 11
910.21969452438873
 21
315.7921158410013
 31
0.0
  0
LINE
  5
2E6B
  8
AM_0
 10
1047.290774524387
 20
460.83276584100111
 30
0.0
 11
1033.950899524388
 21
474.17264084100123
 31
0.0
  0
LINE
  5
2E6C
  8
AM_0
 10
773.14862952438853
 20
460.83276584100111
 30
0.0
 11
786.4885295243887
 21
474.17267084100121
 31
0.0
  0
LINE
  5
2E6D
  8
AM_0
 10
786.67472952438902
 20
469.15329084100131
 30
0.0
 11
770.25802952438914
 21
337.37982084100122
 31
0.0
  0
LINE
  5
2E6E
  8
AM_0
 10
816.21969452438896
 20
535.39652584100122
 30
0.0
 11
816.21969452438896
 21
419.75183084100092
 31
0.0
  0
LINE
  5
2E6F
  8
AM_0
 10
1033.764649524388
 20
469.15329084100131
 30
0.0
 11
1050.1813345243891
 21
337.3798508410012
 31
0.0
  0
LINE
  5
2E70
  8
AM_0
 10
1004.219694524389
 20
535.39652584100122
 30
0.0
 11
1004.219694524389
 21
416.14706584100111
 31
0.0
  0
CIRCLE
  5
2E71
  8
AM_0
 10
910.21969452438873
 20
491.7616908410011
 30
0.0
 40
41.000000499999992
  0
ARC
  5
2E72
  8
AM_0
 10
910.21969452438873
 20
463.7616908410011
 30
0.0
 40
88.0
 50
0.0
 51
186.52498000000369
  0
LINE
  5
2E73
  8
ﾁｭｳｼﾝｾﾝ1
 10
765.95417952438902
 20
453.7616908410011
 30
0.0
 11
1054.0741595243881
 21
453.7616908410011
 31
0.0
  0
LINE
  5
2E74
  8
AM_0
 10
995.21969452438873
 20
316.76168584100122
 30
0.0
 11
1050.219699524388
 21
316.76168584100122
 31
0.0
  0
LINE
  5
2E75
  8
AM_0
 10
1006.219694524389
 20
341.76168584100122
 30
0.0
 11
1045.219699524388
 21
341.76168584100122
 31
0.0
  0
LINE
  5
2E76
  8
AM_0
 10
770.21972952438853
 20
316.76168584100122
 30
0.0
 11
825.21969452438907
 21
316.76168584100122
 31
0.0
  0
LINE
  5
2E77
  8
AM_0
 10
775.21972952438853
 20
341.76168584100122
 30
0.0
 11
817.51967952438895
 21
341.76168584100122
 31
0.0
  0
LINE
  5
2E78
  8
AM_0
 10
770.21972952438853
 20
336.76168584100122
 30
0.0
 11
770.21972952438853
 21
316.76168584100122
 31
0.0
  0
LINE
  5
2E79
  8
ｶｸﾚｾﾝ2
 10
785.71972952438853
 20
341.76168584100122
 30
0.0
 11
785.71972952438853
 21
316.76168584100122
 31
0.0
  0
LINE
  5
2E7A
  8
ｶｸﾚｾﾝ2
 10
804.71967952438865
 20
341.76168584100122
 30
0.0
 11
804.71967952438865
 21
316.76168584100122
 31
0.0
  0
LINE
  5
2E7B
  8
ﾁｭｳｼﾝｾﾝ1
 10
795.21972952438853
 20
346.26959084100122
 30
0.0
 11
795.21972952438853
 21
311.8700558410012
 31
0.0
  0
ARC
  5
2E7C
  8
AM_0
 10
775.21972952438853
 20
336.76168584100122
 30
0.0
 40
5.0
 50
90.00000299999769
 51
180.00001000000091
  0
LINE
  5
2E7D
  8
AM_0
 10
773.14862952438853
 20
446.69064584100113
 30
0.0
 11
780.95957952438903
 21
438.87967084100097
 31
0.0
  0
ARC
  5
2E7E
  8
AM_0
 10
776.33667952438861
 20
436.4315208410012
 30
0.0
 40
5.0
 50
7.375508100000534
 51
45.000001000003799
  0
ARC
  5
2E7F
  8
AM_0
 10
780.21972952438921
 20
453.7616908410011
 30
0.0
 40
10.0
 50
135.0
 51
225.0
  0
ARC
  5
2E80
  8
AM_0
 10
910.21969452438873
 20
453.7616908410011
 30
0.0
 40
130.0
 50
187.37550999999999
 51
189.62445999999801
  0
ARC
  5
2E81
  8
AM_0
 10
777.42407952438907
 20
435.34411584100133
 30
0.0
 40
5.0
 50
352.89851999999883
 51
45.000001000003799
  0
LINE
  5
2E82
  8
AM_0
 10
821.51971452438863
 20
337.76172084100108
 30
0.0
 11
821.51971452438863
 21
316.76168584100122
 31
0.0
  0
ARC
  5
2E83
  8
AM_0
 10
827.24151452438878
 20
329.59753584100122
 30
0.0
 40
8.0
 50
279.4882999999972
 51
357.00553999999892
  0
LINE
  5
2E84
  8
AM_0
 10
998.91967952438915
 20
337.76172084100108
 30
0.0
 11
998.91967952438915
 21
316.76168584100122
 31
0.0
  0
ARC
  5
2E85
  8
AM_0
 10
993.19784452438876
 20
329.59753584100122
 30
0.0
 40
8.0
 50
182.9944600000008
 51
260.51170000000258
  0
LINE
  5
2E86
  8
ｶｸﾚｾﾝ2
 10
1015.719699524388
 20
341.76168584100122
 30
0.0
 11
1015.719699524388
 21
316.76168584100122
 31
0.0
  0
LINE
  5
2E87
  8
ﾁｭｳｼﾝｾﾝ1
 10
1025.219699524388
 20
345.61184584100118
 30
0.0
 11
1025.219699524388
 21
309.78616084100122
 31
0.0
  0
LINE
  5
2E88
  8
AM_0
 10
829.21966452438869
 20
321.76168584100122
 30
0.0
 11
991.58547952438835
 21
321.76168584100122
 31
0.0
  0
LINE
  5
2E89
  8
AM_0
 10
825.21969452438907
 20
317.76171584100109
 30
0.0
 11
825.21969452438907
 21
316.76168584100122
 31
0.0
  0
ARC
  5
2E8A
  8
AM_0
 10
829.21966452438869
 20
317.76171584100109
 30
0.0
 40
4.000000049999997
 50
99.488295999996765
 51
180.00001000000091
  0
ARC
  5
2E8B
  8
AM_0
 10
991.21969452438884
 20
317.76171584100109
 30
0.0
 40
4.000000049999997
 50
0.0
 51
80.511702000002984
  0
LINE
  5
2E8C
  8
AM_0
 10
995.21969452438873
 20
317.76171584100109
 30
0.0
 11
995.21969452438873
 21
316.76168584100122
 31
0.0
  0
LINE
  5
2E8D
  8
AM_0
 10
843.21969452438907
 20
336.76168584100122
 30
0.0
 11
977.21969452438873
 21
336.76168584100122
 31
0.0
  0
LINE
  5
2E8E
  8
AM_0
 10
839.86523452438848
 20
331.49237084100122
 30
0.0
 11
980.57415952438873
 21
331.49237084100122
 31
0.0
  0
LINE
  5
2E8F
  8
AM_0
 10
822.21969452438896
 20
453.7616908410011
 30
0.0
 11
822.21969452438896
 21
349.76172084100108
 31
0.0
  0
ARC
  5
2E90
  8
AM_0
 10
910.21969452438873
 20
419.75183084100092
 30
0.0
 40
93.999994999999984
 50
179.9999899999988
 51
200.58196000000129
  0
ARC
  5
2E91
  8
AM_0
 10
843.21969452438907
 20
328.76168584100111
 30
0.0
 40
8.0
 50
90.00000299999769
 51
177.00553999999889
  0
ARC
  5
2E92
  8
AM_0
 10
839.86523452438848
 20
326.49237084100122
 30
0.0
 40
5.0
 50
90.00000299999769
 51
166.1807799999996
  0
ARC
  5
2E93
  8
AM_0
 10
817.51967952438895
 20
337.76172084100108
 30
0.0
 40
4.000000049999997
 50
0.0
 51
90.00000299999769
  0
ARC
  5
2E94
  8
AM_0
 10
814.21966452438846
 20
349.76172084100108
 30
0.0
 40
8.0
 50
270.0
 51
0.0
  0
ARC
  5
2E95
  8
AM_0
 10
910.21969452438873
 20
419.75183084100092
 30
0.0
 40
93.999994999999984
 50
339.95001999999999
 51
20.049975999999841
  0
LINE
  5
2E96
  8
AM_0
 10
998.21969452438861
 20
463.7616908410011
 30
0.0
 11
998.21969452438861
 21
349.76172084100108
 31
0.0
  0
ARC
  5
2E97
  8
AM_0
 10
1002.919679524389
 20
337.76172084100108
 30
0.0
 40
4.000000049999997
 50
90.00000299999769
 51
180.00001000000091
  0
ARC
  5
2E98
  8
AM_0
 10
1006.219694524389
 20
349.76172084100108
 30
0.0
 40
8.0
 50
180.00001000000091
 51
270.0
  0
ARC
  5
2E99
  8
AM_0
 10
980.57415952438873
 20
326.49237084100122
 30
0.0
 40
5.0
 50
13.819217000001251
 51
90.00000299999769
  0
ARC
  5
2E9A
  8
AM_0
 10
977.21969452438873
 20
328.76168584100111
 30
0.0
 40
8.0
 50
2.9944644000003162
 51
90.00000299999769
  0
ARC
  5
2E9B
  8
AM_0
 10
1003.219694524389
 20
385.8107308410012
 30
0.0
 40
5.0
 50
159.95003000000011
 51
180.00001000000091
  0
ARC
  5
2E9C
  8
AM_0
 10
1003.219694524389
 20
453.69296584100113
 30
0.0
 40
5.0
 50
179.9999899999988
 51
200.04996999999969
  0
LINE
  5
2E9D
  8
ｶｸﾚｾﾝ2
 10
1034.719699524388
 20
341.76168584100122
 30
0.0
 11
1034.719699524388
 21
316.76168584100122
 31
0.0
  0
LINE
  5
2E9E
  8
AM_0
 10
1050.219699524388
 20
336.76168584100122
 30
0.0
 11
1050.219699524388
 21
316.76168584100122
 31
0.0
  0
ARC
  5
2E9F
  8
AM_0
 10
1045.219699524388
 20
336.76168584100122
 30
0.0
 40
5.0
 50
0.0
 51
90.00000299999769
  0
ARC
  5
2EA0
  8
AM_0
 10
1040.2196995243869
 20
453.7616908410011
 30
0.0
 40
10.0
 50
315.0
 51
45.000001000003799
  0
LINE
  5
2EA1
  8
AM_0
 10
1047.290774524387
 20
446.69064584100113
 30
0.0
 11
1039.479799524388
 21
438.87964084100122
 31
0.0
  0
ARC
  5
2EA2
  8
AM_0
 10
910.21969452438873
 20
453.7616908410011
 30
0.0
 40
130.0
 50
350.37554999999838
 51
352.62448999999958
  0
ARC
  5
2EA3
  8
AM_0
 10
1043.015319524387
 20
435.34411584100133
 30
0.0
 40
5.0
 50
135.0
 51
187.10148999999521
  0
ARC
  5
2EA4
  8
AM_0
 10
1044.102724524389
 20
436.4315208410012
 30
0.0
 40
5.0
 50
135.0
 51
172.6244899999997
  0
ARC
  5
2EA5
  8
AM_0
 10
910.21969452438873
 20
453.7616908410011
 30
0.0
 40
124.5
 50
7.1014839000006411
 51
172.89851999999871
  0
ARC
  5
2EA6
  8
AM_0
 10
910.21969452438873
 20
453.7616908410011
 30
0.0
 40
130.0
 50
7.375507199997366
 51
52.624493999996417
  0
ARC
  5
2EA7
  8
AM_0
 10
910.21969452438873
 20
453.7616908410011
 30
0.0
 40
130.0
 50
127.3755000000037
 51
172.6244899999997
  0
LINE
  5
2EA8
  8
AM_0
 10
663.87087737035279
 20
470.7616908410011
 30
0.0
 11
663.87087737035279
 21
515.76169084100115
 31
0.0
  0
ARC
  5
2EA9
  8
AM_0
 10
776.33667952438861
 20
471.09186084100122
 30
0.0
 40
5.0
 50
315.0
 51
352.62448999999958
  0
ARC
  5
2EAA
  8
AM_0
 10
782.95297952438841
 20
477.70819084100123
 30
0.0
 40
5.0
 50
315.0
 51
349.34382000000329
  0
LINE
  5
2EAB
  8
AM_0
 10
906.21969452438861
 20
620.76172584100095
 30
0.0
 11
906.21969452438861
 21
587.26172584100095
 31
0.0
  0
LINE
  5
2EAC
  8
AM_0
 10
914.21966452438846
 20
620.76172584100095
 30
0.0
 11
914.21966452438846
 21
587.26172584100095
 31
0.0
  0
ARC
  5
2EAD
  8
AM_0
 10
910.21969452438873
 20
491.7616908410011
 30
0.0
 40
20.9999985
 50
106.6015499999988
 51
73.398451999997818
  0
LINE
  5
2EAE
  8
ﾁｭｳｼﾝｾﾝ1
 10
837.6169458874283
 20
491.7616908410011
 30
0.0
 11
982.8224431613495
 21
491.7616908410011
 31
0.0
  0
ARC
  5
2EAF
  8
AM_0
 10
910.21969452438873
 20
453.7616908410011
 30
0.0
 40
130.0
 50
67.375506000002574
 51
112.6244900000042
  0
LINE
  5
2EB0
  8
AM_0
 10
920.18829452438933
 20
583.37892584100098
 30
0.0
 11
918.50750452438876
 21
589.65177584100115
 31
0.0
  0
CIRCLE
  5
2EB1
  8
AM_0
 10
910.21969452438873
 20
491.7616908410011
 30
0.0
 40
3.5000000500000001
  0
CIRCLE
  5
2EB2
  8
AM_5
 10
910.21969452438873
 20
491.7616908410011
 30
0.0
 40
5.0
  0
LINE
  5
2EB3
  8
AM_0
 10
904.21966452438869
 20
515.76169084100115
 30
0.0
 11
916.21969452438884
 21
515.76169084100115
 31
0.0
  0
LINE
  5
2EB4
  8
AM_0
 10
904.21966452438869
 20
507.76172084100108
 30
0.0
 11
916.21969452438884
 21
507.76172084100108
 31
0.0
  0
LINE
  5
2EB5
  8
AM_0
 10
904.21966452438869
 20
515.76169084100115
 30
0.0
 11
904.21966452438869
 21
507.76172084100108
 31
0.0
  0
LINE
  5
2EB6
  8
AM_0
 10
916.21969452438884
 20
515.76169084100115
 30
0.0
 11
916.21969452438884
 21
507.76172084100108
 31
0.0
  0
LINE
  5
2EB7
  8
AM_0
 10
847.80791952438892
 20
576.00427584100112
 30
0.0
 11
866.03054452438903
 21
571.12152584100113
 31
0.0
  0
ARC
  5
2EB8
  8
AM_0
 10
845.21969452438896
 20
566.34497584100075
 30
0.0
 40
10.0
 50
74.999998999997473
 51
164.99999000000491
  0
LINE
  5
2EB9
  8
AM_0
 10
835.56048452438915
 20
568.9332258410011
 30
0.0
 11
830.67773452438848
 21
550.71057584100117
 31
0.0
  0
ARC
  5
2EBA
  8
AM_0
 10
828.26980452438897
 20
561.04272584100113
 30
0.0
 40
5.0
 50
307.37551000000462
 51
344.99999999999909
  0
ARC
  5
2EBB
  8
AM_0
 10
825.84804952438833
 20
552.00462584100114
 30
0.0
 40
5.0
 50
310.6561800000004
 51
344.99999999999909
  0
ARC
  5
2EBC
  8
AM_0
 10
858.28655952438862
 20
578.37287584100113
 30
0.0
 40
5.0
 50
254.9999999999992
 51
292.6244900000043
  0
ARC
  5
2EBD
  8
AM_0
 10
867.32461452438861
 20
575.95112584100093
 30
0.0
 40
5.0
 50
254.9999999999992
 51
289.34382000000068
  0
LINE
  5
2EBE
  8
AM_0
 10
906.21969452438861
 20
591.02312584100116
 30
0.0
 11
902.71627952438871
 21
590.37632584100129
 31
0.0
  0
ARC
  5
2EBF
  8
AM_0
 10
904.21966452438869
 20
587.26172584100095
 30
0.0
 40
2.0000000500000001
 50
270.0
 51
0.0
  0
LINE
  5
2EC0
  8
AM_0
 10
900.25115952438864
 20
583.37897584100131
 30
0.0
 11
901.931944524389
 21
589.65177584100115
 31
0.0
  0
ARC
  5
2EC1
  8
AM_0
 10
902.89785452438889
 20
589.39292584100133
 30
0.0
 40
1.0
 50
100.4607200000025
 51
164.99999000000491
  0
LINE
  5
2EC2
  8
AM_0
 10
914.21966452438846
 20
591.02317584100115
 30
0.0
 11
917.7230845243887
 21
590.37632584100129
 31
0.0
  0
ARC
  5
2EC3
  8
AM_0
 10
916.21969452438884
 20
587.26172584100095
 30
0.0
 40
2.0000000500000001
 50
179.9999899999988
 51
270.0
  0
ARC
  5
2EC4
  8
AM_0
 10
917.54156452438872
 20
589.39292584100133
 30
0.0
 40
1.0
 50
15.000000000000741
 51
79.539281000002006
  0
ARC
  5
2EC5
  8
AM_0
 10
975.21969452438884
 20
566.34497584100075
 30
0.0
 40
10.0
 50
15.000000000000741
 51
105.0000000000007
  0
LINE
  5
2EC6
  8
AM_0
 10
972.63149952438869
 20
576.00422584100124
 30
0.0
 11
954.40887452438915
 21
571.12147584100103
 31
0.0
  0
ARC
  5
2EC7
  8
AM_0
 10
962.15283452438905
 20
578.37287584100113
 30
0.0
 40
5.0
 50
247.37550999999559
 51
285.00000000000063
  0
ARC
  5
2EC8
  8
AM_0
 10
953.11477452438919
 20
575.95112584100093
 30
0.0
 40
5.0
 50
250.65617999999921
 51
285.00000000000063
  0
LINE
  5
2EC9
  8
AM_0
 10
984.87896952438871
 20
568.93317584100123
 30
0.0
 11
989.761689524389
 21
550.71057584100117
 31
0.0
  0
ARC
  5
2ECA
  8
AM_0
 10
992.16958452438871
 20
561.04272584100113
 30
0.0
 40
5.0
 50
195.00000999999489
 51
232.62449999999609
  0
ARC
  5
2ECB
  8
AM_0
 10
994.59133952438913
 20
552.00462584100114
 30
0.0
 40
5.0
 50
195.00000999999489
 51
229.34381999999951
  0
ARC
  5
2ECC
  8
AM_0
 10
910.21969452438873
 20
620.76172584100095
 30
0.0
 40
4.000000049999997
 50
359.999989999999
 51
179.9999899999988
  0
ARC
  5
2ECD
  8
AM_0
 10
1044.102724524389
 20
471.09186084100122
 30
0.0
 40
5.0
 50
187.37550999999999
 51
225.0
  0
ARC
  5
2ECE
  8
AM_0
 10
1037.486419524389
 20
477.70819084100123
 30
0.0
 40
5.0
 50
190.6561799999964
 51
225.0
  0
TEXT
  5
30BA
  8
AM_0
 10
786.11410868824942
 20
916.21455002581888
 30
0.0
 40
15.0
  1
VX22-025A~VX22-030A
  0
ENDSEC
  0
EOF
