  0
SECTION
  2
HEADER
  9
$ACADVER
  1
AC1009
  9
$INSBASE
 10
0.0
 20
0.0
 30
0.0
  9
$EXTMIN
 10
333.57208621987593
 20
316.71999462793428
 30
-0.0000000000112498
  9
$EXTMAX
 10
1098.912509038825
 20
1016.03736425892
 30
0.0000000000002956
  9
$LIMMIN
 10
0.0
 20
0.0
  9
$LIMMAX
 10
1422.5
 20
925.0
  9
$ORTHOMODE
 70
     0
  9
$REGENMODE
 70
     1
  9
$FILLMODE
 70
     1
  9
$QTEXTMODE
 70
     0
  9
$MIRRTEXT
 70
     1
  9
$DRAGMODE
 70
     2
  9
$LTSCALE
 40
5.0
  9
$OSMODE
 70
   551
  9
$ATTMODE
 70
     1
  9
$TEXTSIZE
 40
2.5
  9
$TRACEWID
 40
1.0
  9
$TEXTSTYLE
  7
STANDARD
  9
$CLAYER
  8
AM_0
  9
$CELTYPE
  6
BYLAYER
  9
$CECOLOR
 62
   256
  9
$DIMSCALE
 40
1.0
  9
$DIMASZ
 40
2.5
  9
$DIMEXO
 40
1.0
  9
$DIMDLI
 40
8.0
  9
$DIMRND
 40
0.0
  9
$DIMDLE
 40
0.0
  9
$DIMEXE
 40
0.6
  9
$DIMTP
 40
0.1
  9
$DIMTM
 40
0.1
  9
$DIMTXT
 40
2.5
  9
$DIMCEN
 40
0.0
  9
$DIMTSZ
 40
0.0
  9
$DIMTOL
 70
     0
  9
$DIMLIM
 70
     0
  9
$DIMTIH
 70
     0
  9
$DIMTOH
 70
     0
  9
$DIMSE1
 70
     0
  9
$DIMSE2
 70
     0
  9
$DIMTAD
 70
     1
  9
$DIMZIN
 70
     8
  9
$DIMBLK
  1

  9
$DIMASO
 70
     1
  9
$DIMSHO
 70
     1
  9
$DIMPOST
  1

  9
$DIMAPOST
  1
"
  9
$DIMALT
 70
     0
  9
$DIMALTD
 70
     2
  9
$DIMALTF
 40
0.0393701
  9
$DIMLFAC
 40
1.0
  9
$DIMTOFL
 70
     1
  9
$DIMTVP
 40
0.0
  9
$DIMTIX
 70
     0
  9
$DIMSOXD
 70
     0
  9
$DIMSAH
 70
     0
  9
$DIMBLK1
  1

  9
$DIMBLK2
  1

  9
$DIMSTYLE
  2
AM_ISO
  9
$DIMCLRD
 70
   256
  9
$DIMCLRE
 70
   256
  9
$DIMCLRT
 70
     4
  9
$DIMTFAC
 40
0.71
  9
$DIMGAP
 40
0.8
  9
$LUNITS
 70
     2
  9
$LUPREC
 70
     2
  9
$SKETCHINC
 40
1.0
  9
$FILLETRAD
 40
4.0
  9
$AUNITS
 70
     0
  9
$AUPREC
 70
     0
  9
$MENU
  1
.
  9
$ELEVATION
 40
0.0
  9
$PELEVATION
 40
0.0
  9
$THICKNESS
 40
0.0
  9
$LIMCHECK
 70
     0
  9
$BLIPMODE
 70
     0
  9
$CHAMFERA
 40
10.0
  9
$CHAMFERB
 40
5.0
  9
$SKPOLY
 70
     0
  9
$TDCREATE
 40
2452066.639319838
  9
$TDUPDATE
 40
2458541.4757046071
  9
$TDINDWG
 40
0.1362871181
  9
$TDUSRTIMER
 40
0.1362869329
  9
$USRTIMER
 70
     1
  9
$ANGBASE
 50
0.0
  9
$ANGDIR
 70
     0
  9
$PDMODE
 70
     0
  9
$PDSIZE
 40
0.0
  9
$PLINEWID
 40
0.0
  9
$COORDS
 70
     1
  9
$SPLFRAME
 70
     0
  9
$SPLINETYPE
 70
     6
  9
$SPLINESEGS
 70
     8
  9
$ATTDIA
 70
     1
  9
$ATTREQ
 70
     1
  9
$HANDLING
 70
     1
  9
$HANDSEED
  5
3148
  9
$SURFTAB1
 70
     6
  9
$SURFTAB2
 70
     6
  9
$SURFTYPE
 70
     6
  9
$SURFU
 70
     6
  9
$SURFV
 70
     6
  9
$UCSNAME
  2

  9
$UCSORG
 10
0.0
 20
0.0
 30
0.0
  9
$UCSXDIR
 10
1.0
 20
0.0
 30
0.0
  9
$UCSYDIR
 10
0.0
 20
1.0
 30
0.0
  9
$PUCSNAME
  2

  9
$PUCSORG
 10
0.0
 20
0.0
 30
0.0
  9
$PUCSXDIR
 10
1.0
 20
0.0
 30
0.0
  9
$PUCSYDIR
 10
0.0
 20
1.0
 30
0.0
  9
$USERI1
 70
     0
  9
$USERI2
 70
     0
  9
$USERI3
 70
     0
  9
$USERI4
 70
     0
  9
$USERI5
 70
     0
  9
$USERR1
 40
0.0
  9
$USERR2
 40
0.0
  9
$USERR3
 40
0.0
  9
$USERR4
 40
0.0
  9
$USERR5
 40
0.0
  9
$WORLDVIEW
 70
     1
  9
$SHADEDGE
 70
     3
  9
$SHADEDIF
 70
    70
  9
$TILEMODE
 70
     1
  9
$MAXACTVP
 70
    64
  9
$PLIMCHECK
 70
     0
  9
$PEXTMIN
 10
1.0000000000000000E+020
 20
1.0000000000000000E+020
 30
1.0000000000000000E+020
  9
$PEXTMAX
 10
-1.0000000000000000E+020
 20
-1.0000000000000000E+020
 30
-1.0000000000000000E+020
  9
$PLIMMIN
 10
0.0
 20
0.0
  9
$PLIMMAX
 10
420.0
 20
297.0
  9
$UNITMODE
 70
     0
  9
$VISRETAIN
 70
     1
  9
$PLINEGEN
 70
     0
  9
$PSLTSCALE
 70
     1
  0
ENDSEC
  0
SECTION
  2
TABLES
  0
TABLE
  2
VPORT
 70
     1
  0
VPORT
  2
*ACTIVE
 70
     0
 10
0.0
 20
0.0
 11
1.0
 21
1.0
 12
716.24229762935067
 22
666.37867944342725
 13
0.0
 23
0.0
 14
12.5
 24
12.5
 15
50.0
 25
50.0
 16
0.0
 26
0.0
 36
1.0
 17
0.0
 27
0.0
 37
0.0
 40
704.11817537215984
 41
1.7571592210767459
 42
50.0
 43
0.0
 44
0.0
 50
0.0
 51
0.0
 71
     0
 72
   100
 73
     1
 74
     3
 75
     0
 76
     0
 77
     0
 78
     0
  0
ENDTAB
  0
TABLE
  2
LTYPE
 70
    26
  0
LTYPE
  2
CONTINUOUS
 70
     0
  3
Solid line
 72
    65
 73
     0
 40
0.0
  0
LTYPE
  2
AM_ISO02W050
 70
     0
  3
__ __ __ __ __ __ __ __ __ __ __ __ __ __ __
 72
    65
 73
     2
 40
7.5
 49
6.0
 49
-1.5
  0
LTYPE
  2
AM_ISO08W050
 70
     0
  3
____ . ____ . ____ . ____ . ____ . ____ . ____
 72
    65
 73
     4
 40
18.0
 49
12.0
 49
-1.5
 49
3.0
 49
-1.5
  0
LTYPE
  2
AM_ISO09W050
 70
     0
  3
_____ . . _____ . . _____ . . ____ .. ____
 72
    65
 73
     6
 40
22.5
 49
12.0
 49
-1.5
 49
3.0
 49
-1.5
 49
3.0
 49
-1.5
  0
LTYPE
  2
AMCONSTR
 70
     0
  3
_______________________
 72
    65
 73
     2
 40
9999.0
 49
9999.0
 49
0.0
  0
LTYPE
  2
AM_ISO08W050X2
 70
     0
  3
__ . __ . __ . __ . __ . __
 72
    65
 73
     4
 40
9.0
 49
6.0
 49
-0.75
 49
1.5
 49
-0.75
  0
LTYPE
  2
AM_ISO02W050X2
 70
     0
  3
 _ _ _ _ _ _ _ _ _ _ _ _
 72
    65
 73
     2
 40
3.75
 49
3.0
 49
-0.75
  0
LTYPE
  2
AMZIGZAG
 70
     0
  3
/\/-/\/-/\/-/\/-/\/-/\/
 72
    65
 73
     2
 40
11.000099999999991
 49
0.0001
 49
-11.0
  0
LTYPE
  2
ACISOWELD
 70
     0
  3
_ _ _ _ _
 72
    65
 73
     2
 40
2.0
 49
2.0
 49
-1.0
  0
LTYPE
  2
ACISOTGB
 70
     0
  3
__ . . __ . .
 72
    65
 73
     6
 40
9.0
 49
4.0
 49
-1.0
 49
1.0
 49
-1.0
 49
1.0
 49
-1.0
  0
LTYPE
  2
ACISOTGL
 70
     0
  3
_ _ _ _ _
 72
    65
 73
     2
 40
3.0
 49
2.0
 49
-1.0
  0
LTYPE
  2
CENTER
 70
     0
  3
__ . __
 72
    65
 73
     4
 40
7.0
 49
4.0
 49
-1.0
 49
1.0
 49
-1.0
  0
LTYPE
  2
PHANTOM2
 70
     0
  3
Phantom (.5x) ___ _ _ ___ _ _ ___ _ _ ___ _ _
 72
    65
 73
     6
 40
31.75
 49
15.875
 49
-3.174999999999998
 49
3.174999999999998
 49
-3.174999999999998
 49
3.174999999999998
 49
-3.174999999999998
  0
LTYPE
  2
ACANSTGBM
 70
     0
  3
__ . . __ . .
 72
    65
 73
     6
 40
9.0
 49
4.0
 49
-1.0
 49
1.0
 49
-1.0
 49
1.0
 49
-1.0
  0
LTYPE
  2
ACANSTGLM
 70
     0
  3
_ _ _ _ _
 72
    65
 73
     2
 40
3.0
 49
2.0
 49
-1.0
  0
LTYPE
  2
GEN3B
 70
     0
  3
 - - - - -
 72
    65
 73
     2
 40
1.0
 49
0.5
 49
-0.5
  0
LTYPE
  2
GEN7A
 70
     0
  3
__ . __ . __
 72
    65
 73
     4
 40
7.375
 49
4.75
 49
-0.875
 49
0.875
 49
-0.875
  0
LTYPE
  2
ACJISTGB
 70
     0
  3
__ . . __ . .
 72
    65
 73
     6
 40
9.0
 49
4.0
 49
-1.0
 49
1.0
 49
-1.0
 49
1.0
 49
-1.0
  0
LTYPE
  2
ACJISTGL
 70
     0
  3
_ _ _ _ _
 72
    65
 73
     2
 40
3.0
 49
2.0
 49
-1.0
  0
LTYPE
  2
HIDDEN
 70
     0
  3
Hidden __ __ __ __ __ __ __ __ __ __ __ __ __ _
 72
    65
 73
     2
 40
0.375
 49
0.25
 49
-0.125
  0
LTYPE
  2
CENTER2
 70
     0
  3
Center (.5x) ___ _ ___ _ ___ _ ___ _ ___ _ ___
 72
    65
 73
     4
 40
1.125
 49
0.75
 49
-0.125
 49
0.125
 49
-0.125
  0
LTYPE
  2
HIDDEN2
 70
     0
  3
Hidden (.5x) _ _ _ _ _ _ _ _ _ _ _ _ _ _ _ _ _
 72
    65
 73
     2
 40
0.1875
 49
0.125
 49
-0.0625
  0
LTYPE
  2
AMZIGZAG2
 70
     0
  3
/\/-/\/-/\/-/\/-/\/-/\/
 72
    65
 73
     2
 40
0.4401
 49
0.0001
 49
-0.4400000000000002
  0
LTYPE
  2
ACANSTGB
 70
     0
  3
__ . . __ . .
 72
    65
 73
     6
 40
0.35433070866
 49
0.15748031496
 49
-0.03937007874
 49
0.03937007874
 49
-0.03937007874
 49
0.03937007874
 49
-0.03937007874
  0
LTYPE
  2
ACANSTGL
 70
     0
  3
_ _ _ _ _
 72
    65
 73
     2
 40
0.11811023622
 49
0.07874015748
 49
-0.03937007874
  0
ENDTAB
  0
TABLE
  2
LAYER
 70
     6
  0
LAYER
  2
0
 70
     0
 62
     7
  6
CONTINUOUS
  0
LAYER
  2
AM_0
 70
     0
 62
     7
  6
CONTINUOUS
  0
LAYER
  2
AM_5
 70
     0
 62
     2
  6
CONTINUOUS
  0
LAYER
  2
DEFPOINTS
 70
     0
 62
     7
  6
CONTINUOUS
  0
LAYER
  2
ｶｸﾚｾﾝ2
 70
     0
 62
     3
  6
GEN3B
  0
LAYER
  2
ﾁｭｳｼﾝｾﾝ1
 70
     0
 62
     1
  6
GEN7A
  0
ENDTAB
  0
TABLE
  2
STYLE
 70
     9
  0
STYLE
  2
STANDARD
 70
     0
 40
0.0
 41
0.8299999999999999
 50
0.0
 71
     0
 42
2.5
  3
txt.shx
  4
bigfont.shx
  0
STYLE
  2
ANNOTATIVE
 70
     0
 40
0.0
 41
1.0
 50
0.0
 71
     0
 42
0.2
  3
txt
  4

  0
STYLE
  2

 70
     1
 40
0.0
 41
1.0
 50
0.0
 71
     0
 42
2.5
  3
ltypeshp.shx
  4

  0
STYLE
  2
ACISOTS
 70
     0
 40
1.0
 41
1.0
 50
0.0
 71
     0
 42
2.5
  3
isocp.shx
  4
extfont.shx
  0
STYLE
  2
ACISOGDT
 70
     0
 40
0.0
 41
1.0
 50
0.0
 71
     0
 42
2.5
  3
amgdt.shx
  4

  0
STYLE
  2
ACANSTS
 70
     0
 40
1.0
 41
1.0
 50
0.0
 71
     0
 42
2.5
  3
romans.shx
  4
bigfont.shx
  0
STYLE
  2
ACANSGDT
 70
     0
 40
0.0
 41
1.0
 50
0.0
 71
     0
 42
2.5
  3
amgdt.shx
  4

  0
STYLE
  2
ACJISTS
 70
     0
 40
1.0
 41
1.0
 50
0.0
 71
     0
 42
2.5
  3
isocp.shx
  4
bigfont.shx
  0
STYLE
  2
ACJISGDT
 70
     0
 40
0.0
 41
1.0
 50
0.0
 71
     0
 42
2.5
  3
amgdt.shx
  4

  0
ENDTAB
  0
TABLE
  2
VIEW
 70
     6
  0
VIEW
  2
AM_VIEW1
 70
     0
 40
462.5
 10
416.07965009208078
 20
693.75
 41
832.15930018416213
 11
0.0
 21
0.0
 31
1.0
 12
0.0
 22
0.0
 32
0.0
 42
50.0
 43
0.0
 44
0.0
 50
0.0
 71
     0
  0
VIEW
  2
AM_VIEW2
 70
     0
 40
462.5
 10
1006.420349907918
 20
693.75
 41
832.15930018416213
 11
0.0
 21
0.0
 31
1.0
 12
0.0
 22
0.0
 32
0.0
 42
50.0
 43
0.0
 44
0.0
 50
0.0
 71
     0
  0
VIEW
  2
AM_VIEW3
 70
     0
 40
462.5
 10
416.07965009208078
 20
231.25
 41
832.15930018416213
 11
0.0
 21
0.0
 31
1.0
 12
0.0
 22
0.0
 32
0.0
 42
50.0
 43
0.0
 44
0.0
 50
0.0
 71
     0
  0
VIEW
  2
AM_VIEW4
 70
     0
 40
462.5
 10
1006.420349907918
 20
231.25
 41
832.15930018416213
 11
0.0
 21
0.0
 31
1.0
 12
0.0
 22
0.0
 32
0.0
 42
50.0
 43
0.0
 44
0.0
 50
0.0
 71
     0
  0
VIEW
  2
AM_VIEW5
 70
     0
 40
462.5
 10
711.24999999999966
 20
462.5
 41
832.15930018416179
 11
0.0
 21
0.0
 31
1.0
 12
0.0
 22
0.0
 32
0.0
 42
50.0
 43
0.0
 44
0.0
 50
0.0
 71
     0
  0
VIEW
  2
AM_VIEW6
 70
     0
 40
924.99075000000005
 10
711.24999999999966
 20
462.5
 41
1664.3019571823199
 11
0.0
 21
0.0
 31
1.0
 12
0.0
 22
0.0
 32
0.0
 42
50.0
 43
0.0
 44
0.0
 50
0.0
 71
     0
  0
ENDTAB
  0
TABLE
  2
UCS
 70
     0
  0
ENDTAB
  0
TABLE
  2
APPID
 70
    95
  0
APPID
  2
ACAD
 70
     0
  0
APPID
  2
ACADANNOTATIVE
 70
     0
  0
APPID
  2
MCAD_NO_VIS
 70
     0
  0
APPID
  2
ACAD_TEMP_GRAPHIC
 70
     0
  0
APPID
  2
ACATTRIBSERVICES
 70
     0
  0
APPID
  2
GENIUS_GENREC_14
 70
     0
  0
APPID
  2
GENIUS_GENOBJ-N-REC_13
 70
     0
  0
APPID
  2
GENIUS_GENODEF_13
 70
     0
  0
APPID
  2
GENIUS_GENOLIS_13
 70
     0
  0
APPID
  2
GENIUS_GENOBJ-N-TIT_13
 70
     0
  0
APPID
  2
GENIUS_GENOENT_13
 70
     0
  0
APPID
  2
GENIUS_GENTITLE_13
 70
     0
  0
APPID
  2
GENIUS_GENOREF_13
 70
     0
  0
APPID
  2
GENIUS_GENSCREG_15
 70
     0
  0
APPID
  2
GENIUS_GENOBJ-N-SDF_13
 70
     0
  0
APPID
  2
GENIUS_GENFIL_13
 70
     0
  0
APPID
  2
GENIUS_GENOBJ-N-CHA_13
 70
     0
  0
APPID
  2
GENIUS_GENDTOL_13
 70
     0
  0
APPID
  2
GENIUS_GENOBJ-N-FIL_13
 70
     0
  0
APPID
  2
AD_DRAW
 70
     0
  0
APPID
  2
DESIGNERASSEMBLIES
 70
     0
  0
APPID
  2
ASURF_PCURVE_APPNAME
 70
     0
  0
APPID
  2
GENIUS_GE3SECT_13
 70
     0
  0
APPID
  2
GENIUS_GENCFG_13
 70
     0
  0
APPID
  2
GENIUS_GE3CFG0_13
 70
     0
  0
APPID
  2
GENIUS_GENCFG0_13
 70
     0
  0
APPID
  2
GENIUS_GENCFG1_13
 70
     0
  0
APPID
  2
GENIUS_GENCFG2_13
 70
     0
  0
APPID
  2
GENIUS_GENCFG3_13
 70
     0
  0
APPID
  2
GENIUS_GENCFG4_13
 70
     0
  0
APPID
  2
GENIUS_GEVCFG0_13
 70
     0
  0
APPID
  2
GENIUS_GENHINW_13
 70
     0
  0
APPID
  2
GENIUS_FIRSTVISTXT_14
 70
     0
  0
APPID
  2
GENIUS_GENOBJ-N-LEADER_13
 70
     0
  0
APPID
  2
GEV_VCCNULL_SWITCH_OFF
 70
     0
  0
APPID
  2
GENIUS_GEFCFG0_13
 70
     0
  0
APPID
  2
GENIUS_GENZVEED_13
 70
     0
  0
APPID
  2
GENIUS_GENSCREG_13
 70
     0
  0
APPID
  2
GENIUS_DUMCFG0_13
 70
     0
  0
APPID
  2
GEVID936201362
 70
     0
  0
APPID
  2
GEVDC
 70
     0
  0
APPID
  2
GEVCON
 70
     0
  0
APPID
  2
VCC
 70
     0
  0
APPID
  2
GEVPT
 70
     0
  0
APPID
  2
GEVIT
 70
     0
  0
APPID
  2
GENBH
 70
     0
  0
APPID
  2
GEVMK
 70
     0
  0
APPID
  2
GENIUS_GENBH_13
 70
     0
  0
APPID
  2
GENIUS_GENOBJ-NBEHI-BHF_13
 70
     0
  0
APPID
  2
GENIUS_GENOBJ-NBEHI-BHB_13
 70
     0
  0
APPID
  2
GENIUS_GENOBJ-F-DESC_13
 70
     0
  0
APPID
  2
GENIUS_GEFDESC_14
 70
     0
  0
APPID
  2
GENIUS_GENOBJ-F-PART_13
 70
     0
  0
APPID
  2
GENIUS_GEFSTDP_13
 70
     0
  0
APPID
  2
GENIUS_GEFPARTINS_13
 70
     0
  0
APPID
  2
GENIUS_GENTRA_14
 70
     0
  0
APPID
  2
GENIUS_GENINF13_13
 70
     0
  0
APPID
  2
GENIUS_GENOBJ-N-INFOPT_13
 70
     0
  0
APPID
  2
GENIUS_GENOBJ-N-RSSYM_13
 70
     0
  0
APPID
  2
GENIUS_GENSYMENT_13
 70
     0
  0
APPID
  2
GENIUS_GENSCSYM_13
 70
     0
  0
APPID
  2
GENIUS_GEFINFNAM_13
 70
     0
  0
APPID
  2
GENIUS_GENOBJ-N-CEN_13
 70
     0
  0
APPID
  2
GENIUS_GENOBJ-N-CRS_13
 70
     0
  0
APPID
  2
GENIUS_GENOBJ-N-CRC_13
 70
     0
  0
APPID
  2
GENIUS_GENCRC_14
 70
     0
  0
APPID
  2
GEVID942827039
 70
     0
  0
APPID
  2
GEVID942827040
 70
     0
  0
APPID
  2
GEVID942827041
 70
     0
  0
APPID
  2
GENIUS_GENOBJ-F-SCPASSM_13
 70
     0
  0
APPID
  2
GENIUS_GENDIMSH_14
 70
     0
  0
APPID
  2
GEVID942827042
 70
     0
  0
APPID
  2
GEVID946020473
 70
     0
  0
APPID
  2
GEVID946020474
 70
     0
  0
APPID
  2
GEVID946020475
 70
     0
  0
APPID
  2
GENIUS_GENOBJ-N-HTC_13
 70
     0
  0
APPID
  2
GENIUS_GENHATCH_13
 70
     0
  0
APPID
  2
GEVID948854295
 70
     0
  0
APPID
  2
GEVID939402019
 70
     0
  0
APPID
  2
GEVID952919491
 70
     0
  0
APPID
  2
GEVID952919492
 70
     0
  0
APPID
  2
GENIUS_GEFWELD_13
 70
     0
  0
APPID
  2
GENIUS_GENOBJ-F-WELS_13
 70
     0
  0
APPID
  2
GEVID952919493
 70
     0
  0
APPID
  2
GENIUS_GENOBJ-N-RSBK_13
 70
     0
  0
APPID
  2
GENIUS_GENOBJ-N-LIB_13
 70
     0
  0
APPID
  2
GENIUS_GENSCALE_13
 70
     0
  0
APPID
  2
GEVID986376691
 70
     0
  0
APPID
  2
DCO15
 70
     0
  0
APPID
  2
ACAD_DSTYLE_DIMBREAK
 70
     0
  0
APPID
  2
ACAD_DSTYLE_DIMJAG
 70
     0
  0
APPID
  2
ACAD_NAV_VCDISPLAY
 70
     0
  0
APPID
  2
ACADANNOPO
 70
     0
  0
APPID
  2
ACAD_EXEMPT_FROM_CAD_STANDARDS
 70
     0
  0
APPID
  2
ACAD_MLEADERVER
 70
     0
  0
ENDTAB
  0
TABLE
  2
DIMSTYLE
 70
    22
  0
DIMSTYLE
  2
STANDARD
 70
     0
  3

  4

  5

  6

  7

 40
1.0
 41
0.18
 42
0.0625
 43
0.38
 44
0.18
 45
0.0
 46
0.0
 47
0.0
 48
0.0
140
0.18
141
0.09
142
0.0
143
25.399999999999999
144
1.0
145
0.0
146
1.0
147
0.09
 71
     0
 72
     0
 73
     1
 74
     1
 75
     0
 76
     0
 77
     0
 78
     0
170
     0
171
     2
172
     0
173
     0
174
     0
175
     0
176
     0
177
     0
178
     0
  0
DIMSTYLE
  2
ANNOTATIVE
 70
     0
  3

  4

  5

  6

  7

 40
1.0
 41
0.18
 42
0.0625
 43
0.38
 44
0.18
 45
0.0
 46
0.0
 47
0.0
 48
0.0
140
0.18
141
0.09
142
0.0
143
25.399999999999999
144
1.0
145
0.0
146
1.0
147
0.09
 71
     0
 72
     0
 73
     1
 74
     1
 75
     0
 76
     0
 77
     0
 78
     0
170
     0
171
     2
172
     0
173
     0
174
     0
175
     0
176
     0
177
     0
178
     0
  0
DIMSTYLE
  2
AM_ISO
 70
     0
  3

  4
"
  5

  6

  7

 40
1.0
 41
2.5
 42
1.0
 43
8.0
 44
0.6
 45
0.0
 46
0.0
 47
0.1
 48
0.1
140
2.5
141
0.0
142
0.0
143
0.0393701
144
1.0
145
0.0
146
0.71
147
0.8
 71
     0
 72
     0
 73
     0
 74
     0
 75
     0
 76
     0
 77
     1
 78
     8
170
     0
171
     2
172
     1
173
     0
174
     0
175
     0
176
   256
177
   256
178
     4
  0
DIMSTYLE
  2
AM_ISO$3
 70
     0
  3

  4
"
  5

  6

  7

 40
1.0
 41
2.5
 42
1.0
 43
8.0
 44
0.6
 45
0.0
 46
0.0
 47
0.1
 48
0.1
140
2.5
141
0.0
142
0.0
143
0.0393701
144
1.0
145
0.0
146
0.71
147
0.8
 71
     0
 72
     0
 73
     0
 74
     1
 75
     0
 76
     0
 77
     1
 78
     8
170
     0
171
     2
172
     0
173
     0
174
     0
175
     0
176
   256
177
   256
178
     4
  0
DIMSTYLE
  2
AM_ISO$4
 70
     0
  3

  4
"
  5

  6

  7

 40
1.0
 41
2.5
 42
1.0
 43
8.0
 44
0.6
 45
0.0
 46
0.0
 47
0.1
 48
0.1
140
2.5
141
0.0
142
0.0
143
0.0393701
144
1.0
145
0.0
146
0.71
147
0.8
 71
     0
 72
     0
 73
     0
 74
     1
 75
     0
 76
     0
 77
     1
 78
     8
170
     0
171
     2
172
     0
173
     0
174
     0
175
     0
176
   256
177
   256
178
     4
  0
DIMSTYLE
  2
AM_ISO$6
 70
     0
  3

  4
"
  5

  6

  7

 40
1.0
 41
2.5
 42
1.0
 43
8.0
 44
0.6
 45
0.0
 46
0.0
 47
0.1
 48
0.1
140
2.5
141
0.0
142
0.0
143
0.0393701
144
1.0
145
0.0
146
0.71
147
0.8
 71
     0
 72
     0
 73
     0
 74
     0
 75
     0
 76
     0
 77
     0
 78
     8
170
     0
171
     2
172
     1
173
     0
174
     0
175
     0
176
   256
177
   256
178
     4
  0
DIMSTYLE
  2
AM_ISO$7
 70
     0
  3

  4
"
  5

  6

  7

 40
1.0
 41
2.5
 42
1.0
 43
8.0
 44
0.6
 45
0.0
 46
0.0
 47
0.1
 48
0.1
140
2.5
141
0.0
142
0.0
143
0.0393701
144
1.0
145
0.0
146
0.71
147
0.8
 71
     0
 72
     0
 73
     0
 74
     0
 75
     0
 76
     0
 77
     1
 78
     8
170
     0
171
     2
172
     1
173
     0
174
     0
175
     0
176
   256
177
   256
178
     4
  0
DIMSTYLE
  2
AM_ISO$SF
 70
     0
  3

  4
"
  5

  6

  7

 40
1.0
 41
2.5
 42
1.0
 43
10.0
 44
1.0
 45
0.0
 46
0.0
 47
0.1
 48
0.1
140
3.5
141
0.0
142
0.0
143
0.0393701
144
1.0
145
0.0
146
0.71
147
1.5
 71
     0
 72
     0
 73
     0
 74
     0
 75
     1
 76
     1
 77
     1
 78
     8
170
     0
171
     2
172
     1
173
     0
174
     0
175
     0
176
   256
177
   256
178
     2
  0
DIMSTYLE
  2
AM_ISO$SH
 70
     0
  3

  4
"
  5

  6

  7

 40
1.0
 41
2.5
 42
1.0
 43
10.0
 44
1.0
 45
0.0
 46
0.0
 47
0.1
 48
0.1
140
3.5
141
0.0
142
0.0
143
0.0393701
144
2.0
145
0.0
146
0.71
147
1.5
 71
     0
 72
     0
 73
     0
 74
     0
 75
     1
 76
     1
 77
     1
 78
     8
170
     0
171
     2
172
     1
173
     1
174
     0
175
     0
176
   256
177
   256
178
     2
  0
DIMSTYLE
  2
AM_JIS
 70
     0
  3

  4
"
  5

  6

  7

 40
1.0
 41
2.5
 42
1.0
 43
7.0
 44
1.0
 45
0.0
 46
0.0
 47
0.1
 48
0.1000000001
140
2.5
141
0.0
142
0.0
143
0.0393701
144
1.0
145
0.0
146
0.71
147
1.0
 71
     0
 72
     0
 73
     0
 74
     0
 75
     0
 76
     0
 77
     3
 78
     8
170
     0
171
     2
172
     1
173
     0
174
     0
175
     0
176
   256
177
   256
178
     4
  0
DIMSTYLE
  2
AM_JIS$3
 70
     0
  3

  4
"
  5

  6

  7

 40
1.0
 41
2.5
 42
1.0
 43
7.0
 44
1.0
 45
0.0
 46
0.0
 47
0.1
 48
0.1000000001
140
2.5
141
0.0
142
0.0
143
0.0393701
144
1.0
145
0.0
146
0.71
147
1.0
 71
     0
 72
     0
 73
     0
 74
     1
 75
     0
 76
     0
 77
     3
 78
     8
170
     0
171
     2
172
     0
173
     0
174
     0
175
     0
176
   256
177
   256
178
     4
  0
DIMSTYLE
  2
AM_JIS$4
 70
     0
  3

  4
"
  5

  6

  7

 40
1.0
 41
2.5
 42
1.0
 43
7.0
 44
1.0
 45
0.0
 46
0.0
 47
0.1
 48
0.1000000001
140
2.5
141
0.0
142
0.0
143
0.0393701
144
1.0
145
0.0
146
0.71
147
1.0
 71
     0
 72
     0
 73
     0
 74
     0
 75
     0
 76
     0
 77
     3
 78
     8
170
     0
171
     2
172
     0
173
     0
174
     0
175
     0
176
   256
177
   256
178
     4
  0
DIMSTYLE
  2
AM_JIS$6
 70
     0
  3

  4
"
  5

  6

  7

 40
1.0
 41
2.5
 42
1.0
 43
7.0
 44
1.0
 45
0.0
 46
0.0
 47
0.1
 48
0.1000000001
140
2.5
141
0.0
142
0.0
143
0.0393701
144
1.0
145
0.0
146
0.71
147
1.0
 71
     0
 72
     0
 73
     0
 74
     0
 75
     0
 76
     0
 77
     0
 78
     8
170
     0
171
     2
172
     1
173
     0
174
     0
175
     0
176
   256
177
   256
178
     4
  0
DIMSTYLE
  2
AM_JIS$7
 70
     0
  3

  4
"
  5

  6

  7

 40
1.0
 41
2.5
 42
1.0
 43
7.0
 44
1.0
 45
0.0
 46
0.0
 47
0.1
 48
0.1000000001
140
2.5
141
0.0
142
0.0
143
0.0393701
144
1.0
145
0.0
146
0.71
147
1.0
 71
     0
 72
     0
 73
     0
 74
     0
 75
     0
 76
     0
 77
     3
 78
     8
170
     0
171
     2
172
     1
173
     0
174
     0
175
     0
176
   256
177
   256
178
     4
  0
DIMSTYLE
  2
AM_JIS$SF
 70
     0
  3

  4
"
  5

  6

  7

 40
1.0
 41
2.5
 42
1.0
 43
10.0
 44
1.0
 45
0.0
 46
0.0
 47
0.1
 48
0.1
140
3.5
141
0.0
142
0.0
143
0.0393701
144
1.0
145
0.0
146
0.71
147
1.5
 71
     0
 72
     0
 73
     0
 74
     0
 75
     1
 76
     1
 77
     3
 78
     8
170
     0
171
     2
172
     1
173
     0
174
     0
175
     0
176
   256
177
   256
178
     4
  0
DIMSTYLE
  2
AM_JIS$SH
 70
     0
  3

  4
"
  5

  6

  7

 40
1.0
 41
2.5
 42
1.0
 43
10.0
 44
1.0
 45
0.0
 46
0.0
 47
0.1
 48
0.1
140
3.5
141
0.0
142
0.0
143
0.0393701
144
1.0
145
0.0
146
0.71
147
1.5
 71
     0
 72
     0
 73
     0
 74
     0
 75
     1
 76
     0
 77
     3
 78
     8
170
     0
171
     2
172
     1
173
     1
174
     0
175
     0
176
   256
177
   256
178
     4
  0
DIMSTYLE
  2
AM_ANSI
 70
     0
  3

  4
mm
  5

  6

  7

 40
1.0
 41
0.1
 42
0.05
 43
0.5
 44
0.1
 45
0.0
 46
0.0
 47
0.1
 48
0.1
140
0.12
141
0.0
142
0.0
143
25.399999999999999
144
1.0
145
0.0
146
0.71
147
0.06
 71
     0
 72
     0
 73
     1
 74
     1
 75
     0
 76
     0
 77
     0
 78
     7
170
     0
171
     2
172
     0
173
     0
174
     0
175
     0
176
   256
177
   256
178
     2
  0
DIMSTYLE
  2
AM_ANSI$3
 70
     0
  3

  4
mm
  5

  6

  7

 40
1.0
 41
0.1
 42
0.05
 43
0.5
 44
0.1
 45
0.0
 46
0.0
 47
0.1
 48
0.1
140
0.12
141
0.0
142
0.0
143
25.399999999999999
144
1.0
145
0.0
146
0.71
147
0.06
 71
     0
 72
     0
 73
     1
 74
     1
 75
     0
 76
     0
 77
     0
 78
     7
170
     0
171
     2
172
     0
173
     0
174
     0
175
     0
176
   256
177
   256
178
     2
  0
DIMSTYLE
  2
AM_ANSI$4
 70
     0
  3

  4
mm
  5

  6

  7

 40
1.0
 41
0.1
 42
0.05
 43
0.5
 44
0.1
 45
0.0
 46
0.0
 47
0.1
 48
0.1
140
0.12
141
0.0
142
0.0
143
25.399999999999999
144
1.0
145
0.0
146
0.71
147
0.06
 71
     0
 72
     0
 73
     1
 74
     1
 75
     0
 76
     0
 77
     0
 78
     7
170
     0
171
     2
172
     0
173
     0
174
     0
175
     0
176
   256
177
   256
178
     2
  0
DIMSTYLE
  2
AM_ANSI$7
 70
     0
  3

  4
mm
  5

  6

  7

 40
1.0
 41
0.1
 42
0.05
 43
0.5
 44
0.1
 45
0.0
 46
0.0
 47
0.1
 48
0.1
140
0.24
141
0.0
142
0.0
143
25.399999999999999
144
1.0
145
0.0
146
0.71
147
0.06
 71
     0
 72
     0
 73
     1
 74
     1
 75
     0
 76
     0
 77
     0
 78
     7
170
     0
171
     2
172
     0
173
     0
174
     0
175
     0
176
   256
177
   256
178
     2
  0
DIMSTYLE
  2
AM_ANSI$SF
 70
     0
  3

  4
mm
  5

  6

  7

 40
1.0
 41
0.1
 42
0.05
 43
0.5
 44
0.1
 45
0.0
 46
0.0
 47
0.1
 48
0.1
140
0.12
141
0.0
142
0.0
143
25.399999999999999
144
1.0
145
0.0
146
0.71
147
0.06
 71
     0
 72
     0
 73
     1
 74
     1
 75
     1
 76
     1
 77
     0
 78
     7
170
     0
171
     2
172
     0
173
     0
174
     0
175
     0
176
   256
177
   256
178
     2
  0
DIMSTYLE
  2
AM_ANSI$SH
 70
     0
  3

  4
mm
  5

  6

  7

 40
1.0
 41
0.1
 42
0.05
 43
0.5
 44
0.1
 45
0.0
 46
0.0
 47
0.1
 48
0.1
140
0.12
141
0.0
142
0.0
143
25.399999999999999
144
1.0
145
0.0
146
0.71
147
0.06
 71
     0
 72
     0
 73
     1
 74
     1
 75
     1
 76
     1
 77
     0
 78
     7
170
     0
171
     2
172
     0
173
     1
174
     0
175
     0
176
   256
177
   256
178
     2
  0
ENDTAB
  0
ENDSEC
  0
SECTION
  2
BLOCKS
  0
BLOCK
  8
0
  2
$MODEL_SPACE
 70
     0
 10
0.0
 20
0.0
 30
0.0
  3
$MODEL_SPACE
  1

  0
ENDBLK
  5
2FBE
  8
0
  0
BLOCK
 67
     1
  8
0
  2
$PAPER_SPACE
 70
     0
 10
0.0
 20
0.0
 30
0.0
  3
$PAPER_SPACE
  1

  0
ENDBLK
  5
2FBA
 67
     1
  8
0
  0
BLOCK
  8
0
  2
GENAXEH
 70
     0
 10
0.0
 20
0.0
 30
0.0
  3
GENAXEH
  1

  0
LINE
  5
2D43
  8
0
 10
-1.0
 20
0.0
 30
0.0
 11
1.0
 21
0.0
 31
0.0
  0
ENDBLK
  5
2D44
  8
0
  0
BLOCK
  8
0
  2
_OPEN30
 70
     0
 10
0.0
 20
0.0
 30
0.0
  3
_OPEN30
  1

  0
LINE
  5
2D47
  8
0
 62
     0
 10
-1.0
 20
0.26794919
 30
0.0
 11
0.0
 21
0.0
 31
0.0
  0
LINE
  5
2D48
  8
0
 62
     0
 10
0.0
 20
0.0
 30
0.0
 11
-1.0
 21
-0.26794919
 31
0.0
  0
LINE
  5
2D49
  8
0
 62
     0
 10
0.0
 20
0.0
 30
0.0
 11
-1.0
 21
0.0
 31
0.0
  0
ENDBLK
  5
2D4A
  8
0
  0
BLOCK
  8
0
  2
_NONE
 70
     0
 10
0.0
 20
0.0
 30
0.0
  3
_NONE
  1

  0
ENDBLK
  5
2D4D
  8
0
  0
BLOCK
  8
0
  2
_ACMFILLEDHALF
 70
     0
 10
0.0
 20
0.0
 30
0.0
  3
_ACMFILLEDHALF
  1

  0
TRACE
  5
30B4
  8
AM_0
 62
     0
 10
-0.8
 20
0.0
 30
0.0
 11
-1.0
 21
0.166666666
 31
0.0
 12
0.0
 22
0.0
 32
0.0
 13
0.0
 23
0.0
 33
0.0
  0
LINE
  5
30B5
  8
AM_0
 62
     0
 10
-1.0
 20
0.0
 30
0.0
 11
-0.8
 21
0.0
 31
0.0
  0
ENDBLK
  5
30B3
  8
0
  0
ENDSEC
  0
SECTION
  2
ENTITIES
  0
LINE
  5
2D4F
  8
AM_0
 10
623.10713034815649
 20
882.02179579135134
 30
0.0
 11
679.10710034815645
 21
882.02179579135134
 31
0.0
  0
LINE
  5
2D50
  8
AM_0
 10
623.10713034815649
 20
870.02179579135145
 30
0.0
 11
679.10710034815645
 21
870.02179579135145
 31
0.0
  0
LINE
  5
2D51
  8
AM_0
 10
609.10713034815615
 20
855.02185579135153
 30
0.0
 11
679.10710034815645
 21
855.02185579135153
 31
0.0
  0
LINE
  5
2D52
  8
AM_0
 10
609.10713034815615
 20
897.02185579135153
 30
0.0
 11
679.10710034815645
 21
897.02185579135153
 31
0.0
  0
LINE
  5
2D53
  8
ﾁｭｳｼﾝｾﾝ1
 10
333.59008979567369
 20
876.02185579135119
 30
0.0
 11
690.62107034815642
 21
876.02185579135164
 31
0.0
  0
ARC
  5
2D54
  8
AM_0
 10
456.10713034815649
 20
859.97107579135161
 30
0.0
 40
4.0
 50
0.0
 51
87.999999999996248
  0
LINE
  5
2D55
  8
AM_0
 10
502.10713034815649
 20
826.45728579135152
 30
0.0
 11
502.10713034815649
 21
925.58637579135132
 31
0.0
  0
LINE
  5
2D56
  8
AM_0
 10
577.10713034815649
 20
785.02185579135153
 30
0.0
 11
577.10713034815649
 21
967.02185579135119
 31
0.0
  0
LINE
  5
2D57
  8
AM_0
 10
605.10713034815615
 20
915.77918579135167
 30
0.0
 11
605.10713034815615
 21
842.26447579135163
 31
0.0
  0
LINE
  5
2D58
  8
AM_0
 10
487.10713034815637
 20
736.28382579135132
 30
0.0
 11
487.10713034815637
 21
872.02179579135134
 31
0.0
  0
LINE
  5
2D59
  8
AM_0
 10
599.10713034815649
 20
961.90241579135204
 30
0.0
 11
599.10713034815649
 21
790.14124579135159
 31
0.0
  0
LINE
  5
2D5A
  8
AM_0
 10
609.10713034815615
 20
853.5218557913513
 30
0.0
 11
609.10713034815615
 21
898.52185579135153
 31
0.0
  0
LINE
  5
2D5B
  8
AM_0
 10
474.10700034815648
 20
739.81201579135166
 30
0.0
 11
474.10700034815648
 21
866.48242579135149
 31
0.0
  0
LINE
  5
2D5C
  8
AM_0
 10
460.10713034815649
 20
761.91382579135131
 30
0.0
 11
460.10713034815649
 21
872.02179579135134
 31
0.0
  0
POLYLINE
  5
2D5D
  8
AM_0
 66
     1
 10
0.0
 20
0.0
 30
0.0
  0
VERTEX
  5
2D5E
  8
AM_0
 10
507.0368203481566
 20
796.29030579135133
 30
0.0
 42
0.11075717
  0
VERTEX
  5
2D5F
  8
AM_0
 10
519.91776034815632
 20
806.19808579135122
 30
0.0
 42
0.20375769
  0
VERTEX
  5
2D60
  8
AM_0
 10
522.17549034815636
 20
813.86355579135125
 30
0.0
  0
VERTEX
  5
2D61
  8
AM_0
 10
507.40569034815661
 20
832.77870579135106
 30
0.0
 42
-1.0
  0
SEQEND
  5
2D62
  8
AM_0
  0
ARC
  5
2D63
  8
AM_0
 10
507.66779034815659
 20
746.73981579135159
 30
0.0
 40
10.0
 50
272.00000000000369
 51
316.51703999999847
  0
LINE
  5
2D64
  8
AM_0
 10
504.03736034815643
 20
753.46234579135137
 30
0.0
 11
528.64033034815657
 21
754.32154579135135
 31
0.0
  0
LINE
  5
2D65
  8
AM_0
 10
492.10706034815649
 20
736.02179579135134
 30
0.0
 11
601.24665034815655
 21
739.83307579135135
 31
0.0
  0
CIRCLE
  5
2D66
  8
AM_0
 10
434.10713034815632
 20
761.02185579135153
 30
0.0
 40
9.5
  0
LINE
  5
2D67
  8
AM_0
 10
456.24671034815651
 20
788.50446579135166
 30
0.0
 11
425.10719034815662
 21
789.59192579135163
 31
0.0
  0
LINE
  5
2D68
  8
AM_0
 10
456.24665034815661
 20
790.86457579135163
 30
0.0
 11
423.10713034815649
 21
792.02179579135134
 31
0.0
  0
LINE
  5
2D69
  8
AM_0
 10
416.89771034815652
 20
739.96338579135136
 30
0.0
 11
492.10706034815649
 21
736.02185579135153
 31
0.0
  0
LINE
  5
2D6A
  8
AM_0
 10
416.75850455712242
 20
784.42969703448546
 30
0.0
 11
457.98841034815649
 21
788.03687579135135
 31
0.0
  0
LINE
  5
2D6B
  8
AM_0
 10
413.10713034815632
 20
743.95789579135135
 30
0.0
 11
413.10713034815632
 21
780.44491848884093
 31
0.0
  0
ARC
  5
2D6C
  8
AM_0
 10
417.10713034815632
 20
743.95789579135135
 30
0.0
 40
4.0
 50
180.00001000000091
 51
266.99999000000008
  0
LINE
  5
2D6D
  8
AM_0
 10
425.10713034815632
 20
791.95197579135163
 30
0.0
 11
425.10713034815632
 21
789.59186579135121
 31
0.0
  0
LINE
  5
2D6E
  8
AM_0
 10
502.10713034815649
 20
749.34668579135132
 30
0.0
 11
502.10713034815649
 21
796.45606579135165
 31
0.0
  0
ARC
  5
2D6F
  8
AM_0
 10
471.10713034815632
 20
754.39411579135162
 30
0.0
 40
3.0
 50
0.0
 51
79.999998000001099
  0
LINE
  5
2D70
  8
AM_0
 10
474.10706034815632
 20
746.27484579135159
 30
0.0
 11
466.72852034815651
 21
745.35059579135134
 31
0.0
  0
ARC
  5
2D71
  8
AM_0
 10
466.10713034815637
 20
750.31189579135162
 30
0.0
 40
5.0
 50
180.00001000000091
 51
277.13983000000007
  0
ARC
  5
2D72
  8
AM_0
 10
463.10713034815632
 20
761.89722579135162
 30
0.0
 40
3.0
 50
179.9999899999988
 51
260.00000000000119
  0
LINE
  5
2D73
  8
AM_0
 10
462.58613034815647
 20
758.94281579135134
 30
0.0
 11
471.62806034815651
 21
757.34845579135151
 31
0.0
  0
ARC
  5
2D74
  8
AM_0
 10
456.10713034815649
 20
784.50684579135134
 30
0.0
 40
4.0
 50
0.0
 51
87.999999999996248
  0
ARC
  5
2D75
  8
AM_0
 10
456.10713034815649
 20
786.86701579135126
 30
0.0
 40
4.0
 50
0.0
 51
87.999999999996248
  0
LINE
  5
2D76
  8
AM_0
 10
487.10706034815621
 20
746.89148579135133
 30
0.0
 11
500.17695034815659
 21
747.34790579135131
 31
0.0
  0
ARC
  5
2D77
  8
AM_0
 10
476.10713034815632
 20
749.27686579135161
 30
0.0
 40
2.0
 50
179.9999899999988
 51
268.00000999999861
  0
LINE
  5
2D78
  8
AM_0
 10
476.03730034815652
 20
747.27808579135126
 30
0.0
 11
487.10713034815637
 21
746.89148579135133
 31
0.0
  0
ARC
  5
2D79
  8
AM_0
 10
477.10700034815648
 20
739.81201579135166
 30
0.0
 40
3.0
 50
180.00001000000091
 51
266.99999000000008
  0
ARC
  5
2D7A
  8
AM_0
 10
500.10713034815632
 20
749.34668579135132
 30
0.0
 40
2.0
 50
272.00000000000369
 51
0.0
  0
LINE
  5
2D7B
  8
AM_0
 10
506.60713034815649
 20
739.78467579135133
 30
0.0
 11
506.60713034815649
 21
751.81702579135163
 31
0.0
  0
ARC
  5
2D7C
  8
AM_0
 10
504.10713034815632
 20
751.46363579135152
 30
0.0
 40
2.0
 50
91.999998000000545
 51
180.00001000000091
  0
ARC
  5
2D7D
  8
AM_0
 10
506.13520034815662
 20
798.07556579135132
 30
0.0
 40
2.0
 50
270.0
 51
296.80019999999712
  0
LINE
  5
2D7E
  8
AM_0
 10
474.10700034815648
 20
824.45728579135164
 30
0.0
 11
500.10713034815632
 21
824.45728579135164
 31
0.0
  0
LINE
  5
2D7F
  8
AM_0
 10
474.10700034815648
 20
798.45606579135165
 30
0.0
 11
500.10713034815632
 21
798.45606579135165
 31
0.0
  0
LINE
  5
2D80
  8
AM_0
 10
506.60713034815649
 20
798.45606579135165
 30
0.0
 11
506.60713034815649
 21
824.45728579135164
 31
0.0
  0
ARC
  5
2D81
  8
AM_0
 10
500.10713034815632
 20
796.45606579135165
 30
0.0
 40
2.0
 50
0.0
 51
90.00000299999769
  0
ARC
  5
2D82
  8
AM_0
 10
500.10713034815632
 20
826.45728579135152
 30
0.0
 40
2.0
 50
270.0
 51
0.0
  0
ARC
  5
2D83
  8
AM_0
 10
505.65669034815659
 20
830.34125579135161
 30
0.0
 40
3.0
 50
54.348324000004709
 51
90.00000299999769
  0
ARC
  5
2D84
  8
AM_0
 10
594.10713034815649
 20
794.82105579135134
 30
0.0
 40
5.0
 50
272.00000000000369
 51
0.0
  0
LINE
  5
2D85
  8
ﾁｭｳｼﾝｾﾝ1
 10
566.60713034815626
 20
761.02185579135153
 30
0.0
 11
601.60713034815649
 21
761.02185579135153
 31
0.0
  0
ARC
  5
2D86
  8
AM_0
 10
549.10713034815649
 20
761.47803579135132
 30
0.0
 40
8.0
 50
272.00000000000369
 51
0.0
  0
LINE
  5
2D87
  8
AM_0
 10
531.19746034815648
 20
752.84772579135131
 30
0.0
 11
549.38630034815651
 21
753.48291579135162
 31
0.0
  0
LINE
  5
2D88
  8
AM_0
 10
514.92353034815665
 20
739.85840579135152
 30
0.0
 11
524.29072034815636
 21
749.73517579135159
 31
0.0
  0
ARC
  5
2D89
  8
AM_0
 10
531.54646034815664
 20
742.85376579135163
 30
0.0
 40
10.0
 50
91.999998000000545
 51
136.5170399999985
  0
CIRCLE
  5
2D8A
  8
AM_0
 10
584.10713034815615
 20
761.02185579135153
 30
0.0
 40
9.5
  0
LINE
  5
2D8B
  8
AM_0
 10
557.10713034815649
 20
767.02185579135153
 30
0.0
 11
557.10713034815649
 21
761.47803579135132
 31
0.0
  0
LINE
  5
2D8C
  8
ﾁｭｳｼﾝｾﾝ1
 10
584.10713034815615
 20
743.52185579135153
 30
0.0
 11
584.10713034815615
 21
778.52185579135153
 31
0.0
  0
LINE
  5
2D8D
  8
AM_0
 10
557.10713034815649
 20
743.46936579135127
 30
0.0
 11
557.10713034815649
 21
761.47803579135132
 31
0.0
  0
ARC
  5
2D8E
  8
AM_0
 10
562.10713034815637
 20
743.46936579135127
 30
0.0
 40
5.0
 50
180.00001000000091
 51
271.99999000000139
  0
ARC
  5
2D8F
  8
AM_0
 10
569.10713034815649
 20
785.02185579135153
 30
0.0
 40
8.0
 50
270.0
 51
0.0
  0
ARC
  5
2D90
  8
AM_0
 10
567.10713034815615
 20
767.02185579135153
 30
0.0
 40
10.0
 50
90.00000299999769
 51
180.00001000000091
  0
LINE
  5
2D91
  8
AM_0
 10
567.10713034815615
 20
777.02185579135153
 30
0.0
 11
569.10713034815649
 21
777.02185579135153
 31
0.0
  0
ARC
  5
2D92
  8
AM_0
 10
584.71125034815645
 20
781.48499579135159
 30
0.0
 40
8.0
 50
91.999998000000545
 51
167.22924999999881
  0
LINE
  5
2D93
  8
AM_0
 10
584.43214034815674
 20
789.4801757913516
 30
0.0
 11
594.28156034815652
 21
789.8241057913516
 31
0.0
  0
LINE
  5
2D94
  8
AM_0
 10
605.10713034815615
 20
743.8306357913516
 30
0.0
 11
605.10713034815615
 21
783.21302579135136
 31
0.0
  0
ARC
  5
2D95
  8
AM_0
 10
601.10713034815615
 20
743.8306357913516
 30
0.0
 40
4.0
 50
272.00000000000369
 51
0.0
  0
ARC
  5
2D96
  8
AM_0
 10
601.10713034815615
 20
783.21302579135136
 30
0.0
 40
4.0
 50
0.0
 51
81.786789000000198
  0
ARC
  5
2D97
  8
AM_0
 10
602.10713034815649
 20
790.14124579135159
 30
0.0
 40
3.0
 50
180.00001000000091
 51
261.78677999999701
  0
ARC
  5
2D98
  8
AM_0
 10
602.10713034815649
 20
842.26447579135163
 30
0.0
 40
3.0
 50
315.0
 51
0.0
  0
ARC
  5
2D99
  8
AM_0
 10
602.10713034815649
 20
842.26447579135163
 30
0.0
 40
3.0
 50
315.0
 51
0.0
  0
ARC
  5
2D9A
  8
AM_0
 10
602.10713034815649
 20
833.77918579135132
 30
0.0
 40
3.0
 50
135.0
 51
180.00001000000091
  0
ARC
  5
2D9B
  8
AM_0
 10
602.10713034815649
 20
833.77918579135132
 30
0.0
 40
3.0
 50
135.0
 51
180.00001000000091
  0
LINE
  5
2D9C
  8
AM_0
 10
599.98591034815649
 20
835.90052579135158
 30
0.0
 11
604.22852034815651
 21
840.1431357913516
 31
0.0
  0
LINE
  5
2D9D
  8
AM_0
 10
605.10713034815615
 20
853.5218557913513
 30
0.0
 11
609.10713034815615
 21
853.5218557913513
 31
0.0
  0
POLYLINE
  5
2D9E
  8
AM_0
 66
     1
 10
0.0
 20
0.0
 30
0.0
  0
VERTEX
  5
2D9F
  8
AM_0
 10
507.0368203481566
 20
955.75328579135157
 30
0.0
 42
-0.11075703
  0
VERTEX
  5
2DA0
  8
AM_0
 10
519.91779034815625
 20
945.84557579135151
 30
0.0
 42
-0.20375918
  0
VERTEX
  5
2DA1
  8
AM_0
 10
522.17549034815636
 20
938.1800957913515
 30
0.0
  0
VERTEX
  5
2DA2
  8
AM_0
 10
507.40569034815661
 20
919.26495579135167
 30
0.0
 42
-1.0
  0
SEQEND
  5
2DA3
  8
AM_0
  0
ARC
  5
2DA4
  8
AM_0
 10
507.66779034815659
 20
1005.303845791351
 30
0.0
 40
10.0
 50
43.482964999999631
 51
87.999999999996248
  0
LINE
  5
2DA5
  8
AM_0
 10
504.03730034815652
 20
998.58130579135161
 30
0.0
 11
528.64039034815664
 21
997.72211579135171
 31
0.0
  0
LINE
  5
2DA6
  8
AM_0
 10
492.10713034815632
 20
1016.021795791351
 30
0.0
 11
601.24671034815651
 21
1012.21057579135
 31
0.0
  0
CIRCLE
  5
2DA7
  8
AM_0
 10
434.10713034815632
 20
991.0218557913513
 30
0.0
 40
9.5
  0
ARC
  5
2DA8
  8
AM_0
 10
463.10713034815632
 20
990.14636579135174
 30
0.0
 40
3.0
 50
99.999999999998593
 51
180.00001000000091
  0
LINE
  5
2DA9
  8
AM_0
 10
474.10700034815648
 20
885.56122579135172
 30
0.0
 11
474.10700034815648
 21
1012.231575791351
 31
0.0
  0
LINE
  5
2DAA
  8
AM_0
 10
487.10713034815637
 20
880.02179579135134
 30
0.0
 11
487.10713034815637
 21
1015.759775791351
 31
0.0
  0
LINE
  5
2DAB
  8
AM_0
 10
502.10713034815649
 20
1002.69696579135
 30
0.0
 11
502.10713034815649
 21
955.58759579135153
 31
0.0
  0
LINE
  5
2DAC
  8
AM_0
 10
413.10713034815632
 20
1008.085765791351
 30
0.0
 11
413.10713034815632
 21
971.59873417718484
 31
0.0
  0
LINE
  5
2DAD
  8
AM_0
 10
456.24671034815651
 20
867.43238579135152
 30
0.0
 11
425.10713034815632
 21
868.5197857913513
 31
0.0
  0
LINE
  5
2DAE
  8
AM_0
 10
456.24671034815651
 20
863.96869579135159
 30
0.0
 11
425.10719034815662
 21
865.05609579135159
 31
0.0
  0
LINE
  5
2DAF
  8
AM_0
 10
456.24677034815659
 20
888.07495579135161
 30
0.0
 11
425.10719034815662
 21
886.98755579135161
 31
0.0
  0
LINE
  5
2DB0
  8
AM_0
 10
456.24671034815651
 20
884.61127579135132
 30
0.0
 11
425.10719034815662
 21
883.52381579135135
 31
0.0
  0
LINE
  5
2DB1
  8
AM_0
 10
456.24677034815659
 20
963.53919579135152
 30
0.0
 11
425.10719034815662
 21
962.45178579135165
 31
0.0
  0
LINE
  5
2DB2
  8
AM_0
 10
456.24671034815651
 20
961.17908579135167
 30
0.0
 11
423.10713034815649
 21
960.02179579135156
 31
0.0
  0
LINE
  5
2DB3
  8
AM_0
 10
416.75850541235292
 20
967.61395555671709
 30
0.0
 11
457.98841034815649
 21
964.00678579135115
 31
0.0
  0
LINE
  5
2DB4
  8
AM_0
 10
425.10713034815632
 20
865.05609579135159
 30
0.0
 11
425.10713034815632
 21
886.98755579135161
 31
0.0
  0
LINE
  5
2DB5
  8
AM_0
 10
425.10713034815632
 20
960.09168579135155
 30
0.0
 11
425.10713034815632
 21
962.45178579135165
 31
0.0
  0
LINE
  5
2DB6
  8
AM_0
 10
460.10713034815649
 20
880.02179579135134
 30
0.0
 11
460.10713034815649
 21
990.1629757913513
 31
0.0
  0
ARC
  5
2DB7
  8
AM_0
 10
471.10713034815632
 20
876.02185579135164
 30
0.0
 40
10.0
 50
203.5782699999985
 51
336.4217200000013
  0
ARC
  5
2DB8
  8
AM_0
 10
471.10713034815632
 20
876.02185579135164
 30
0.0
 40
10.0
 50
23.57803699999776
 51
156.42196000000081
  0
LINE
  5
2DB9
  8
AM_0
 10
454.60713034815632
 20
880.02179579135134
 30
0.0
 11
487.60713034815632
 21
880.02179579135134
 31
0.0
  0
LINE
  5
2DBA
  8
AM_0
 10
454.60713034815632
 20
872.02179579135134
 30
0.0
 11
487.60713034815632
 21
872.02179579135134
 31
0.0
  0
ARC
  5
2DBB
  8
AM_0
 10
454.60713034815632
 20
876.02179579135122
 30
0.0
 40
3.9999962
 50
90.00000299999769
 51
270.0
  0
ARC
  5
2DBC
  8
AM_0
 10
456.10713034815649
 20
863.4348257913515
 30
0.0
 40
4.0
 50
0.0
 51
87.999999999996248
  0
ARC
  5
2DBD
  8
AM_0
 10
456.10713034815649
 20
888.60883579135134
 30
0.0
 40
4.0
 50
272.00000000000369
 51
0.0
  0
ARC
  5
2DBE
  8
AM_0
 10
456.10713034815649
 20
892.07251579135163
 30
0.0
 40
4.0
 50
272.00000000000369
 51
0.0
  0
ARC
  5
2DBF
  8
AM_0
 10
487.60713034815632
 20
876.02179579135122
 30
0.0
 40
3.9999962
 50
270.0
 51
90.00000299999769
  0
ARC
  5
2DC0
  8
AM_0
 10
505.65669034815659
 20
921.70240579135168
 30
0.0
 40
3.0
 50
270.0
 51
305.65166999999718
  0
ARC
  5
2DC1
  8
AM_0
 10
456.10713034815649
 20
967.53675579135154
 30
0.0
 40
4.0
 50
272.00000000000369
 51
0.0
  0
ARC
  5
2DC2
  8
AM_0
 10
456.10713034815649
 20
965.17664579135135
 30
0.0
 40
4.0
 50
272.00000000000369
 51
0.0
  0
LINE
  5
2DC3
  8
AM_0
 10
474.10700034815648
 20
953.58759579135165
 30
0.0
 11
500.10713034815632
 21
953.58759579135165
 31
0.0
  0
LINE
  5
2DC4
  8
AM_0
 10
474.10700034815648
 20
927.58637579135166
 30
0.0
 11
500.10713034815632
 21
927.58637579135166
 31
0.0
  0
LINE
  5
2DC5
  8
AM_0
 10
506.60713034815649
 20
953.58759579135165
 30
0.0
 11
506.60713034815649
 21
927.58637579135166
 31
0.0
  0
ARC
  5
2DC6
  8
AM_0
 10
500.10713034815632
 20
925.58637579135132
 30
0.0
 40
2.0
 50
0.0
 51
90.00000299999769
  0
ARC
  5
2DC7
  8
AM_0
 10
500.10713034815632
 20
955.58759579135153
 30
0.0
 40
2.0
 50
270.0
 51
0.0
  0
ARC
  5
2DC8
  8
AM_0
 10
506.13520034815662
 20
953.96802579135135
 30
0.0
 40
2.0
 50
63.199809000002318
 51
90.00000299999769
  0
LINE
  5
2DC9
  8
AM_0
 10
416.89771034815652
 20
1012.0802657913511
 30
0.0
 11
492.10706034815649
 21
1016.02185579135
 31
0.0
  0
ARC
  5
2DCA
  8
AM_0
 10
417.10713034815632
 20
1008.085765791351
 30
0.0
 40
4.0
 50
92.999999000001679
 51
180.00001000000091
  0
ARC
  5
2DCB
  8
AM_0
 10
471.10713034815632
 20
997.64954579135133
 30
0.0
 40
3.0
 50
280.00001000000128
 51
0.0
  0
LINE
  5
2DCC
  8
AM_0
 10
474.10706034815632
 20
1005.768805791351
 30
0.0
 11
466.72852034815651
 21
1006.693065791351
 31
0.0
  0
ARC
  5
2DCD
  8
AM_0
 10
466.10713034815637
 20
1001.731815791351
 30
0.0
 40
5.0
 50
82.860167000000104
 51
180.00001000000091
  0
LINE
  5
2DCE
  8
AM_0
 10
462.58619034815661
 20
993.10083579135153
 30
0.0
 11
471.62806034815651
 21
994.69519579135135
 31
0.0
  0
LINE
  5
2DCF
  8
AM_0
 10
487.10706034815621
 20
1005.1521657913499
 30
0.0
 11
500.17695034815659
 21
1004.695745791351
 31
0.0
  0
LINE
  5
2DD0
  8
AM_0
 10
476.0373603481566
 20
1004.765635791351
 30
0.0
 11
487.10713034815637
 21
1005.152225791351
 31
0.0
  0
ARC
  5
2DD1
  8
AM_0
 10
476.10713034815632
 20
1002.766795791351
 30
0.0
 40
2.0
 50
91.999998000000545
 51
180.00001000000091
  0
ARC
  5
2DD2
  8
AM_0
 10
477.10700034815648
 20
1012.231575791351
 30
0.0
 40
3.0
 50
92.999999000001679
 51
180.00001000000091
  0
LINE
  5
2DD3
  8
AM_0
 10
506.60713034815649
 20
1000.301705791351
 30
0.0
 11
506.60713034815649
 21
1012.25513579135
 31
0.0
  0
ARC
  5
2DD4
  8
AM_0
 10
504.10713034815632
 20
1000.580025791351
 30
0.0
 40
2.0
 50
180.00001000000091
 51
267.99999999999631
  0
ARC
  5
2DD5
  8
AM_0
 10
500.10713034815632
 20
1002.69696579135
 30
0.0
 40
2.0
 50
0.0
 51
87.999999999996248
  0
CIRCLE
  5
2DD6
  8
AM_0
 10
584.10713034815615
 20
991.0218557913513
 30
0.0
 40
9.5
  0
LINE
  5
2DD7
  8
AM_0
 10
557.10713034815649
 20
985.02185579135164
 30
0.0
 11
557.10713034815649
 21
990.5656857913516
 31
0.0
  0
LINE
  5
2DD8
  8
AM_0
 10
605.10713034815615
 20
1008.213025791351
 30
0.0
 11
605.10713034815615
 21
968.8306357913516
 31
0.0
  0
ARC
  5
2DD9
  8
AM_0
 10
594.10713034815649
 20
957.22260579135161
 30
0.0
 40
5.0
 50
0.0
 51
87.999999999996248
  0
ARC
  5
2DDA
  8
AM_0
 10
569.10713034815649
 20
967.02185579135119
 30
0.0
 40
8.0
 50
0.0
 51
90.00000299999769
  0
ARC
  5
2DDB
  8
AM_0
 10
567.10713034815615
 20
985.02185579135164
 30
0.0
 40
10.0
 50
180.00001000000091
 51
270.0
  0
LINE
  5
2DDC
  8
AM_0
 10
567.10713034815615
 20
975.02185579135119
 30
0.0
 11
569.10713034815649
 21
975.02185579135119
 31
0.0
  0
ARC
  5
2DDD
  8
AM_0
 10
584.71125034815645
 20
970.55866579135136
 30
0.0
 40
8.0
 50
192.7707500000011
 51
267.99999999999631
  0
LINE
  5
2DDE
  8
AM_0
 10
584.43214034815674
 20
962.56354579135154
 30
0.0
 11
594.28163034815645
 21
962.21961579135166
 31
0.0
  0
ARC
  5
2DDF
  8
AM_0
 10
623.10713034815649
 20
876.02179579135122
 30
0.0
 40
6.0000037999999991
 50
90.00000299999769
 51
270.0
  0
LINE
  5
2DE0
  8
AM_0
 10
623.10713034815649
 20
882.02179579135134
 30
0.0
 11
623.10713034815649
 21
870.02179579135145
 31
0.0
  0
LINE
  5
2DE1
  8
AM_0
 10
605.10713034815615
 20
898.52185579135153
 30
0.0
 11
609.10713034815615
 21
898.52185579135153
 31
0.0
  0
ARC
  5
2DE2
  8
AM_0
 10
602.10713034815649
 20
915.77918579135167
 30
0.0
 40
3.0
 50
0.0
 51
44.999998000001611
  0
ARC
  5
2DE3
  8
AM_0
 10
602.10713034815649
 20
915.77918579135167
 30
0.0
 40
3.0
 50
0.0
 51
45.000001000003799
  0
ARC
  5
2DE4
  8
AM_0
 10
602.10713034815649
 20
924.26447579135174
 30
0.0
 40
3.0
 50
180.00001000000091
 51
225.0
  0
ARC
  5
2DE5
  8
AM_0
 10
602.10713034815649
 20
924.26447579135174
 30
0.0
 40
3.0
 50
179.9999899999988
 51
225.0
  0
LINE
  5
2DE6
  8
AM_0
 10
599.98585034815676
 20
922.1431357913516
 30
0.0
 11
604.22852034815651
 21
917.90045579135165
 31
0.0
  0
ARC
  5
2DE7
  8
AM_0
 10
601.10713034815615
 20
968.8306357913516
 30
0.0
 40
4.0
 50
278.2132199999964
 51
0.0
  0
ARC
  5
2DE8
  8
AM_0
 10
602.10713034815649
 20
961.90241579135204
 30
0.0
 40
3.0
 50
98.213209000002095
 51
180.00001000000091
  0
ARC
  5
2DE9
  8
AM_0
 10
549.10713034815649
 20
990.5656857913516
 30
0.0
 40
8.0
 50
0.0
 51
87.999999999996248
  0
LINE
  5
2DEA
  8
AM_0
 10
531.19746034815648
 20
999.19593579135164
 30
0.0
 11
549.38630034815651
 21
998.56073579135125
 31
0.0
  0
LINE
  5
2DEB
  8
AM_0
 10
514.92359034815661
 20
1012.185185791351
 30
0.0
 11
524.29066034815628
 21
1002.308475791351
 31
0.0
  0
ARC
  5
2DEC
  8
AM_0
 10
531.54646034815664
 20
1009.189825791351
 30
0.0
 40
10.0
 50
223.48296000000141
 51
267.99999999999631
  0
LINE
  5
2DED
  8
AM_0
 10
557.10713034815649
 20
1008.574345791351
 30
0.0
 11
557.10713034815649
 21
990.5656857913516
 31
0.0
  0
ARC
  5
2DEE
  8
AM_0
 10
562.10713034815637
 20
1008.574345791351
 30
0.0
 40
5.0
 50
87.999999999996248
 51
180.00001000000091
  0
ARC
  5
2DEF
  8
AM_0
 10
601.10713034815615
 20
1008.213025791351
 30
0.0
 40
4.0
 50
0.0
 51
87.999999999996248
  0
LINE
  5
2DF0
  8
AM_0
 10
679.10710034815645
 20
855.02185579135153
 30
0.0
 11
679.10710034815645
 21
897.02185579135153
 31
0.0
  0
ARC
  5
2DF1
  8
AM_0
 10
417.10713034815632
 20
971.59873417718484
 30
0.0
 40
4.0
 50
180.0
 51
264.99997174862358
1001
GENIUS_GENODEF_13
1002
{
1000
HIER
1070
     0
1002
}
1002
{
1000
MANEDIT
1070
     0
1002
}
1002
{
1000
NOSEL
1070
     0
1002
}
1002
{
1000
BEHIND
1070
     0
1002
}
1002
{
1000
OTHER
1070
     0
1002
}
1002
{
1000
REACTOR
1002
}
1001
GENIUS_GENOBJ-N-FIL_13
1002
{
1000
OWNER
1000
GEN
1002
}
  0
LINE
  5
2DF2
  8
ﾁｭｳｼﾝｾﾝ1
 10
584.10713034815615
 20
973.52185579135153
 30
0.0
 11
584.10713034815615
 21
1008.521855791351
 31
0.0
  0
LINE
  5
2DF3
  8
ﾁｭｳｼﾝｾﾝ1
 10
566.60713034815626
 20
991.0218557913513
 30
0.0
 11
601.60713034815649
 21
991.0218557913513
 31
0.0
  0
LINE
  5
2DF4
  8
ﾁｭｳｼﾝｾﾝ1
 10
434.10713034815632
 20
973.52185579135153
 30
0.0
 11
434.10713034815632
 21
1008.521855791351
 31
0.0
  0
LINE
  5
2DF5
  8
ﾁｭｳｼﾝｾﾝ1
 10
416.60713034815632
 20
991.0218557913513
 30
0.0
 11
451.60713034815649
 21
991.0218557913513
 31
0.0
  0
LINE
  5
2DF6
  8
ﾁｭｳｼﾝｾﾝ1
 10
434.10713034815632
 20
743.52185579135153
 30
0.0
 11
434.10713034815632
 21
778.52185579135153
 31
0.0
  0
LINE
  5
2DF7
  8
ﾁｭｳｼﾝｾﾝ1
 10
416.60713034815632
 20
761.02185579135153
 30
0.0
 11
451.60713034815649
 21
761.02185579135153
 31
0.0
  0
LINE
  5
2DF8
  8
AM_0
 10
423.10713034815649
 20
962.0218557913513
 30
0.0
 11
423.10713034815609
 21
790.0218557913513
 31
0.0
  0
LINE
  5
2DF9
  8
AM_0
 10
343.60713034815632
 20
751.02185579135119
 30
0.0
 11
358.6071303481562
 21
751.02185579135119
 31
0.0
  0
LINE
  5
2DFA
  8
AM_0
 10
343.60713034815632
 20
1001.021855791351
 30
0.0
 11
358.6071303481562
 21
1001.021855791351
 31
0.0
  0
LINE
  5
2DFB
  8
AM_0
 10
343.60713034815632
 20
1001.021855791351
 30
0.0
 11
343.60713034815632
 21
751.02185579135119
 31
0.0
  0
LINE
  5
2DFC
  8
AM_0
 10
359.60713034815649
 20
1000.02185579135
 30
0.0
 11
359.60713034815649
 21
752.0218557913513
 31
0.0
  0
LINE
  5
2DFD
  8
AM_0
 10
422.10713034815689
 20
785.55357557538912
 30
0.0
 11
362.34566334815702
 21
780.32512457538883
 31
0.0
  0
LINE
  5
2DFE
  8
AM_0
 10
423.10713034815649
 20
790.0218557913513
 30
0.0
 11
362.34566309754308
 21
784.70591576942581
 31
0.0
  0
ARC
  5
2DFF
  8
AM_0
 10
358.6071303481562
 20
752.0218557913513
 30
0.0
 40
1.0
 50
270.0
 51
0.0
  0
ARC
  5
2E00
  8
AM_0
 10
362.60713034815711
 20
777.33654057538865
 30
0.0
 40
3.0
 50
95.0
 51
180.0
  0
ARC
  5
2E01
  8
AM_0
 10
362.60713034815632
 20
781.7173316771075
 30
0.0
 40
3.0
 50
95.000000428873591
 51
180.0
1001
GENIUS_GENODEF_13
1002
{
1000
HIER
1070
     0
1002
}
1002
{
1000
MANEDIT
1070
     0
1002
}
1002
{
1000
NOSEL
1070
     0
1002
}
1002
{
1000
BEHIND
1070
     0
1002
}
1002
{
1000
OTHER
1070
     0
1002
}
1002
{
1000
REACTOR
1002
}
1001
GENIUS_GENOBJ-N-FIL_13
1002
{
1000
OWNER
1000
GEN
1002
}
  0
LINE
  5
2E02
  8
AM_0
 10
422.1071303481562
 20
868.51984579135114
 30
0.0
 11
359.60713034815632
 21
866.3372976981168
 31
0.0
  0
LINE
  5
2E03
  8
AM_0
 10
422.1071303481562
 20
865.05609579135103
 30
0.0
 11
359.6071303481562
 21
862.87354769811691
 31
0.0
  0
LINE
  5
2E04
  8
AM_0
 10
422.1071303481562
 20
886.98761579135135
 30
0.0
 11
359.6071303481562
 21
889.17016388458569
 31
0.0
  0
LINE
  5
2E05
  8
AM_0
 10
422.1071303481562
 20
883.52386579135145
 30
0.0
 11
359.60713034815632
 21
885.70641388458546
 31
0.0
  0
LINE
  5
2E06
  8
AM_0
 10
422.1071303481562
 20
966.49013600731371
 30
0.0
 11
362.34566334815628
 21
971.71858700731389
 31
0.0
  0
LINE
  5
2E07
  8
AM_0
 10
423.10713034815649
 20
962.0218557913513
 30
0.0
 11
362.34566309754308
 21
967.33779581327713
 31
0.0
  0
ARC
  5
2E08
  8
AM_0
 10
362.60713034815632
 20
970.3263799055951
 30
0.0
 40
3.0
 50
180.0
 51
264.9999995711263
1001
GENIUS_GENODEF_13
1002
{
1000
HIER
1070
     0
1002
}
1002
{
1000
MANEDIT
1070
     0
1002
}
1002
{
1000
NOSEL
1070
     0
1002
}
1002
{
1000
BEHIND
1070
     0
1002
}
1002
{
1000
OTHER
1070
     0
1002
}
1002
{
1000
REACTOR
1002
}
1001
GENIUS_GENOBJ-N-FIL_13
1002
{
1000
OWNER
1000
GEN
1002
}
  0
ARC
  5
2E09
  8
AM_0
 10
362.60713034815632
 20
974.70717100731383
 30
0.0
 40
3.0
 50
180.0
 51
265.0
  0
ARC
  5
2E0A
  8
AM_0
 10
358.6071303481562
 20
1000.02185579135
 30
0.0
 40
1.0
 50
0.0
 51
90.0
  0
LINE
  5
2E0B
  8
AM_0
 10
422.10713034815689
 20
789.93436712028324
 30
0.0
 11
422.10713034815689
 21
785.55357557538912
 31
0.0
  0
LINE
  5
2E0C
  8
AM_0
 10
422.1071303481562
 20
886.98761579135135
 30
0.0
 11
422.1071303481562
 21
865.05609579135103
 31
0.0
  0
LINE
  5
2E0D
  8
AM_0
 10
422.1071303481562
 20
962.10934446241981
 30
0.0
 11
422.1071303481562
 21
966.49013600731371
 31
0.0
  0
ARC
  5
2E0E
  8
AM_0
 10
417.10713034815632
 20
780.44491848884093
 30
0.0
 40
4.0
 50
95.000040548448695
 51
180.0
1001
GENIUS_GENOBJ-N-FIL_13
1002
{
1000
OWNER
1000
GEN
1002
}
1001
GENIUS_GENODEF_13
1002
{
1000
HIER
1070
     0
1002
}
1002
{
1000
MANEDIT
1070
     0
1002
}
1002
{
1000
NOSEL
1070
     0
1002
}
1002
{
1000
BEHIND
1070
     0
1002
}
1002
{
1000
OTHER
1070
     0
1002
}
1002
{
1000
REACTOR
1002
}
  0
LINE
  5
2E0F
  8
AM_0
 10
609.10710034815645
 20
519.7217710943346
 30
0.0
 11
679.10710034815645
 21
519.7217710943346
 31
0.0
  0
LINE
  5
2E10
  8
ﾁｭｳｼﾝｾﾝ1
 10
449.75295034815628
 20
498.7217410943345
 30
0.0
 11
687.05150034815631
 21
498.7217410943345
 31
0.0
  0
LINE
  5
2E11
  8
AM_0
 10
609.10710034815645
 20
477.7217410943345
 30
0.0
 11
679.10710034815645
 21
477.7217410943345
 31
0.0
  0
LINE
  5
2E12
  8
AM_0
 10
507.50380034815669
 20
481.2092860943344
 30
0.0
 11
519.64250034815655
 21
467.29589609433441
 31
0.0
  0
LINE
  5
2E13
  8
AM_0
 10
474.10710034815628
 20
365.4959360943347
 30
0.0
 11
474.10710034815628
 21
588.33643609433454
 31
0.0
  0
LINE
  5
2E14
  8
AM_0
 10
460.10715034815649
 20
349.2741660943347
 30
0.0
 11
460.10715034815649
 21
559.34108609433474
 31
0.0
  0
LINE
  5
2E15
  8
AM_0
 10
605.10715034815655
 20
498.7217410943345
 30
0.0
 11
605.10715034815655
 21
464.96438609433471
 31
0.0
  0
LINE
  5
2E16
  8
AM_0
 10
577.10710034815645
 20
402.31960609433452
 30
0.0
 11
577.10710034815645
 21
574.5671360943345
 31
0.0
  0
LINE
  5
2E17
  8
AM_0
 10
599.10710034815645
 20
498.7217410943345
 30
0.0
 11
599.10710034815645
 21
352.46774109433471
 31
0.0
  0
LINE
  5
2E18
  8
AM_0
 10
557.10710034815656
 20
532.89458609433473
 30
0.0
 11
557.10710034815656
 21
356.72176609433473
 31
0.0
  0
LINE
  5
2E19
  8
AM_0
 10
487.10710034815628
 20
382.27014109433452
 30
0.0
 11
487.10710034815628
 21
590.72173609433469
 31
0.0
  0
LINE
  5
2E1A
  8
AM_0
 10
343.60710034815628
 20
585.72174109433467
 30
0.0
 11
343.60710034815628
 21
335.72174109433462
 31
0.0
  0
LINE
  5
2E1B
  8
AM_0
 10
359.60710034815628
 20
584.72174109433445
 30
0.0
 11
359.60710034815628
 21
336.72174109433467
 31
0.0
  0
LINE
  5
2E1C
  8
AM_0
 10
423.10710034815622
 20
546.72174109433445
 30
0.0
 11
423.10710034815622
 21
374.72174109433462
 31
0.0
  0
LINE
  5
2E1D
  8
AM_0
 10
423.10710034815622
 20
374.72174109433462
 30
0.0
 11
362.3456333481563
 21
369.40580109433472
 31
0.0
  0
LINE
  5
2E1E
  8
AM_0
 10
420.10710034815628
 20
398.80284109433472
 30
0.0
 11
359.60710034815628
 21
398.80284109433472
 31
0.0
  0
LINE
  5
2E1F
  8
AM_0
 10
359.60710034815628
 20
434.97483509433482
 30
0.0
 11
419.41080234815638
 21
434.97483509433482
 31
0.0
  0
LINE
  5
2E20
  8
AM_0
 10
359.60710034815628
 20
424.78360309433458
 30
0.0
 11
420.10710034815628
 21
424.78360309433458
 31
0.0
  0
LINE
  5
2E21
  8
ﾁｭｳｼﾝｾﾝ1
 10
333.59008979567369
 20
460.7217410943345
 30
0.0
 11
456.82468512224278
 21
460.7217410943345
 31
0.0
  0
LINE
  5
2E22
  8
AM_0
 10
343.60710034815628
 20
335.72174109433462
 30
0.0
 11
358.60710034815628
 21
335.72174109433462
 31
0.0
  0
ARC
  5
2E23
  8
AM_0
 10
358.60710034815628
 20
336.72174109433467
 30
0.0
 40
1.0
 50
270.0
 51
0.0
  0
ARC
  5
2E24
  8
AM_0
 10
362.60710034815628
 20
366.41721709433472
 30
0.0
 40
3.0
 50
95.0
 51
180.0
  0
LINE
  5
2E25
  8
AM_0
 10
605.10715034815655
 20
344.72176609433473
 30
0.0
 11
605.10715034815655
 21
323.72173609433457
 31
0.0
  0
LINE
  5
2E26
  8
ｶｸﾚｾﾝ2
 10
593.60710034815645
 20
348.72173609433469
 30
0.0
 11
593.60710034815645
 21
323.72173609433457
 31
0.0
  0
LINE
  5
2E27
  8
ｶｸﾚｾﾝ2
 10
574.60710034815645
 20
348.72173609433469
 30
0.0
 11
574.60710034815645
 21
323.72173609433457
 31
0.0
  0
LINE
  5
2E28
  8
ﾁｭｳｼﾝｾﾝ1
 10
584.10710034815645
 20
353.22964109433468
 30
0.0
 11
584.10710034815645
 21
318.83010609433478
 31
0.0
  0
LINE
  5
2E29
  8
ｶｸﾚｾﾝ2
 10
424.60710034815628
 20
348.72173609433469
 30
0.0
 11
424.60710034815628
 21
323.72173609433457
 31
0.0
  0
LINE
  5
2E2A
  8
ｶｸﾚｾﾝ2
 10
443.60710034815622
 20
348.72173609433469
 30
0.0
 11
443.60710034815622
 21
323.72173609433457
 31
0.0
  0
LINE
  5
2E2B
  8
AM_0
 10
413.10705034815658
 20
344.72176609433473
 30
0.0
 11
413.10705034815658
 21
323.72173609433457
 31
0.0
  0
LINE
  5
2E2C
  8
ﾁｭｳｼﾝｾﾝ1
 10
434.10710034815622
 20
353.22964109433468
 30
0.0
 11
434.10710034815622
 21
318.83010609433478
 31
0.0
  0
LINE
  5
2E2D
  8
AM_0
 10
413.10705034815658
 20
323.72173609433457
 30
0.0
 11
605.10715034815655
 21
323.72173609433457
 31
0.0
  0
LINE
  5
2E2E
  8
AM_0
 10
504.86475034815618
 20
442.80682109433462
 30
0.0
 11
518.10055034815684
 21
452.7167960943346
 31
0.0
  0
LINE
  5
2E2F
  8
AM_0
 10
492.10710034815628
 20
434.53366109433472
 30
0.0
 11
492.10710034815628
 21
388.72173609433457
 31
0.0
  0
ARC
  5
2E30
  8
AM_0
 10
455.10715034815649
 20
399.86880109433457
 30
0.0
 40
5.0
 50
0.0
 51
90.00000299999769
  0
LINE
  5
2E31
  8
AM_0
 10
422.10710034815622
 20
434.97483509433482
 30
0.0
 11
422.10710034815622
 21
400.80284109433472
 31
0.0
  0
LINE
  5
2E32
  8
AM_0
 10
417.10705034815658
 20
348.72173609433469
 30
0.0
 11
457.18580034815648
 21
348.72173609433469
 31
0.0
  0
LINE
  5
2E33
  8
AM_0
 10
423.10710034815622
 20
377.2217660943345
 30
0.0
 11
456.24665034815649
 21
376.0645110943347
 31
0.0
  0
ARC
  5
2E34
  8
AM_0
 10
417.10705034815658
 20
344.72176609433473
 30
0.0
 40
4.000000049999997
 50
90.00000299999769
 51
180.00001000000091
  0
ARC
  5
2E35
  8
AM_0
 10
420.10710034815628
 20
400.80284109433472
 30
0.0
 40
2.0
 50
270.0
 51
0.0
  0
LINE
  5
2E36
  8
AM_0
 10
491.05915034815672
 20
387.36956609433457
 30
0.0
 11
463.50920034815658
 21
351.82113109433459
 31
0.0
  0
ARC
  5
2E37
  8
AM_0
 10
457.18580034815648
 20
356.72176609433473
 30
0.0
 40
8.0
 50
270.0
 51
322.22431999999588
  0
ARC
  5
2E38
  8
AM_0
 10
456.10710034815622
 20
372.0669210943347
 30
0.0
 40
4.000000049999997
 50
0.0
 51
88.000000000002785
  0
ARC
  5
2E39
  8
AM_0
 10
487.10710034815628
 20
390.43243109433462
 30
0.0
 40
5.0
 50
322.22431999999588
 51
0.0
  0
LINE
  5
2E3A
  8
AM_0
 10
425.10715034815649
 20
429.61132609433457
 30
0.0
 11
455.10715034815649
 21
429.61132609433457
 31
0.0
  0
LINE
  5
2E3B
  8
AM_0
 10
425.10715034815649
 20
404.86880109433457
 30
0.0
 11
455.10715034815649
 21
404.86880109433457
 31
0.0
  0
LINE
  5
2E3C
  8
AM_0
 10
425.10715034815649
 20
417.85919109433451
 30
0.0
 11
460.10715034815649
 21
417.85919109433451
 31
0.0
  0
ARC
  5
2E3D
  8
AM_0
 10
420.10710034815628
 20
426.78360309433452
 30
0.0
 40
2.0
 50
270.0
 51
0.0
  0
LINE
  5
2E3E
  8
AM_0
 10
425.10715034815649
 20
404.86880109433457
 30
0.0
 11
425.10715034815649
 21
429.61132609433457
 31
0.0
  0
LINE
  5
2E3F
  8
AM_0
 10
502.10710034815622
 20
441.11141609433457
 30
0.0
 11
502.10710034815622
 21
434.53366109433472
 31
0.0
  0
ARC
  5
2E40
  8
AM_0
 10
455.10715034815649
 20
434.61132609433452
 30
0.0
 40
5.0
 50
270.0
 51
0.0
  0
LINE
  5
2E41
  8
AM_0
 10
492.10710034815628
 20
434.53366109433472
 30
0.0
 11
502.10710034815622
 21
434.53366109433472
 31
0.0
  0
LINE
  5
2E42
  8
AM_0
 10
474.10710034815628
 20
445.70996109433457
 30
0.0
 11
487.10710034815628
 21
445.70996109433457
 31
0.0
  0
LINE
  5
2E43
  8
AM_0
 10
487.10710034815628
 20
444.11144609433472
 30
0.0
 11
499.10710034815628
 21
444.11144609433472
 31
0.0
  0
ARC
  5
2E44
  8
AM_0
 10
499.10710034815628
 20
441.11141609433457
 30
0.0
 40
3.0000000500000001
 50
0.0
 51
90.00000299999769
  0
ARC
  5
2E45
  8
AM_0
 10
569.10710034815656
 20
402.31960609433452
 30
0.0
 40
8.0
 50
270.0
 51
0.0
  0
ARC
  5
2E46
  8
AM_0
 10
565.10715034815655
 20
356.72176609433473
 30
0.0
 40
8.0
 50
180.00001000000091
 51
270.0
  0
LINE
  5
2E47
  8
AM_0
 10
569.10710034815656
 20
394.31960609433457
 30
0.0
 11
560.59035034815622
 21
394.31960609433457
 31
0.0
  0
LINE
  5
2E48
  8
AM_0
 10
565.10715034815655
 20
348.72173609433469
 30
0.0
 11
601.10710034815645
 21
348.72173609433469
 31
0.0
  0
ARC
  5
2E49
  8
AM_0
 10
601.10710034815645
 20
344.72176609433473
 30
0.0
 40
4.000000049999997
 50
0.0
 51
90.00000299999769
  0
ARC
  5
2E4A
  8
AM_0
 10
603.10710034815645
 20
352.46774109433471
 30
0.0
 40
4.000000049999997
 50
179.9999899999988
 51
255.52248999999699
  0
ARC
  5
2E4B
  8
AM_0
 10
512.10710034815645
 20
460.7217410943345
 30
0.0
 40
10.0
 50
306.82303999999999
 51
41.102821999997772
  0
LINE
  5
2E4C
  8
AM_0
 10
506.60710034815622
 20
473.20956109433439
 30
0.0
 11
506.60710034815622
 21
446.09741109433457
 31
0.0
  0
LINE
  5
2E4D
  8
AM_0
 10
599.98580034815654
 20
458.60037109433472
 30
0.0
 11
604.22850034815644
 21
462.8430160943347
 31
0.0
  0
ARC
  5
2E4E
  8
AM_0
 10
602.10710034815656
 20
456.4791260943345
 30
0.0
 40
3.0000000500000001
 50
135.0
 51
180.00001000000091
  0
ARC
  5
2E4F
  8
AM_0
 10
602.10710034815656
 20
464.96438609433471
 30
0.0
 40
3.0000000500000001
 50
315.0
 51
0.0
  0
LINE
  5
2E50
  8
AM_0
 10
421.10710034815628
 20
546.65729809433481
 30
0.0
 11
359.60710034815628
 21
546.65729809433481
 31
0.0
  0
LINE
  5
2E51
  8
AM_0
 10
422.10710034815622
 20
559.72174109433479
 30
0.0
 11
362.3456333481563
 21
564.95019209433474
 31
0.0
  0
ARC
  5
2E52
  8
AM_0
 10
362.60710034815628
 20
567.93877609433434
 30
0.0
 40
3.0
 50
180.0
 51
265.0
  0
LINE
  5
2E53
  8
AM_0
 10
343.60710034815628
 20
585.72174109433467
 30
0.0
 11
358.60710034815628
 21
585.72174109433467
 31
0.0
  0
ARC
  5
2E54
  8
AM_0
 10
358.60710034815628
 20
584.72174109433445
 30
0.0
 40
1.0
 50
0.0
 51
90.0
  0
ARC
  5
2E55
  8
AM_0
 10
471.10710034815628
 20
611.22173609433469
 30
0.0
 40
20.500000499999992
 50
304.61364000000231
 51
235.3863500000021
  0
CIRCLE
  5
2E56
  8
AM_0
 10
471.10710034815628
 20
611.22173609433469
 30
0.0
 40
12.5
  0
LINE
  5
2E57
  8
AM_0
 10
504.03730034815652
 20
584.84428609433473
 30
0.0
 11
569.3862503481563
 21
582.56223609433471
 31
0.0
  0
LINE
  5
2E58
  8
AM_0
 10
503.47355034815621
 20
555.11558609433473
 30
0.0
 11
515.27485034815652
 21
559.05693609433445
 31
0.0
  0
LINE
  5
2E59
  8
AM_0
 10
487.10710034815628
 20
583.3050360943347
 30
0.0
 11
505.79855034815671
 21
583.3050360943347
 31
0.0
  0
ARC
  5
2E5A
  8
AM_0
 10
456.10710034815622
 20
549.3765860943347
 30
0.0
 40
4.000000049999997
 50
271.9999999999971
 51
0.0
  0
LINE
  5
2E5B
  8
AM_0
 10
425.10715034815649
 20
544.29158609433466
 30
0.0
 11
425.10715034815649
 21
555.22173609433457
 31
0.0
  0
LINE
  5
2E5C
  8
AM_0
 10
502.10710034815622
 20
478.73352109433461
 30
0.0
 11
502.10710034815622
 21
562.04603609433445
 31
0.0
  0
LINE
  5
2E5D
  8
AM_0
 10
425.10700034815619
 20
544.29158609433466
 30
0.0
 11
456.24665034815649
 21
545.37898609433478
 31
0.0
  0
LINE
  5
2E5E
  8
AM_0
 10
423.10710034815622
 20
544.2216860943347
 30
0.0
 11
425.10700034815619
 21
544.29158609433466
 31
0.0
  0
LINE
  5
2E5F
  8
AM_0
 10
474.10710034815628
 20
475.73352109433472
 30
0.0
 11
487.10710034815628
 21
475.73352109433472
 31
0.0
  0
LINE
  5
2E60
  8
AM_0
 10
487.10710034815628
 20
475.73352109433472
 30
0.0
 11
499.10710034815628
 21
475.73352109433472
 31
0.0
  0
ARC
  5
2E61
  8
AM_0
 10
499.10710034815628
 20
478.73352109433461
 30
0.0
 40
3.0000000500000001
 50
270.0
 51
0.0
  0
LINE
  5
2E62
  8
AM_0
 10
425.10700034815619
 20
555.2216860943347
 30
0.0
 11
457.21175034815673
 21
556.34283609433453
 31
0.0
  0
LINE
  5
2E63
  8
AM_0
 10
422.10710034815622
 20
546.72174109433445
 30
0.0
 11
422.10710034815622
 21
559.72174109433479
 31
0.0
  0
LINE
  5
2E64
  8
AM_0
 10
422.10710034815622
 20
546.72174109433445
 30
0.0
 11
423.10710034815622
 21
546.72174109433445
 31
0.0
  0
LINE
  5
2E65
  8
AM_0
 10
460.10715034815649
 20
559.34108609433474
 30
0.0
 11
460.10715034815649
 21
588.72173609433446
 31
0.0
  0
LINE
  5
2E66
  8
AM_0
 10
475.36305034815661
 20
581.96528609433472
 30
0.0
 11
502.10710034815622
 21
581.96528609433472
 31
0.0
  0
LINE
  5
2E67
  8
AM_0
 10
474.10710034815628
 20
565.04603609433468
 30
0.0
 11
487.10710034815628
 21
565.04603609433468
 31
0.0
  0
ARC
  5
2E68
  8
AM_0
 10
457.10710034815622
 20
559.34108609433474
 30
0.0
 40
3.0000000500000001
 50
271.9999999999971
 51
0.0
  0
LINE
  5
2E69
  8
AM_0
 10
462.58615034815659
 20
577.80078609433474
 30
0.0
 11
471.62800034815621
 21
579.3951360943347
 31
0.0
  0
ARC
  5
2E6A
  8
AM_0
 10
463.10710034815622
 20
574.84633609433445
 30
0.0
 40
3.0000000500000001
 50
99.999999999998593
 51
180.00001000000091
  0
ARC
  5
2E6B
  8
AM_0
 10
471.10710034815628
 20
582.34948609433468
 30
0.0
 40
3.0000000500000001
 50
279.99999999999852
 51
0.0
  0
ARC
  5
2E6C
  8
AM_0
 10
499.10710034815628
 20
562.04603609433445
 30
0.0
 40
3.0000000500000001
 50
0.0
 51
90.00000299999769
  0
LINE
  5
2E6D
  8
AM_0
 10
487.10710034815628
 20
565.04603609433468
 30
0.0
 11
499.10710034815628
 21
565.04603609433468
 31
0.0
  0
LINE
  5
2E6E
  8
AM_0
 10
463.28995034815648
 20
597.22173609433446
 30
0.0
 11
478.9241503481565
 21
597.22173609433446
 31
0.0
  0
LINE
  5
2E6F
  8
AM_0
 10
474.10710034815628
 20
583.3050360943347
 30
0.0
 11
487.10710034815628
 21
583.3050360943347
 31
0.0
  0
LINE
  5
2E70
  8
AM_0
 10
476.03725034815659
 20
590.33513609433453
 30
0.0
 11
487.10700034815648
 21
590.72173609433469
 31
0.0
  0
LINE
  5
2E71
  8
AM_0
 10
471.10710034815628
 20
598.72173609433469
 30
0.0
 11
478.61050034815651
 21
597.33638609433444
 31
0.0
  0
LINE
  5
2E72
  8
AM_0
 10
460.7842003481565
 20
590.22173609433435
 30
0.0
 11
475.43965034815648
 21
590.22173609433435
 31
0.0
  0
ARC
  5
2E73
  8
AM_0
 10
463.78525034815658
 20
596.35298609433471
 30
0.0
 40
1.0
 50
100.4607200000025
 51
164.99999000000491
  0
ARC
  5
2E74
  8
AM_0
 10
457.19010034815648
 20
591.05823609433435
 30
0.0
 40
4.000000049999997
 50
347.9293300000017
 51
55.386359000001512
  0
ARC
  5
2E75
  8
AM_0
 10
462.10710034815628
 20
588.72173609433446
 30
0.0
 40
2.0000000500000001
 50
131.40962000000101
 51
180.00001000000091
  0
LINE
  5
2E76
  8
AM_0
 10
461.10710034815622
 20
590.22168609433447
 30
0.0
 11
462.81930034815662
 21
596.61183609433465
 31
0.0
  0
LINE
  5
2E77
  8
AM_0
 10
463.60370034815662
 20
597.33638609433444
 30
0.0
 11
471.10715034815649
 21
598.72168609433447
 31
0.0
  0
ARC
  5
2E78
  8
AM_0
 10
476.10710034815622
 20
588.33643609433454
 30
0.0
 40
2.0000000500000001
 50
91.999998000000545
 51
180.00001000000091
  0
LINE
  5
2E79
  8
AM_0
 10
487.10715034815649
 20
590.72173609433469
 30
0.0
 11
500.17690034815661
 21
590.26533609433477
 31
0.0
  0
ARC
  5
2E7A
  8
AM_0
 10
485.02400034815662
 20
591.05823609433435
 30
0.0
 40
4.000000049999997
 50
124.6136499999977
 51
187.86821999999509
  0
LINE
  5
2E7B
  8
AM_0
 10
481.0299503481566
 20
590.50943609433443
 30
0.0
 11
479.39480034815648
 21
596.61183609433465
 31
0.0
  0
ARC
  5
2E7C
  8
AM_0
 10
478.42900034815648
 20
596.35298609433471
 30
0.0
 40
1.0
 50
15.000000000000741
 51
79.539281000002006
  0
LINE
  5
2E7D
  8
AM_0
 10
485.10715034815649
 20
590.72173609433469
 30
0.0
 11
487.10710034815628
 21
590.72173609433469
 31
0.0
  0
ARC
  5
2E7E
  8
AM_0
 10
500.10715034815649
 20
588.2665360943347
 30
0.0
 40
2.0000000500000001
 50
0.0
 51
88.000000000002785
  0
ARC
  5
2E7F
  8
AM_0
 10
504.10710034815628
 20
586.84308609433447
 30
0.0
 40
2.0000000500000001
 50
179.9999899999988
 51
268.00000999999861
  0
LINE
  5
2E80
  8
AM_0
 10
502.10710034815622
 20
583.3050360943347
 30
0.0
 11
502.10710034815622
 21
588.2665360943347
 31
0.0
  0
ARC
  5
2E81
  8
AM_0
 10
602.10710034815656
 20
546.96433609433473
 30
0.0
 40
3.0000000500000001
 50
179.9999899999988
 51
225.0
  0
LINE
  5
2E82
  8
AM_0
 10
599.10710034815645
 20
498.7217410943345
 30
0.0
 11
599.10710034815645
 21
555.72173609433446
 31
0.0
  0
ARC
  5
2E83
  8
AM_0
 10
567.10710034815645
 20
532.89458609433473
 30
0.0
 40
10.0
 50
90.00000299999769
 51
180.00001000000091
  0
ARC
  5
2E84
  8
AM_0
 10
505.24310034815619
 20
479.23703109433438
 30
0.0
 40
3.0000000500000001
 50
41.102821999997772
 51
90.00000299999769
  0
LINE
  5
2E85
  8
AM_0
 10
605.10715034815655
 20
498.7217410943345
 30
0.0
 11
605.10715034815655
 21
538.47913609433465
 31
0.0
  0
LINE
  5
2E86
  8
AM_0
 10
609.10710034815645
 20
476.2217410943345
 30
0.0
 11
609.10710034815645
 21
521.22174109433445
 31
0.0
  0
LINE
  5
2E87
  8
AM_0
 10
605.10715034815655
 20
476.2217410943345
 30
0.0
 11
609.10710034815645
 21
476.2217410943345
 31
0.0
  0
LINE
  5
2E88
  8
AM_0
 10
572.16535034815615
 20
542.89458609433473
 30
0.0
 11
567.10710034815645
 21
542.89458609433473
 31
0.0
  0
LINE
  5
2E89
  8
AM_0
 10
605.10715034815655
 20
521.22174109433445
 30
0.0
 11
609.10710034815645
 21
521.22174109433445
 31
0.0
  0
LINE
  5
2E8A
  8
AM_0
 10
599.98575034815644
 20
544.84308609433458
 30
0.0
 11
604.22850034815644
 21
540.60038609433457
 31
0.0
  0
ARC
  5
2E8B
  8
AM_0
 10
602.10710034815656
 20
538.47913609433465
 30
0.0
 40
3.0000000500000001
 50
0.0
 51
45.000001000003799
  0
LINE
  5
2E8C
  8
AM_0
 10
507.30610034815652
 20
582.89873609433448
 30
0.0
 11
517.13215034815664
 21
577.18763609433449
 31
0.0
  0
ARC
  5
2E8D
  8
AM_0
 10
512.10710034815645
 20
568.54193609433435
 30
0.0
 40
10.0
 50
288.4682099999992
 51
59.833878000001903
  0
LINE
  5
2E8E
  8
AM_0
 10
506.60710034815622
 20
560.19738609433455
 30
0.0
 11
506.60710034815622
 21
581.37058609433473
 31
0.0
  0
ARC
  5
2E8F
  8
AM_0
 10
506.11940034815632
 20
559.16203609433467
 30
0.0
 40
3.0000000500000001
 50
270.0
 51
288.46821999999992
  0
ARC
  5
2E90
  8
AM_0
 10
505.79855034815671
 20
580.3050360943347
 30
0.0
 40
3.0000000500000001
 50
59.833878000001903
 51
90.00000299999769
  0
ARC
  5
2E91
  8
AM_0
 10
569.10710034815656
 20
574.5671360943345
 30
0.0
 40
8.0
 50
0.0
 51
88.000000000002785
  0
LINE
  5
2E92
  8
AM_0
 10
585.10715034815655
 20
558.72173609433469
 30
0.0
 11
596.10710034815645
 21
558.72173609433469
 31
0.0
  0
ARC
  5
2E93
  8
AM_0
 10
585.10715034815655
 20
566.72173609433469
 30
0.0
 40
8.0
 50
180.00001000000091
 51
270.0
  0
ARC
  5
2E94
  8
AM_0
 10
596.10710034815645
 20
555.72173609433446
 30
0.0
 40
3.0000000500000001
 50
0.0
 51
90.00000299999769
  0
ARC
  5
2E95
  8
AM_0
 10
940.94999647996485
 20
470.72174109433462
 30
0.0
 40
88.0
 50
0.0
 51
186.52498000000369
  0
CIRCLE
  5
2E96
  8
AM_0
 10
940.94999647996485
 20
498.7217410943345
 30
0.0
 40
41.000000499999992
  0
LINE
  5
2E97
  8
AM_0
 10
1034.949996479965
 20
542.35657609433474
 30
0.0
 11
1034.949996479965
 21
423.1071160943344
 31
0.0
  0
LINE
  5
2E98
  8
AM_0
 10
1064.494951479965
 20
476.1133410943346
 30
0.0
 11
1080.911636479964
 21
344.33990109433472
 31
0.0
  0
LINE
  5
2E99
  8
AM_0
 10
846.94999647996497
 20
542.35657609433474
 30
0.0
 11
846.94999647996497
 21
426.7118810943345
 31
0.0
  0
LINE
  5
2E9A
  8
AM_0
 10
817.40503147996503
 20
476.1133410943346
 30
0.0
 11
800.98833147996493
 21
344.33987109433468
 31
0.0
  0
LINE
  5
2E9B
  8
AM_0
 10
803.87893147996499
 20
467.79281609433451
 30
0.0
 11
817.21883147996505
 21
481.13272109433473
 31
0.0
  0
LINE
  5
2E9C
  8
AM_0
 10
1078.021076479964
 20
467.79281609433451
 30
0.0
 11
1064.681201479965
 21
481.1326910943344
 31
0.0
  0
LINE
  5
2E9D
  8
ﾁｭｳｼﾝｾﾝ1
 10
940.94999647996485
 20
640.35747041811442
 30
0.0
 11
940.94999647996485
 21
322.75216609433483
 31
0.0
  0
LINE
  5
2E9E
  8
AM_0
 10
1036.9499964799641
 20
348.72173609433452
 30
0.0
 11
1075.9500014799651
 21
348.72173609433452
 31
0.0
  0
LINE
  5
2E9F
  8
AM_0
 10
1025.9499964799641
 20
323.72173609433452
 30
0.0
 11
1080.9500014799651
 21
323.72173609433452
 31
0.0
  0
LINE
  5
2EA0
  8
ﾁｭｳｼﾝｾﾝ1
 10
796.68448147996503
 20
460.7217410943345
 30
0.0
 11
1084.8044614799651
 21
460.7217410943345
 31
0.0
  0
LINE
  5
2EA1
  8
AM_0
 10
805.95003147996511
 20
348.72173609433452
 30
0.0
 11
848.24998147996519
 21
348.72173609433452
 31
0.0
  0
LINE
  5
2EA2
  8
AM_0
 10
800.95003147996499
 20
323.72173609433452
 30
0.0
 11
855.94999647996497
 21
323.72173609433452
 31
0.0
  0
LINE
  5
2EA3
  8
ﾁｭｳｼﾝｾﾝ1
 10
825.95003147996499
 20
353.22964109433468
 30
0.0
 11
825.95003147996499
 21
318.83010609433478
 31
0.0
  0
LINE
  5
2EA4
  8
ｶｸﾚｾﾝ2
 10
835.449981479965
 20
348.72173609433452
 30
0.0
 11
835.449981479965
 21
323.72173609433452
 31
0.0
  0
LINE
  5
2EA5
  8
ｶｸﾚｾﾝ2
 10
816.45003147996511
 20
348.72173609433452
 30
0.0
 11
816.45003147996511
 21
323.72173609433452
 31
0.0
  0
LINE
  5
2EA6
  8
AM_0
 10
800.95003147996499
 20
343.7217360943344
 30
0.0
 11
800.95003147996499
 21
323.72173609433452
 31
0.0
  0
ARC
  5
2EA7
  8
AM_0
 10
805.95003147996511
 20
343.7217360943344
 30
0.0
 40
5.0
 50
90.00000299999769
 51
180.00001000000091
  0
ARC
  5
2EA8
  8
AM_0
 10
807.06698147996462
 20
443.39157109433438
 30
0.0
 40
5.0
 50
7.375508100000534
 51
45.000001000003799
  0
LINE
  5
2EA9
  8
AM_0
 10
803.87893147996499
 20
453.65069609433471
 30
0.0
 11
811.68988147996504
 21
445.83972109433449
 31
0.0
  0
ARC
  5
2EAA
  8
AM_0
 10
810.95003147996511
 20
460.7217410943345
 30
0.0
 40
10.0
 50
135.0
 51
225.0
  0
ARC
  5
2EAB
  8
AM_0
 10
808.15438147996508
 20
442.30416609433451
 30
0.0
 40
5.0
 50
352.89851999999883
 51
45.000001000003799
  0
ARC
  5
2EAC
  8
AM_0
 10
940.94999647996485
 20
460.7217410943345
 30
0.0
 40
130.0
 50
187.37550999999999
 51
189.6244599999979
  0
LINE
  5
2EAD
  8
ﾁｭｳｼﾝｾﾝ1
 10
1055.9500014799651
 20
352.5718960943347
 30
0.0
 11
1055.9500014799651
 21
316.74621109433463
 31
0.0
  0
LINE
  5
2EAE
  8
ｶｸﾚｾﾝ2
 10
1046.4500014799651
 20
348.72173609433452
 30
0.0
 11
1046.4500014799651
 21
323.72173609433452
 31
0.0
  0
ARC
  5
2EAF
  8
AM_0
 10
1023.928146479964
 20
336.55758609433468
 30
0.0
 40
8.0
 50
182.9944600000008
 51
260.51170000000258
  0
LINE
  5
2EB0
  8
AM_0
 10
1029.649981479964
 20
344.72177109433471
 30
0.0
 11
1029.649981479964
 21
323.72173609433452
 31
0.0
  0
ARC
  5
2EB1
  8
AM_0
 10
857.97181647996501
 20
336.55758609433468
 30
0.0
 40
8.0
 50
279.4882999999972
 51
357.00553999999892
  0
LINE
  5
2EB2
  8
AM_0
 10
852.25001647996464
 20
344.72177109433471
 30
0.0
 11
852.25001647996464
 21
323.72173609433452
 31
0.0
  0
LINE
  5
2EB3
  8
AM_0
 10
859.94996647996493
 20
328.72173609433452
 30
0.0
 11
1022.315781479965
 21
328.72173609433452
 31
0.0
  0
ARC
  5
2EB4
  8
AM_0
 10
859.94996647996493
 20
324.72176609433478
 30
0.0
 40
4.000000049999997
 50
99.488295999996765
 51
180.00001000000091
  0
LINE
  5
2EB5
  8
AM_0
 10
855.94999647996497
 20
324.72176609433478
 30
0.0
 11
855.94999647996497
 21
323.72173609433452
 31
0.0
  0
LINE
  5
2EB6
  8
AM_0
 10
1025.9499964799641
 20
324.72176609433478
 30
0.0
 11
1025.9499964799641
 21
323.72173609433452
 31
0.0
  0
ARC
  5
2EB7
  8
AM_0
 10
1021.949996479965
 20
324.72176609433478
 30
0.0
 40
4.000000049999997
 50
0.0
 51
80.511702000002984
  0
LINE
  5
2EB8
  8
AM_0
 10
870.59553647996506
 20
338.45242109433468
 30
0.0
 11
1011.304461479965
 21
338.45242109433468
 31
0.0
  0
LINE
  5
2EB9
  8
AM_0
 10
873.94999647996497
 20
343.7217360943344
 30
0.0
 11
1007.9499964799641
 21
343.7217360943344
 31
0.0
  0
ARC
  5
2EBA
  8
AM_0
 10
940.94999647996485
 20
426.7118810943345
 30
0.0
 40
93.999994999999984
 50
179.9999899999988
 51
200.5819600000012
  0
LINE
  5
2EBB
  8
AM_0
 10
852.94999647996508
 20
460.7217410943345
 30
0.0
 11
852.94999647996508
 21
356.72177109433471
 31
0.0
  0
ARC
  5
2EBC
  8
AM_0
 10
870.59553647996506
 20
333.45242109433462
 30
0.0
 40
5.0
 50
90.00000299999769
 51
166.1807799999996
  0
ARC
  5
2EBD
  8
AM_0
 10
873.94999647996497
 20
335.72173609433452
 30
0.0
 40
8.0
 50
90.00000299999769
 51
177.00553999999889
  0
ARC
  5
2EBE
  8
AM_0
 10
844.94996647996516
 20
356.72177109433471
 30
0.0
 40
8.0
 50
270.0
 51
0.0
  0
ARC
  5
2EBF
  8
AM_0
 10
848.24998147996519
 20
344.72177109433471
 30
0.0
 40
4.000000049999997
 50
0.0
 51
90.00000299999769
  0
LINE
  5
2EC0
  8
AM_0
 10
1028.9499964799641
 20
470.72174109433462
 30
0.0
 11
1028.9499964799641
 21
356.72177109433471
 31
0.0
  0
ARC
  5
2EC1
  8
AM_0
 10
940.94999647996485
 20
426.7118810943345
 30
0.0
 40
93.999994999999984
 50
339.95001999999999
 51
20.049975999999841
  0
ARC
  5
2EC2
  8
AM_0
 10
1036.9499964799641
 20
356.72177109433471
 30
0.0
 40
8.0
 50
180.00001000000091
 51
270.0
  0
ARC
  5
2EC3
  8
AM_0
 10
1033.649981479964
 20
344.72177109433471
 30
0.0
 40
4.000000049999997
 50
90.00000299999769
 51
180.00001000000091
  0
ARC
  5
2EC4
  8
AM_0
 10
1007.9499964799641
 20
335.72173609433452
 30
0.0
 40
8.0
 50
2.9944644000003162
 51
90.00000299999769
  0
ARC
  5
2EC5
  8
AM_0
 10
1011.304461479965
 20
333.45242109433462
 30
0.0
 40
5.0
 50
13.819217000001251
 51
90.00000299999769
  0
ARC
  5
2EC6
  8
AM_0
 10
1033.9499964799641
 20
392.77078109433472
 30
0.0
 40
5.0
 50
159.95003000000011
 51
180.00001000000091
  0
ARC
  5
2EC7
  8
AM_0
 10
1033.9499964799641
 20
460.65301609433448
 30
0.0
 40
5.0
 50
179.9999899999988
 51
200.04996999999969
  0
LINE
  5
2EC8
  8
AM_0
 10
1080.9500014799651
 20
343.7217360943344
 30
0.0
 11
1080.9500014799651
 21
323.72173609433452
 31
0.0
  0
LINE
  5
2EC9
  8
ｶｸﾚｾﾝ2
 10
1065.4500014799651
 20
348.72173609433452
 30
0.0
 11
1065.4500014799651
 21
323.72173609433452
 31
0.0
  0
ARC
  5
2ECA
  8
AM_0
 10
1075.9500014799651
 20
343.7217360943344
 30
0.0
 40
5.0
 50
0.0
 51
90.00000299999769
  0
ARC
  5
2ECB
  8
AM_0
 10
1070.9500014799651
 20
460.7217410943345
 30
0.0
 40
10.0
 50
315.0
 51
45.000001000003799
  0
LINE
  5
2ECC
  8
AM_0
 10
1078.021076479964
 20
453.65069609433471
 30
0.0
 11
1070.2101014799639
 21
445.83969109433463
 31
0.0
  0
ARC
  5
2ECD
  8
AM_0
 10
1074.833026479964
 20
443.39157109433438
 30
0.0
 40
5.0
 50
135.0
 51
172.6244899999997
  0
ARC
  5
2ECE
  8
AM_0
 10
1073.745621479964
 20
442.30416609433451
 30
0.0
 40
5.0
 50
135.0
 51
187.10148999999521
  0
ARC
  5
2ECF
  8
AM_0
 10
940.94999647996485
 20
460.7217410943345
 30
0.0
 40
130.0
 50
350.37554999999838
 51
352.62448999999958
  0
ARC
  5
2ED0
  8
AM_0
 10
940.94999647996485
 20
460.7217410943345
 30
0.0
 40
130.0
 50
7.375507199997366
 51
52.624493999996417
  0
ARC
  5
2ED1
  8
AM_0
 10
940.94999647996485
 20
460.7217410943345
 30
0.0
 40
124.5
 50
7.1014839000006411
 51
172.89851999999871
  0
ARC
  5
2ED2
  8
AM_0
 10
940.94999647996485
 20
460.7217410943345
 30
0.0
 40
130.0
 50
127.3755000000037
 51
172.6244899999997
  0
LINE
  5
2ED3
  8
AM_0
 10
623.10710034815656
 20
522.72174109433445
 30
0.0
 11
679.10710034815645
 21
522.72174109433445
 31
0.0
  0
LINE
  5
2ED4
  8
AM_0
 10
623.10710034815656
 20
522.72174109433445
 30
0.0
 11
623.10710034815656
 21
519.7217710943346
 31
0.0
  0
LINE
  5
2ED5
  8
AM_0
 10
679.10710034815645
 20
477.7217410943345
 30
0.0
 11
679.10710034815645
 21
522.72174109433445
 31
0.0
  0
ARC
  5
2ED6
  8
AM_0
 10
807.06698147996462
 20
478.05191109433463
 30
0.0
 40
5.0
 50
315.0
 51
352.62448999999958
  0
ARC
  5
2ED7
  8
AM_0
 10
813.68328147996465
 20
484.66824109433452
 30
0.0
 40
5.0
 50
315.0
 51
349.34382000000329
  0
LINE
  5
2ED8
  8
AM_0
 10
944.9499664799647
 20
627.72177609433447
 30
0.0
 11
944.9499664799647
 21
594.22177609433447
 31
0.0
  0
LINE
  5
2ED9
  8
AM_0
 10
936.94999647996508
 20
627.72177609433447
 30
0.0
 11
936.94999647996508
 21
594.22177609433447
 31
0.0
  0
LINE
  5
2EDA
  8
AM_0
 10
950.918596479965
 20
590.3389760943345
 30
0.0
 11
949.23780647996477
 21
596.61182609433445
 31
0.0
  0
ARC
  5
2EDB
  8
AM_0
 10
940.94999647996485
 20
460.7217410943345
 30
0.0
 40
130.0
 50
67.375506000002574
 51
112.6244900000042
  0
LINE
  5
2EDC
  8
ﾁｭｳｼﾝｾﾝ1
 10
865.80526329653594
 20
498.7217410943345
 30
0.0
 11
1016.094729663394
 21
498.7217410943345
 31
0.0
  0
ARC
  5
2EDD
  8
AM_0
 10
940.94999647996485
 20
498.7217410943345
 30
0.0
 40
20.9999985
 50
106.6015499999988
 51
73.398451999997818
  0
CIRCLE
  5
2EDE
  8
AM_5
 10
940.94999647996485
 20
498.7217410943345
 30
0.0
 40
5.0
  0
CIRCLE
  5
2EDF
  8
AM_0
 10
940.94999647996485
 20
498.7217410943345
 30
0.0
 40
3.5000000500000001
  0
LINE
  5
2EE0
  8
AM_0
 10
934.94996647996481
 20
514.72177109433483
 30
0.0
 11
946.94999647996474
 21
514.72177109433483
 31
0.0
  0
LINE
  5
2EE1
  8
AM_0
 10
934.94996647996481
 20
522.72174109433445
 30
0.0
 11
946.94999647996474
 21
522.72174109433445
 31
0.0
  0
LINE
  5
2EE2
  8
AM_0
 10
934.94996647996481
 20
522.72174109433445
 30
0.0
 11
934.94996647996481
 21
514.72177109433483
 31
0.0
  0
LINE
  5
2EE3
  8
AM_0
 10
946.94999647996474
 20
522.72174109433445
 30
0.0
 11
946.94999647996474
 21
514.72177109433483
 31
0.0
  0
LINE
  5
2EE4
  8
AM_0
 10
878.53822147996505
 20
582.96432609433452
 30
0.0
 11
896.76084647996515
 21
578.08157609433465
 31
0.0
  0
ARC
  5
2EE5
  8
AM_0
 10
875.94999647996508
 20
573.30502609433427
 30
0.0
 40
10.0
 50
74.999998999997473
 51
164.99999000000491
  0
LINE
  5
2EE6
  8
AM_0
 10
866.29078647996505
 20
575.89327609433451
 30
0.0
 11
861.40803647996506
 21
557.67062609433435
 31
0.0
  0
ARC
  5
2EE7
  8
AM_0
 10
859.00010647996498
 20
568.00277609433465
 30
0.0
 40
5.0
 50
307.37551000000462
 51
344.99999999999909
  0
ARC
  5
2EE8
  8
AM_0
 10
856.57835147996491
 20
558.96467609433455
 30
0.0
 40
5.0
 50
310.6561800000004
 51
344.99999999999909
  0
ARC
  5
2EE9
  8
AM_0
 10
889.01686147996463
 20
585.33292609433465
 30
0.0
 40
5.0
 50
254.9999999999992
 51
292.62449000000191
  0
ARC
  5
2EEA
  8
AM_0
 10
898.0549164799645
 20
582.91117609433445
 30
0.0
 40
5.0
 50
254.9999999999992
 51
289.34382000000068
  0
ARC
  5
2EEB
  8
AM_0
 10
934.94996647996481
 20
594.22177609433447
 30
0.0
 40
2.0000000500000001
 50
270.0
 51
0.0
  0
LINE
  5
2EEC
  8
AM_0
 10
936.94999647996508
 20
597.98317609433468
 30
0.0
 11
933.44658147996472
 21
597.3363760943347
 31
0.0
  0
ARC
  5
2EED
  8
AM_0
 10
933.62815647996501
 20
596.35297609433474
 30
0.0
 40
1.0
 50
100.4607200000025
 51
164.99999000000491
  0
LINE
  5
2EEE
  8
AM_0
 10
930.98146147996499
 20
590.33902609433449
 30
0.0
 11
932.66224647996489
 21
596.61182609433445
 31
0.0
  0
ARC
  5
2EEF
  8
AM_0
 10
948.27186647996461
 20
596.35297609433474
 30
0.0
 40
1.0
 50
15.000000000000741
 51
79.539281000002006
  0
ARC
  5
2EF0
  8
AM_0
 10
946.94999647996474
 20
594.22177609433447
 30
0.0
 40
2.0000000500000001
 50
179.9999899999988
 51
270.0
  0
LINE
  5
2EF1
  8
AM_0
 10
944.9499664799647
 20
597.98322609433444
 30
0.0
 11
948.45338647996471
 21
597.3363760943347
 31
0.0
  0
ARC
  5
2EF2
  8
AM_0
 10
1005.949996479965
 20
573.30502609433427
 30
0.0
 40
10.0
 50
15.000000000000741
 51
105.0000000000007
  0
LINE
  5
2EF3
  8
AM_0
 10
1003.361801479964
 20
582.96427609433476
 30
0.0
 11
985.13917647996504
 21
578.08152609433444
 31
0.0
  0
ARC
  5
2EF4
  8
AM_0
 10
992.88313647996472
 20
585.33292609433465
 30
0.0
 40
5.0
 50
247.37550999999809
 51
285.00000000000063
  0
ARC
  5
2EF5
  8
AM_0
 10
983.8450764799652
 20
582.91117609433445
 30
0.0
 40
5.0
 50
250.65617999999921
 51
285.00000000000063
  0
ARC
  5
2EF6
  8
AM_0
 10
1022.899886479964
 20
568.00277609433465
 30
0.0
 40
5.0
 50
195.00000999999489
 51
232.62449999999609
  0
LINE
  5
2EF7
  8
AM_0
 10
1015.609271479964
 20
575.89322609433475
 30
0.0
 11
1020.491991479965
 21
557.67062609433435
 31
0.0
  0
ARC
  5
2EF8
  8
AM_0
 10
1025.321641479964
 20
558.96467609433455
 30
0.0
 40
5.0
 50
195.00000999999489
 51
229.34381999999951
  0
ARC
  5
2EF9
  8
AM_0
 10
940.94999647996485
 20
627.72177609433447
 30
0.0
 40
4.000000049999997
 50
359.999989999999
 51
179.9999899999988
  0
ARC
  5
2EFA
  8
AM_0
 10
1068.216721479964
 20
484.66824109433452
 30
0.0
 40
5.0
 50
190.6561799999964
 51
225.0
  0
ARC
  5
2EFB
  8
AM_0
 10
1074.833026479964
 20
478.05191109433463
 30
0.0
 40
5.0
 50
187.37550999999999
 51
225.0
  0
TEXT
  5
30D9
  8
AM_0
 10
818.84691547105103
 20
916.47319175916266
 30
0.0
 40
15.0
  1
VX22-040A~VX22-050A
  0
ENDSEC
  0
EOF
