  0
SECTION
  2
HEADER
  9
$ACADVER
  1
AC1009
  9
$INSBASE
 10
0.0
 20
0.0
 30
0.0
  9
$EXTMIN
 10
294.93606932919459
 20
274.93063820542238
 30
-0.0000000349181948
  9
$EXTMAX
 10
1195.5025512655291
 20
1094.8112784437701
 30
0.0000000814935747
  9
$LIMMIN
 10
0.0
 20
0.0
  9
$LIMMAX
 10
1422.5
 20
925.0
  9
$ORTHOMODE
 70
     0
  9
$REGENMODE
 70
     1
  9
$FILLMODE
 70
     1
  9
$QTEXTMODE
 70
     0
  9
$MIRRTEXT
 70
     1
  9
$DRAGMODE
 70
     2
  9
$LTSCALE
 40
5.0
  9
$OSMODE
 70
   551
  9
$ATTMODE
 70
     1
  9
$TEXTSIZE
 40
2.5
  9
$TRACEWID
 40
1.0
  9
$TEXTSTYLE
  7
STANDARD
  9
$CLAYER
  8
AM_0
  9
$CELTYPE
  6
BYLAYER
  9
$CECOLOR
 62
   256
  9
$DIMSCALE
 40
1.0
  9
$DIMASZ
 40
2.5
  9
$DIMEXO
 40
1.0
  9
$DIMDLI
 40
8.0
  9
$DIMRND
 40
0.0
  9
$DIMDLE
 40
0.0
  9
$DIMEXE
 40
0.6
  9
$DIMTP
 40
0.1
  9
$DIMTM
 40
0.1
  9
$DIMTXT
 40
2.5
  9
$DIMCEN
 40
0.0
  9
$DIMTSZ
 40
0.0
  9
$DIMTOL
 70
     0
  9
$DIMLIM
 70
     0
  9
$DIMTIH
 70
     0
  9
$DIMTOH
 70
     0
  9
$DIMSE1
 70
     0
  9
$DIMSE2
 70
     0
  9
$DIMTAD
 70
     1
  9
$DIMZIN
 70
     8
  9
$DIMBLK
  1

  9
$DIMASO
 70
     1
  9
$DIMSHO
 70
     1
  9
$DIMPOST
  1

  9
$DIMAPOST
  1
"
  9
$DIMALT
 70
     0
  9
$DIMALTD
 70
     2
  9
$DIMALTF
 40
0.0393701
  9
$DIMLFAC
 40
1.0
  9
$DIMTOFL
 70
     1
  9
$DIMTVP
 40
0.0
  9
$DIMTIX
 70
     0
  9
$DIMSOXD
 70
     0
  9
$DIMSAH
 70
     0
  9
$DIMBLK1
  1

  9
$DIMBLK2
  1

  9
$DIMSTYLE
  2
AM_ISO
  9
$DIMCLRD
 70
   256
  9
$DIMCLRE
 70
   256
  9
$DIMCLRT
 70
     4
  9
$DIMTFAC
 40
0.71
  9
$DIMGAP
 40
0.8
  9
$LUNITS
 70
     2
  9
$LUPREC
 70
     2
  9
$SKETCHINC
 40
1.0
  9
$FILLETRAD
 40
25.0
  9
$AUNITS
 70
     0
  9
$AUPREC
 70
     0
  9
$MENU
  1
.
  9
$ELEVATION
 40
0.0
  9
$PELEVATION
 40
0.0
  9
$THICKNESS
 40
0.0
  9
$LIMCHECK
 70
     0
  9
$BLIPMODE
 70
     0
  9
$CHAMFERA
 40
10.0
  9
$CHAMFERB
 40
5.0
  9
$SKPOLY
 70
     0
  9
$TDCREATE
 40
2452066.657626227
  9
$TDUPDATE
 40
2458541.4762079278
  9
$TDINDWG
 40
0.1587216435
  9
$TDUSRTIMER
 40
0.1587214468
  9
$USRTIMER
 70
     1
  9
$ANGBASE
 50
0.0
  9
$ANGDIR
 70
     0
  9
$PDMODE
 70
     0
  9
$PDSIZE
 40
0.0
  9
$PLINEWID
 40
0.0
  9
$COORDS
 70
     1
  9
$SPLFRAME
 70
     0
  9
$SPLINETYPE
 70
     6
  9
$SPLINESEGS
 70
     8
  9
$ATTDIA
 70
     1
  9
$ATTREQ
 70
     1
  9
$HANDLING
 70
     1
  9
$HANDSEED
  5
31B6
  9
$SURFTAB1
 70
     6
  9
$SURFTAB2
 70
     6
  9
$SURFTYPE
 70
     6
  9
$SURFU
 70
     6
  9
$SURFV
 70
     6
  9
$UCSNAME
  2

  9
$UCSORG
 10
0.0
 20
0.0
 30
0.0
  9
$UCSXDIR
 10
1.0
 20
0.0
 30
0.0
  9
$UCSYDIR
 10
0.0
 20
1.0
 30
0.0
  9
$PUCSNAME
  2

  9
$PUCSORG
 10
0.0
 20
0.0
 30
0.0
  9
$PUCSXDIR
 10
1.0
 20
0.0
 30
0.0
  9
$PUCSYDIR
 10
0.0
 20
1.0
 30
0.0
  9
$USERI1
 70
     0
  9
$USERI2
 70
     0
  9
$USERI3
 70
     0
  9
$USERI4
 70
     0
  9
$USERI5
 70
     0
  9
$USERR1
 40
0.0
  9
$USERR2
 40
0.0
  9
$USERR3
 40
0.0
  9
$USERR4
 40
0.0
  9
$USERR5
 40
0.0
  9
$WORLDVIEW
 70
     1
  9
$SHADEDGE
 70
     3
  9
$SHADEDIF
 70
    70
  9
$TILEMODE
 70
     1
  9
$MAXACTVP
 70
    64
  9
$PLIMCHECK
 70
     0
  9
$PEXTMIN
 10
1.0000000000000000E+020
 20
1.0000000000000000E+020
 30
1.0000000000000000E+020
  9
$PEXTMAX
 10
-1.0000000000000000E+020
 20
-1.0000000000000000E+020
 30
-1.0000000000000000E+020
  9
$PLIMMIN
 10
0.0
 20
0.0
  9
$PLIMMAX
 10
420.0
 20
297.0
  9
$UNITMODE
 70
     0
  9
$VISRETAIN
 70
     1
  9
$PLINEGEN
 70
     0
  9
$PSLTSCALE
 70
     1
  0
ENDSEC
  0
SECTION
  2
TABLES
  0
TABLE
  2
VPORT
 70
     1
  0
VPORT
  2
*ACTIVE
 70
     0
 10
0.0
 20
0.0
 11
1.0
 21
1.0
 12
745.21931029736197
 22
684.87095832459624
 13
0.0
 23
0.0
 14
12.5
 24
12.5
 15
50.0
 25
50.0
 16
0.0
 26
0.0
 36
1.0
 17
0.0
 27
0.0
 37
0.0
 40
825.50911145279895
 41
1.7571592210767459
 42
50.0
 43
0.0
 44
0.0
 50
0.0
 51
0.0
 71
     0
 72
   100
 73
     1
 74
     3
 75
     0
 76
     0
 77
     0
 78
     0
  0
ENDTAB
  0
TABLE
  2
LTYPE
 70
    27
  0
LTYPE
  2
CONTINUOUS
 70
     0
  3
Solid line
 72
    65
 73
     0
 40
0.0
  0
LTYPE
  2
AM_ISO02W050
 70
     0
  3
__ __ __ __ __ __ __ __ __ __ __ __ __ __ __
 72
    65
 73
     2
 40
7.5
 49
6.0
 49
-1.5
  0
LTYPE
  2
AM_ISO08W050
 70
     0
  3
____ . ____ . ____ . ____ . ____ . ____ . ____
 72
    65
 73
     4
 40
18.0
 49
12.0
 49
-1.5
 49
3.0
 49
-1.5
  0
LTYPE
  2
AM_ISO09W050
 70
     0
  3
_____ . . _____ . . _____ . . ____ .. ____
 72
    65
 73
     6
 40
22.5
 49
12.0
 49
-1.5
 49
3.0
 49
-1.5
 49
3.0
 49
-1.5
  0
LTYPE
  2
AMCONSTR
 70
     0
  3
_______________________
 72
    65
 73
     2
 40
9999.0
 49
9999.0
 49
0.0
  0
LTYPE
  2
AM_ISO08W050X2
 70
     0
  3
__ . __ . __ . __ . __ . __
 72
    65
 73
     4
 40
9.0
 49
6.0
 49
-0.75
 49
1.5
 49
-0.75
  0
LTYPE
  2
AM_ISO02W050X2
 70
     0
  3
 _ _ _ _ _ _ _ _ _ _ _ _
 72
    65
 73
     2
 40
3.75
 49
3.0
 49
-0.75
  0
LTYPE
  2
AMZIGZAG
 70
     0
  3
/\/-/\/-/\/-/\/-/\/-/\/
 72
    65
 73
     2
 40
11.000099999999991
 49
0.0001
 49
-11.0
  0
LTYPE
  2
ACISOWELD
 70
     0
  3
_ _ _ _ _
 72
    65
 73
     2
 40
2.0
 49
2.0
 49
-1.0
  0
LTYPE
  2
ACISOTGB
 70
     0
  3
__ . . __ . .
 72
    65
 73
     6
 40
9.0
 49
4.0
 49
-1.0
 49
1.0
 49
-1.0
 49
1.0
 49
-1.0
  0
LTYPE
  2
ACISOTGL
 70
     0
  3
_ _ _ _ _
 72
    65
 73
     2
 40
3.0
 49
2.0
 49
-1.0
  0
LTYPE
  2
CENTER
 70
     0
  3
__ . __
 72
    65
 73
     4
 40
7.0
 49
4.0
 49
-1.0
 49
1.0
 49
-1.0
  0
LTYPE
  2
PHANTOM2
 70
     0
  3
Phantom (.5x) ___ _ _ ___ _ _ ___ _ _ ___ _ _
 72
    65
 73
     6
 40
31.75
 49
15.875
 49
-3.174999999999998
 49
3.174999999999998
 49
-3.174999999999998
 49
3.174999999999998
 49
-3.174999999999998
  0
LTYPE
  2
ACANSTGBM
 70
     0
  3
__ . . __ . .
 72
    65
 73
     6
 40
9.0
 49
4.0
 49
-1.0
 49
1.0
 49
-1.0
 49
1.0
 49
-1.0
  0
LTYPE
  2
ACANSTGLM
 70
     0
  3
_ _ _ _ _
 72
    65
 73
     2
 40
3.0
 49
2.0
 49
-1.0
  0
LTYPE
  2
GEN7
 70
     0
  3
____ . ____ . ____ . ____ . ____ . ____ . ____
 72
    65
 73
     4
 40
14.25
 49
9.75
 49
-1.5
 49
1.5
 49
-1.5
  0
LTYPE
  2
GEN3B
 70
     0
  3
 - - - - -
 72
    65
 73
     2
 40
1.0
 49
0.5
 49
-0.5
  0
LTYPE
  2
GEN7A
 70
     0
  3
__ . __ . __
 72
    65
 73
     4
 40
7.375
 49
4.75
 49
-0.875
 49
0.875
 49
-0.875
  0
LTYPE
  2
ACJISTGB
 70
     0
  3
__ . . __ . .
 72
    65
 73
     6
 40
9.0
 49
4.0
 49
-1.0
 49
1.0
 49
-1.0
 49
1.0
 49
-1.0
  0
LTYPE
  2
ACJISTGL
 70
     0
  3
_ _ _ _ _
 72
    65
 73
     2
 40
3.0
 49
2.0
 49
-1.0
  0
LTYPE
  2
HIDDEN
 70
     0
  3
Hidden __ __ __ __ __ __ __ __ __ __ __ __ __ _
 72
    65
 73
     2
 40
0.375
 49
0.25
 49
-0.125
  0
LTYPE
  2
CENTER2
 70
     0
  3
Center (.5x) ___ _ ___ _ ___ _ ___ _ ___ _ ___
 72
    65
 73
     4
 40
1.125
 49
0.75
 49
-0.125
 49
0.125
 49
-0.125
  0
LTYPE
  2
HIDDEN2
 70
     0
  3
Hidden (.5x) _ _ _ _ _ _ _ _ _ _ _ _ _ _ _ _ _
 72
    65
 73
     2
 40
0.1875
 49
0.125
 49
-0.0625
  0
LTYPE
  2
AMZIGZAG2
 70
     0
  3
/\/-/\/-/\/-/\/-/\/-/\/
 72
    65
 73
     2
 40
0.4401
 49
0.0001
 49
-0.4400000000000002
  0
LTYPE
  2
ACANSTGB
 70
     0
  3
__ . . __ . .
 72
    65
 73
     6
 40
0.35433070866
 49
0.15748031496
 49
-0.03937007874
 49
0.03937007874
 49
-0.03937007874
 49
0.03937007874
 49
-0.03937007874
  0
LTYPE
  2
ACANSTGL
 70
     0
  3
_ _ _ _ _
 72
    65
 73
     2
 40
0.11811023622
 49
0.07874015748
 49
-0.03937007874
  0
ENDTAB
  0
TABLE
  2
LAYER
 70
     7
  0
LAYER
  2
0
 70
     0
 62
     7
  6
CONTINUOUS
  0
LAYER
  2
AM_0
 70
     0
 62
     7
  6
CONTINUOUS
  0
LAYER
  2
AM_5
 70
     0
 62
     2
  6
CONTINUOUS
  0
LAYER
  2
DEFPOINTS
 70
     0
 62
     7
  6
CONTINUOUS
  0
LAYER
  2
ｶｸﾚｾﾝ2
 70
     0
 62
     3
  6
GEN3B
  0
LAYER
  2
ﾁｭｳｼﾝｾﾝ
 70
     0
 62
     1
  6
GEN7
  0
LAYER
  2
ﾁｭｳｼﾝｾﾝ1
 70
     0
 62
     1
  6
GEN7A
  0
ENDTAB
  0
TABLE
  2
STYLE
 70
     9
  0
STYLE
  2
STANDARD
 70
     0
 40
0.0
 41
0.8299999999999999
 50
0.0
 71
     0
 42
2.5
  3
txt.shx
  4
bigfont.shx
  0
STYLE
  2
ANNOTATIVE
 70
     0
 40
0.0
 41
1.0
 50
0.0
 71
     0
 42
0.2
  3
txt
  4

  0
STYLE
  2

 70
     1
 40
0.0
 41
1.0
 50
0.0
 71
     0
 42
2.5
  3
ltypeshp.shx
  4

  0
STYLE
  2
ACISOTS
 70
     0
 40
1.0
 41
1.0
 50
0.0
 71
     0
 42
2.5
  3
isocp.shx
  4
extfont.shx
  0
STYLE
  2
ACISOGDT
 70
     0
 40
0.0
 41
1.0
 50
0.0
 71
     0
 42
2.5
  3
amgdt.shx
  4

  0
STYLE
  2
ACANSTS
 70
     0
 40
1.0
 41
1.0
 50
0.0
 71
     0
 42
2.5
  3
romans.shx
  4
bigfont.shx
  0
STYLE
  2
ACANSGDT
 70
     0
 40
0.0
 41
1.0
 50
0.0
 71
     0
 42
2.5
  3
amgdt.shx
  4

  0
STYLE
  2
ACJISTS
 70
     0
 40
1.0
 41
1.0
 50
0.0
 71
     0
 42
2.5
  3
isocp.shx
  4
bigfont.shx
  0
STYLE
  2
ACJISGDT
 70
     0
 40
0.0
 41
1.0
 50
0.0
 71
     0
 42
2.5
  3
amgdt.shx
  4

  0
ENDTAB
  0
TABLE
  2
VIEW
 70
     6
  0
VIEW
  2
AM_VIEW1
 70
     0
 40
462.5
 10
416.07965009208078
 20
693.75
 41
832.15930018416213
 11
0.0
 21
0.0
 31
1.0
 12
0.0
 22
0.0
 32
0.0
 42
50.0
 43
0.0
 44
0.0
 50
0.0
 71
     0
  0
VIEW
  2
AM_VIEW2
 70
     0
 40
462.5
 10
1006.420349907918
 20
693.75
 41
832.15930018416213
 11
0.0
 21
0.0
 31
1.0
 12
0.0
 22
0.0
 32
0.0
 42
50.0
 43
0.0
 44
0.0
 50
0.0
 71
     0
  0
VIEW
  2
AM_VIEW3
 70
     0
 40
462.5
 10
416.07965009208078
 20
231.25
 41
832.15930018416213
 11
0.0
 21
0.0
 31
1.0
 12
0.0
 22
0.0
 32
0.0
 42
50.0
 43
0.0
 44
0.0
 50
0.0
 71
     0
  0
VIEW
  2
AM_VIEW4
 70
     0
 40
462.5
 10
1006.420349907918
 20
231.25
 41
832.15930018416213
 11
0.0
 21
0.0
 31
1.0
 12
0.0
 22
0.0
 32
0.0
 42
50.0
 43
0.0
 44
0.0
 50
0.0
 71
     0
  0
VIEW
  2
AM_VIEW5
 70
     0
 40
462.5
 10
711.24999999999966
 20
462.5
 41
832.15930018416179
 11
0.0
 21
0.0
 31
1.0
 12
0.0
 22
0.0
 32
0.0
 42
50.0
 43
0.0
 44
0.0
 50
0.0
 71
     0
  0
VIEW
  2
AM_VIEW6
 70
     0
 40
924.99075000000005
 10
711.24999999999966
 20
462.5
 41
1664.3019571823199
 11
0.0
 21
0.0
 31
1.0
 12
0.0
 22
0.0
 32
0.0
 42
50.0
 43
0.0
 44
0.0
 50
0.0
 71
     0
  0
ENDTAB
  0
TABLE
  2
UCS
 70
     0
  0
ENDTAB
  0
TABLE
  2
APPID
 70
    95
  0
APPID
  2
ACAD
 70
     0
  0
APPID
  2
ACADANNOTATIVE
 70
     0
  0
APPID
  2
MCAD_NO_VIS
 70
     0
  0
APPID
  2
ACAD_TEMP_GRAPHIC
 70
     0
  0
APPID
  2
ACATTRIBSERVICES
 70
     0
  0
APPID
  2
GENIUS_GENREC_14
 70
     0
  0
APPID
  2
GENIUS_GENOBJ-N-REC_13
 70
     0
  0
APPID
  2
GENIUS_GENODEF_13
 70
     0
  0
APPID
  2
GENIUS_GENOLIS_13
 70
     0
  0
APPID
  2
GENIUS_GENOBJ-N-TIT_13
 70
     0
  0
APPID
  2
GENIUS_GENOENT_13
 70
     0
  0
APPID
  2
GENIUS_GENTITLE_13
 70
     0
  0
APPID
  2
GENIUS_GENOREF_13
 70
     0
  0
APPID
  2
GENIUS_GENSCREG_15
 70
     0
  0
APPID
  2
GENIUS_GENOBJ-N-SDF_13
 70
     0
  0
APPID
  2
GENIUS_GENFIL_13
 70
     0
  0
APPID
  2
GENIUS_GENOBJ-N-CHA_13
 70
     0
  0
APPID
  2
GENIUS_GENDTOL_13
 70
     0
  0
APPID
  2
GENIUS_GENOBJ-N-FIL_13
 70
     0
  0
APPID
  2
AD_DRAW
 70
     0
  0
APPID
  2
DESIGNERASSEMBLIES
 70
     0
  0
APPID
  2
ASURF_PCURVE_APPNAME
 70
     0
  0
APPID
  2
GENIUS_GE3SECT_13
 70
     0
  0
APPID
  2
GENIUS_GENCFG_13
 70
     0
  0
APPID
  2
GENIUS_GE3CFG0_13
 70
     0
  0
APPID
  2
GENIUS_GENCFG0_13
 70
     0
  0
APPID
  2
GENIUS_GENCFG1_13
 70
     0
  0
APPID
  2
GENIUS_GENCFG2_13
 70
     0
  0
APPID
  2
GENIUS_GENCFG3_13
 70
     0
  0
APPID
  2
GENIUS_GENCFG4_13
 70
     0
  0
APPID
  2
GENIUS_GEVCFG0_13
 70
     0
  0
APPID
  2
GENIUS_GENHINW_13
 70
     0
  0
APPID
  2
GENIUS_FIRSTVISTXT_14
 70
     0
  0
APPID
  2
GENIUS_GENOBJ-N-LEADER_13
 70
     0
  0
APPID
  2
GEV_VCCNULL_SWITCH_OFF
 70
     0
  0
APPID
  2
GENIUS_GEFCFG0_13
 70
     0
  0
APPID
  2
GENIUS_GENZVEED_13
 70
     0
  0
APPID
  2
GENIUS_GENSCREG_13
 70
     0
  0
APPID
  2
GENIUS_DUMCFG0_13
 70
     0
  0
APPID
  2
GEVID936201362
 70
     0
  0
APPID
  2
GEVDC
 70
     0
  0
APPID
  2
GEVCON
 70
     0
  0
APPID
  2
VCC
 70
     0
  0
APPID
  2
GEVPT
 70
     0
  0
APPID
  2
GEVIT
 70
     0
  0
APPID
  2
GENBH
 70
     0
  0
APPID
  2
GEVMK
 70
     0
  0
APPID
  2
GENIUS_GENBH_13
 70
     0
  0
APPID
  2
GENIUS_GENOBJ-NBEHI-BHF_13
 70
     0
  0
APPID
  2
GENIUS_GENOBJ-NBEHI-BHB_13
 70
     0
  0
APPID
  2
GENIUS_GENOBJ-F-DESC_13
 70
     0
  0
APPID
  2
GENIUS_GEFDESC_14
 70
     0
  0
APPID
  2
GENIUS_GENOBJ-F-PART_13
 70
     0
  0
APPID
  2
GENIUS_GEFSTDP_13
 70
     0
  0
APPID
  2
GENIUS_GEFPARTINS_13
 70
     0
  0
APPID
  2
GENIUS_GENTRA_14
 70
     0
  0
APPID
  2
GENIUS_GENINF13_13
 70
     0
  0
APPID
  2
GENIUS_GENOBJ-N-INFOPT_13
 70
     0
  0
APPID
  2
GENIUS_GENOBJ-N-RSSYM_13
 70
     0
  0
APPID
  2
GENIUS_GENSYMENT_13
 70
     0
  0
APPID
  2
GENIUS_GENSCSYM_13
 70
     0
  0
APPID
  2
GENIUS_GEFINFNAM_13
 70
     0
  0
APPID
  2
GENIUS_GENOBJ-N-CEN_13
 70
     0
  0
APPID
  2
GENIUS_GENOBJ-N-CRS_13
 70
     0
  0
APPID
  2
GENIUS_GENOBJ-N-CRC_13
 70
     0
  0
APPID
  2
GENIUS_GENCRC_14
 70
     0
  0
APPID
  2
GEVID942827039
 70
     0
  0
APPID
  2
GEVID942827040
 70
     0
  0
APPID
  2
GEVID942827041
 70
     0
  0
APPID
  2
GENIUS_GENOBJ-F-SCPASSM_13
 70
     0
  0
APPID
  2
GENIUS_GENDIMSH_14
 70
     0
  0
APPID
  2
GEVID942827042
 70
     0
  0
APPID
  2
GEVID946020473
 70
     0
  0
APPID
  2
GEVID946020474
 70
     0
  0
APPID
  2
GEVID946020475
 70
     0
  0
APPID
  2
GENIUS_GENOBJ-N-HTC_13
 70
     0
  0
APPID
  2
GENIUS_GENHATCH_13
 70
     0
  0
APPID
  2
GEVID948854295
 70
     0
  0
APPID
  2
GEVID939402019
 70
     0
  0
APPID
  2
GEVID952919491
 70
     0
  0
APPID
  2
GEVID952919492
 70
     0
  0
APPID
  2
GENIUS_GEFWELD_13
 70
     0
  0
APPID
  2
GENIUS_GENOBJ-F-WELS_13
 70
     0
  0
APPID
  2
GEVID952919493
 70
     0
  0
APPID
  2
GENIUS_GENOBJ-N-RSBK_13
 70
     0
  0
APPID
  2
GENIUS_GENOBJ-N-LIB_13
 70
     0
  0
APPID
  2
GENIUS_GENSCALE_13
 70
     0
  0
APPID
  2
GEVID986376691
 70
     0
  0
APPID
  2
DCO15
 70
     0
  0
APPID
  2
ACAD_DSTYLE_DIMBREAK
 70
     0
  0
APPID
  2
ACAD_DSTYLE_DIMJAG
 70
     0
  0
APPID
  2
ACAD_NAV_VCDISPLAY
 70
     0
  0
APPID
  2
ACADANNOPO
 70
     0
  0
APPID
  2
ACAD_EXEMPT_FROM_CAD_STANDARDS
 70
     0
  0
APPID
  2
ACAD_MLEADERVER
 70
     0
  0
ENDTAB
  0
TABLE
  2
DIMSTYLE
 70
    22
  0
DIMSTYLE
  2
STANDARD
 70
     0
  3

  4

  5

  6

  7

 40
1.0
 41
0.18
 42
0.0625
 43
0.38
 44
0.18
 45
0.0
 46
0.0
 47
0.0
 48
0.0
140
0.18
141
0.09
142
0.0
143
25.399999999999999
144
1.0
145
0.0
146
1.0
147
0.09
 71
     0
 72
     0
 73
     1
 74
     1
 75
     0
 76
     0
 77
     0
 78
     0
170
     0
171
     2
172
     0
173
     0
174
     0
175
     0
176
     0
177
     0
178
     0
  0
DIMSTYLE
  2
ANNOTATIVE
 70
     0
  3

  4

  5

  6

  7

 40
1.0
 41
0.18
 42
0.0625
 43
0.38
 44
0.18
 45
0.0
 46
0.0
 47
0.0
 48
0.0
140
0.18
141
0.09
142
0.0
143
25.399999999999999
144
1.0
145
0.0
146
1.0
147
0.09
 71
     0
 72
     0
 73
     1
 74
     1
 75
     0
 76
     0
 77
     0
 78
     0
170
     0
171
     2
172
     0
173
     0
174
     0
175
     0
176
     0
177
     0
178
     0
  0
DIMSTYLE
  2
AM_ISO
 70
     0
  3

  4
"
  5

  6

  7

 40
1.0
 41
2.5
 42
1.0
 43
8.0
 44
0.6
 45
0.0
 46
0.0
 47
0.1
 48
0.1
140
2.5
141
0.0
142
0.0
143
0.0393701
144
1.0
145
0.0
146
0.71
147
0.8
 71
     0
 72
     0
 73
     0
 74
     0
 75
     0
 76
     0
 77
     1
 78
     8
170
     0
171
     2
172
     1
173
     0
174
     0
175
     0
176
   256
177
   256
178
     4
  0
DIMSTYLE
  2
AM_ISO$3
 70
     0
  3

  4
"
  5

  6

  7

 40
1.0
 41
2.5
 42
1.0
 43
8.0
 44
0.6
 45
0.0
 46
0.0
 47
0.1
 48
0.1
140
2.5
141
0.0
142
0.0
143
0.0393701
144
1.0
145
0.0
146
0.71
147
0.8
 71
     0
 72
     0
 73
     0
 74
     1
 75
     0
 76
     0
 77
     1
 78
     8
170
     0
171
     2
172
     0
173
     0
174
     0
175
     0
176
   256
177
   256
178
     4
  0
DIMSTYLE
  2
AM_ISO$4
 70
     0
  3

  4
"
  5

  6

  7

 40
1.0
 41
2.5
 42
1.0
 43
8.0
 44
0.6
 45
0.0
 46
0.0
 47
0.1
 48
0.1
140
2.5
141
0.0
142
0.0
143
0.0393701
144
1.0
145
0.0
146
0.71
147
0.8
 71
     0
 72
     0
 73
     0
 74
     1
 75
     0
 76
     0
 77
     1
 78
     8
170
     0
171
     2
172
     0
173
     0
174
     0
175
     0
176
   256
177
   256
178
     4
  0
DIMSTYLE
  2
AM_ISO$6
 70
     0
  3

  4
"
  5

  6

  7

 40
1.0
 41
2.5
 42
1.0
 43
8.0
 44
0.6
 45
0.0
 46
0.0
 47
0.1
 48
0.1
140
2.5
141
0.0
142
0.0
143
0.0393701
144
1.0
145
0.0
146
0.71
147
0.8
 71
     0
 72
     0
 73
     0
 74
     0
 75
     0
 76
     0
 77
     0
 78
     8
170
     0
171
     2
172
     1
173
     0
174
     0
175
     0
176
   256
177
   256
178
     4
  0
DIMSTYLE
  2
AM_ISO$7
 70
     0
  3

  4
"
  5

  6

  7

 40
1.0
 41
2.5
 42
1.0
 43
8.0
 44
0.6
 45
0.0
 46
0.0
 47
0.1
 48
0.1
140
2.5
141
0.0
142
0.0
143
0.0393701
144
1.0
145
0.0
146
0.71
147
0.8
 71
     0
 72
     0
 73
     0
 74
     0
 75
     0
 76
     0
 77
     1
 78
     8
170
     0
171
     2
172
     1
173
     0
174
     0
175
     0
176
   256
177
   256
178
     4
  0
DIMSTYLE
  2
AM_ISO$SF
 70
     0
  3

  4
"
  5

  6

  7

 40
1.0
 41
2.5
 42
1.0
 43
10.0
 44
1.0
 45
0.0
 46
0.0
 47
0.1
 48
0.1
140
3.5
141
0.0
142
0.0
143
0.0393701
144
1.0
145
0.0
146
0.71
147
1.5
 71
     0
 72
     0
 73
     0
 74
     0
 75
     1
 76
     1
 77
     1
 78
     8
170
     0
171
     2
172
     1
173
     0
174
     0
175
     0
176
   256
177
   256
178
     2
  0
DIMSTYLE
  2
AM_ISO$SH
 70
     0
  3

  4
"
  5

  6

  7

 40
1.0
 41
2.5
 42
1.0
 43
10.0
 44
1.0
 45
0.0
 46
0.0
 47
0.1
 48
0.1
140
3.5
141
0.0
142
0.0
143
0.0393701
144
2.0
145
0.0
146
0.71
147
1.5
 71
     0
 72
     0
 73
     0
 74
     0
 75
     1
 76
     1
 77
     1
 78
     8
170
     0
171
     2
172
     1
173
     1
174
     0
175
     0
176
   256
177
   256
178
     2
  0
DIMSTYLE
  2
AM_JIS
 70
     0
  3

  4
"
  5

  6

  7

 40
1.0
 41
2.5
 42
1.0
 43
7.0
 44
1.0
 45
0.0
 46
0.0
 47
0.1
 48
0.1000000001
140
2.5
141
0.0
142
0.0
143
0.0393701
144
1.0
145
0.0
146
0.71
147
1.0
 71
     0
 72
     0
 73
     0
 74
     0
 75
     0
 76
     0
 77
     3
 78
     8
170
     0
171
     2
172
     1
173
     0
174
     0
175
     0
176
   256
177
   256
178
     4
  0
DIMSTYLE
  2
AM_JIS$3
 70
     0
  3

  4
"
  5

  6

  7

 40
1.0
 41
2.5
 42
1.0
 43
7.0
 44
1.0
 45
0.0
 46
0.0
 47
0.1
 48
0.1000000001
140
2.5
141
0.0
142
0.0
143
0.0393701
144
1.0
145
0.0
146
0.71
147
1.0
 71
     0
 72
     0
 73
     0
 74
     1
 75
     0
 76
     0
 77
     3
 78
     8
170
     0
171
     2
172
     0
173
     0
174
     0
175
     0
176
   256
177
   256
178
     4
  0
DIMSTYLE
  2
AM_JIS$4
 70
     0
  3

  4
"
  5

  6

  7

 40
1.0
 41
2.5
 42
1.0
 43
7.0
 44
1.0
 45
0.0
 46
0.0
 47
0.1
 48
0.1000000001
140
2.5
141
0.0
142
0.0
143
0.0393701
144
1.0
145
0.0
146
0.71
147
1.0
 71
     0
 72
     0
 73
     0
 74
     0
 75
     0
 76
     0
 77
     3
 78
     8
170
     0
171
     2
172
     0
173
     0
174
     0
175
     0
176
   256
177
   256
178
     4
  0
DIMSTYLE
  2
AM_JIS$6
 70
     0
  3

  4
"
  5

  6

  7

 40
1.0
 41
2.5
 42
1.0
 43
7.0
 44
1.0
 45
0.0
 46
0.0
 47
0.1
 48
0.1000000001
140
2.5
141
0.0
142
0.0
143
0.0393701
144
1.0
145
0.0
146
0.71
147
1.0
 71
     0
 72
     0
 73
     0
 74
     0
 75
     0
 76
     0
 77
     0
 78
     8
170
     0
171
     2
172
     1
173
     0
174
     0
175
     0
176
   256
177
   256
178
     4
  0
DIMSTYLE
  2
AM_JIS$7
 70
     0
  3

  4
"
  5

  6

  7

 40
1.0
 41
2.5
 42
1.0
 43
7.0
 44
1.0
 45
0.0
 46
0.0
 47
0.1
 48
0.1000000001
140
2.5
141
0.0
142
0.0
143
0.0393701
144
1.0
145
0.0
146
0.71
147
1.0
 71
     0
 72
     0
 73
     0
 74
     0
 75
     0
 76
     0
 77
     3
 78
     8
170
     0
171
     2
172
     1
173
     0
174
     0
175
     0
176
   256
177
   256
178
     4
  0
DIMSTYLE
  2
AM_JIS$SF
 70
     0
  3

  4
"
  5

  6

  7

 40
1.0
 41
2.5
 42
1.0
 43
10.0
 44
1.0
 45
0.0
 46
0.0
 47
0.1
 48
0.1
140
3.5
141
0.0
142
0.0
143
0.0393701
144
1.0
145
0.0
146
0.71
147
1.5
 71
     0
 72
     0
 73
     0
 74
     0
 75
     1
 76
     1
 77
     3
 78
     8
170
     0
171
     2
172
     1
173
     0
174
     0
175
     0
176
   256
177
   256
178
     4
  0
DIMSTYLE
  2
AM_JIS$SH
 70
     0
  3

  4
"
  5

  6

  7

 40
1.0
 41
2.5
 42
1.0
 43
10.0
 44
1.0
 45
0.0
 46
0.0
 47
0.1
 48
0.1
140
3.5
141
0.0
142
0.0
143
0.0393701
144
1.0
145
0.0
146
0.71
147
1.5
 71
     0
 72
     0
 73
     0
 74
     0
 75
     1
 76
     0
 77
     3
 78
     8
170
     0
171
     2
172
     1
173
     1
174
     0
175
     0
176
   256
177
   256
178
     4
  0
DIMSTYLE
  2
AM_ANSI
 70
     0
  3

  4
mm
  5

  6

  7

 40
1.0
 41
0.1
 42
0.05
 43
0.5
 44
0.1
 45
0.0
 46
0.0
 47
0.1
 48
0.1
140
0.12
141
0.0
142
0.0
143
25.399999999999999
144
1.0
145
0.0
146
0.71
147
0.06
 71
     0
 72
     0
 73
     1
 74
     1
 75
     0
 76
     0
 77
     0
 78
     7
170
     0
171
     2
172
     0
173
     0
174
     0
175
     0
176
   256
177
   256
178
     2
  0
DIMSTYLE
  2
AM_ANSI$3
 70
     0
  3

  4
mm
  5

  6

  7

 40
1.0
 41
0.1
 42
0.05
 43
0.5
 44
0.1
 45
0.0
 46
0.0
 47
0.1
 48
0.1
140
0.12
141
0.0
142
0.0
143
25.399999999999999
144
1.0
145
0.0
146
0.71
147
0.06
 71
     0
 72
     0
 73
     1
 74
     1
 75
     0
 76
     0
 77
     0
 78
     7
170
     0
171
     2
172
     0
173
     0
174
     0
175
     0
176
   256
177
   256
178
     2
  0
DIMSTYLE
  2
AM_ANSI$4
 70
     0
  3

  4
mm
  5

  6

  7

 40
1.0
 41
0.1
 42
0.05
 43
0.5
 44
0.1
 45
0.0
 46
0.0
 47
0.1
 48
0.1
140
0.12
141
0.0
142
0.0
143
25.399999999999999
144
1.0
145
0.0
146
0.71
147
0.06
 71
     0
 72
     0
 73
     1
 74
     1
 75
     0
 76
     0
 77
     0
 78
     7
170
     0
171
     2
172
     0
173
     0
174
     0
175
     0
176
   256
177
   256
178
     2
  0
DIMSTYLE
  2
AM_ANSI$7
 70
     0
  3

  4
mm
  5

  6

  7

 40
1.0
 41
0.1
 42
0.05
 43
0.5
 44
0.1
 45
0.0
 46
0.0
 47
0.1
 48
0.1
140
0.24
141
0.0
142
0.0
143
25.399999999999999
144
1.0
145
0.0
146
0.71
147
0.06
 71
     0
 72
     0
 73
     1
 74
     1
 75
     0
 76
     0
 77
     0
 78
     7
170
     0
171
     2
172
     0
173
     0
174
     0
175
     0
176
   256
177
   256
178
     2
  0
DIMSTYLE
  2
AM_ANSI$SF
 70
     0
  3

  4
mm
  5

  6

  7

 40
1.0
 41
0.1
 42
0.05
 43
0.5
 44
0.1
 45
0.0
 46
0.0
 47
0.1
 48
0.1
140
0.12
141
0.0
142
0.0
143
25.399999999999999
144
1.0
145
0.0
146
0.71
147
0.06
 71
     0
 72
     0
 73
     1
 74
     1
 75
     1
 76
     1
 77
     0
 78
     7
170
     0
171
     2
172
     0
173
     0
174
     0
175
     0
176
   256
177
   256
178
     2
  0
DIMSTYLE
  2
AM_ANSI$SH
 70
     0
  3

  4
mm
  5

  6

  7

 40
1.0
 41
0.1
 42
0.05
 43
0.5
 44
0.1
 45
0.0
 46
0.0
 47
0.1
 48
0.1
140
0.12
141
0.0
142
0.0
143
25.399999999999999
144
1.0
145
0.0
146
0.71
147
0.06
 71
     0
 72
     0
 73
     1
 74
     1
 75
     1
 76
     1
 77
     0
 78
     7
170
     0
171
     2
172
     0
173
     1
174
     0
175
     0
176
   256
177
   256
178
     2
  0
ENDTAB
  0
ENDSEC
  0
SECTION
  2
BLOCKS
  0
BLOCK
  8
0
  2
$MODEL_SPACE
 70
     0
 10
0.0
 20
0.0
 30
0.0
  3
$MODEL_SPACE
  1

  0
ENDBLK
  5
3028
  8
0
  0
BLOCK
 67
     1
  8
0
  2
$PAPER_SPACE
 70
     0
 10
0.0
 20
0.0
 30
0.0
  3
$PAPER_SPACE
  1

  0
ENDBLK
  5
3024
 67
     1
  8
0
  0
BLOCK
  8
0
  2
GENAXEH
 70
     0
 10
0.0
 20
0.0
 30
0.0
  3
GENAXEH
  1

  0
LINE
  5
2DF9
  8
0
 10
-1.0
 20
0.0
 30
0.0
 11
1.0
 21
0.0
 31
0.0
  0
ENDBLK
  5
2DFA
  8
0
  0
BLOCK
  8
0
  2
_OPEN30
 70
     0
 10
0.0
 20
0.0
 30
0.0
  3
_OPEN30
  1

  0
LINE
  5
2DFD
  8
0
 62
     0
 10
-1.0
 20
0.26794919
 30
0.0
 11
0.0
 21
0.0
 31
0.0
  0
LINE
  5
2DFE
  8
0
 62
     0
 10
0.0
 20
0.0
 30
0.0
 11
-1.0
 21
-0.26794919
 31
0.0
  0
LINE
  5
2DFF
  8
0
 62
     0
 10
0.0
 20
0.0
 30
0.0
 11
-1.0
 21
0.0
 31
0.0
  0
ENDBLK
  5
2E00
  8
0
  0
BLOCK
  8
0
  2
_NONE
 70
     0
 10
0.0
 20
0.0
 30
0.0
  3
_NONE
  1

  0
ENDBLK
  5
2E03
  8
0
  0
BLOCK
  8
0
  2
_ACMFILLEDHALF
 70
     0
 10
0.0
 20
0.0
 30
0.0
  3
_ACMFILLEDHALF
  1

  0
TRACE
  5
3120
  8
AM_0
 62
     0
 10
-0.8
 20
0.0
 30
0.0
 11
-1.0
 21
0.166666666
 31
0.0
 12
0.0
 22
0.0
 32
0.0
 13
0.0
 23
0.0
 33
0.0
  0
LINE
  5
3121
  8
AM_0
 62
     0
 10
-1.0
 20
0.0
 30
0.0
 11
-0.8
 21
0.0
 31
0.0
  0
ENDBLK
  5
311F
  8
0
  0
ENDSEC
  0
SECTION
  2
ENTITIES
  0
LINE
  5
2E05
  8
AM_0
 10
635.54328048714399
 20
937.744454427346
 30
0.0
 11
697.54322048714403
 21
937.744454427346
 31
0.0
  0
LINE
  5
2E06
  8
AM_0
 10
635.54328048714399
 20
921.74439442734547
 30
0.0
 11
697.54322048714403
 21
921.74439442734547
 31
0.0
  0
LINE
  5
2E07
  8
AM_0
 10
615.54322048714403
 20
957.244454427346
 30
0.0
 11
697.54322048714403
 21
957.244454427346
 31
0.0
  0
LINE
  5
2E08
  8
AM_0
 10
615.54322048714403
 20
902.244454427346
 30
0.0
 11
697.54322048714403
 21
902.244454427346
 31
0.0
  0
LINE
  5
2E09
  8
ﾁｭｳｼﾝｾﾝ
 10
294.9575431671845
 20
929.74445442734554
 30
0.0
 11
708.16047048714404
 21
929.744454427346
 31
0.0
  0
ARC
  5
2E0A
  8
AM_0
 10
407.54322048714391
 20
913.37409442734554
 30
0.0
 40
5.0
 50
0.0
 51
88.000000000002785
  0
LINE
  5
2E0B
  8
AM_0
 10
432.54322048714391
 20
802.62055442734595
 30
0.0
 11
432.54322048714391
 21
919.20886442734593
 31
0.0
  0
LINE
  5
2E0C
  8
AM_0
 10
462.54328048714387
 20
924.74445442734589
 30
0.0
 11
462.54328048714387
 21
796.744454427346
 31
0.0
  0
LINE
  5
2E0D
  8
AM_0
 10
412.54322048714403
 20
823.28876442734588
 30
0.0
 11
412.54322048714403
 21
1036.200144427346
 31
0.0
  0
LINE
  5
2E0E
  8
AM_0
 10
487.54322048714403
 20
797.61743442734576
 30
0.0
 11
487.54322048714403
 21
1061.8714044273461
 31
0.0
  0
LINE
  5
2E0F
  8
AM_0
 10
577.54328048714399
 20
821.62232442734592
 30
0.0
 11
577.54328048714399
 21
1037.866524427345
 31
0.0
  0
LINE
  5
2E10
  8
AM_0
 10
604.54328048714365
 20
1027.115424427345
 30
0.0
 11
604.54328048714365
 21
832.37348442734594
 31
0.0
  0
LINE
  5
2E11
  8
AM_0
 10
609.54328048714399
 20
987.81305442734572
 30
0.0
 11
609.54328048714399
 21
871.67584442734574
 31
0.0
  0
LINE
  5
2E12
  8
AM_0
 10
615.54322048714403
 20
959.74445442734589
 30
0.0
 11
615.54322048714403
 21
899.74445442734589
 31
0.0
  0
LINE
  5
2E13
  8
AM_0
 10
394.04328048714387
 20
843.74445442734623
 30
0.0
 11
394.04328048714399
 21
1015.744454427345
 31
0.0
  0
LINE
  5
2E14
  8
AM_0
 10
491.68799048714402
 20
801.7621544273461
 30
0.0
 11
541.38324048714401
 21
803.49756442734554
 31
0.0
  0
LINE
  5
2E15
  8
AM_0
 10
467.54322048714403
 20
764.744454427346
 30
0.0
 11
604.71778048714407
 21
769.53467442734575
 31
0.0
  0
LINE
  5
2E16
  8
AM_0
 10
467.54328048714399
 20
764.744454427346
 30
0.0
 11
384.36872048714389
 21
767.64893442734592
 31
0.0
  0
ARC
  5
2E17
  8
AM_0
 10
417.54322048714403
 20
823.28876442734588
 30
0.0
 40
5.0
 50
180.00001000000091
 51
268.00000000000261
  0
CIRCLE
  5
2E18
  8
AM_0
 10
409.54328048714399
 20
797.244454427346
 30
0.0
 40
9.5
  0
ARC
  5
2E19
  8
AM_0
 10
407.54322048714391
 20
837.90985442734575
 30
0.0
 40
5.0
 50
0.0
 51
88.000000000002785
  0
ARC
  5
2E1A
  8
AM_0
 10
407.54322048714391
 20
840.26990442734575
 30
0.0
 40
5.0
 50
0.0
 51
88.000000000002785
  0
LINE
  5
2E1B
  8
AM_0
 10
379.54328048714399
 20
772.64594442734574
 30
0.0
 11
379.54328048714399
 21
815.03217442734569
 31
0.0
  0
ARC
  5
2E1C
  8
AM_0
 10
384.54328048714387
 20
772.64594442734574
 30
0.0
 40
5.0
 50
180.00001000000091
 51
268.00000000000261
  0
LINE
  5
2E1D
  8
AM_0
 10
383.67505048714401
 20
819.95618442734553
 30
0.0
 11
412.54322048714403
 21
825.04645442734591
 31
0.0
  0
ARC
  5
2E1E
  8
AM_0
 10
384.54328048714387
 20
815.03217442734569
 30
0.0
 40
5.0
 50
99.999999999998593
 51
180.00001000000091
  0
LINE
  5
2E1F
  8
AM_0
 10
394.04322048714403
 20
845.74439442734592
 30
0.0
 11
407.71772048714388
 21
845.26685442734595
 31
0.0
  0
LINE
  5
2E20
  8
AM_0
 10
407.71772048714388
 20
842.90680442734561
 30
0.0
 11
396.04328048714399
 21
843.31445442734559
 31
0.0
  0
LINE
  5
2E21
  8
AM_0
 10
396.04328048714399
 20
843.31452442734576
 30
0.0
 11
396.04328048714399
 21
845.67450442734594
 31
0.0
  0
LINE
  5
2E22
  8
AM_0
 10
462.54328048714387
 20
796.744454427346
 30
0.0
 11
437.36878048714402
 21
797.62360442734575
 31
0.0
  0
LINE
  5
2E23
  8
AM_0
 10
438.54328048714399
 20
777.91773442734575
 30
0.0
 11
465.54334048714389
 21
787.46411442734575
 31
0.0
  0
LINE
  5
2E24
  8
AM_0
 10
435.07959048714389
 20
766.08643442734592
 30
0.0
 11
465.54328048714387
 21
776.85748442734575
 31
0.0
  0
ARC
  5
2E25
  8
AM_0
 10
437.54328048714387
 20
780.74616442734589
 30
0.0
 40
3.0
 50
180.00001000000091
 51
289.47202999999712
  0
ARC
  5
2E26
  8
AM_0
 10
437.54322048714403
 20
802.62055442734595
 30
0.0
 40
5.0
 50
180.00001000000091
 51
268.00000000000261
  0
LINE
  5
2E27
  8
AM_0
 10
427.71778048714401
 20
817.93042442734577
 30
0.0
 11
417.36872048714389
 21
818.29181442734591
 31
0.0
  0
ARC
  5
2E28
  8
AM_0
 10
427.54322048714403
 20
812.93341442734595
 30
0.0
 40
5.0
 50
0.0
 51
88.000000000002785
  0
LINE
  5
2E29
  8
AM_0
 10
462.54322048714403
 20
796.74439442734592
 30
0.0
 11
487.54328048714387
 21
797.61743442734576
 31
0.0
  0
LINE
  5
2E2A
  8
AM_0
 10
467.54328048714399
 20
779.68585442734593
 30
0.0
 11
467.54328048714399
 21
796.91901442734593
 31
0.0
  0
ARC
  5
2E2B
  8
AM_0
 10
464.54328048714399
 20
779.68585442734593
 30
0.0
 40
3.0
 50
289.47202000000181
 51
0.0
  0
ARC
  5
2E2C
  8
AM_0
 10
464.54328048714399
 20
790.29254442734555
 30
0.0
 40
3.0
 50
289.47202000000181
 51
0.0
  0
LINE
  5
2E2D
  8
AM_0
 10
487.54328048714387
 20
797.61743442734576
 30
0.0
 11
491.68805048714393
 21
801.76221442734561
 31
0.0
  0
LINE
  5
2E2E
  8
AM_0
 10
585.26410048714399
 20
830.01410442734573
 30
0.0
 11
596.8224504871439
 21
830.41773442734564
 31
0.0
  0
LINE
  5
2E2F
  8
ﾁｭｳｼﾝｾﾝ1
 10
560.04328048714399
 20
797.244454427346
 30
0.0
 11
599.04328048714387
 21
797.244454427346
 31
0.0
  0
ARC
  5
2E30
  8
AM_0
 10
556.54328048714399
 20
801.15619442734589
 30
0.0
 40
12.0
 50
91.999998000000545
 51
180.00001000000091
  0
ARC
  5
2E31
  8
AM_0
 10
549.54328048714387
 20
772.61096442734572
 30
0.0
 40
5.0
 50
180.00001000000091
 51
271.99999000000139
  0
ARC
  5
2E32
  8
AM_0
 10
541.20868048714408
 20
808.49457442734604
 30
0.0
 40
5.0
 50
271.9999999999971
 51
334.42648000000293
  0
LINE
  5
2E33
  8
AM_0
 10
544.54328048714387
 20
772.61096442734572
 30
0.0
 11
544.54328048714387
 21
801.15619442734589
 31
0.0
  0
CIRCLE
  5
2E34
  8
AM_0
 10
579.54328048714365
 20
797.244454427346
 30
0.0
 40
9.5
  0
LINE
  5
2E35
  8
ﾁｭｳｼﾝｾﾝ1
 10
579.54328048714365
 20
777.744454427346
 30
0.0
 11
579.54328048714365
 21
816.74445442734589
 31
0.0
  0
LINE
  5
2E36
  8
AM_0
 10
556.12445048714392
 20
813.14887442734585
 30
0.0
 11
569.82245048714401
 21
813.62726442734572
 31
0.0
  0
ARC
  5
2E37
  8
AM_0
 10
569.54328048714387
 20
821.62232442734592
 30
0.0
 40
8.0
 50
271.9999999999971
 51
0.0
  0
ARC
  5
2E38
  8
AM_0
 10
585.54328048714399
 20
822.01892442734572
 30
0.0
 40
8.0
 50
91.999998000000545
 51
180.00001000000091
  0
LINE
  5
2E39
  8
AM_0
 10
609.54328048714399
 20
774.53162442734572
 30
0.0
 11
609.54328048714399
 21
824.95722442734575
 31
0.0
  0
ARC
  5
2E3A
  8
AM_0
 10
604.54328048714365
 20
774.53162442734572
 30
0.0
 40
5.0
 50
271.9999999999971
 51
0.0
  0
ARC
  5
2E3B
  8
AM_0
 10
596.54328048714365
 20
838.41278442734574
 30
0.0
 40
8.0
 50
271.9999999999971
 51
0.0
  0
ARC
  5
2E3C
  8
AM_0
 10
607.54328048714376
 20
832.37348442734594
 30
0.0
 40
3.0
 50
180.00001000000091
 51
247.97569000000061
  0
ARC
  5
2E3D
  8
AM_0
 10
604.54328048714365
 20
824.95722442734575
 30
0.0
 40
5.0
 50
0.0
 51
67.975688999996393
  0
ARC
  5
2E3E
  8
AM_0
 10
607.54328048714376
 20
871.67584442734574
 30
0.0
 40
2.0
 50
271.9999999999971
 51
0.0
  0
ARC
  5
2E3F
  8
AM_0
 10
606.54328048714399
 20
867.6384944273459
 30
0.0
 40
2.0
 50
91.999998000000545
 51
180.00001000000091
  0
LINE
  5
2E40
  8
AM_0
 10
606.47345048714385
 20
869.63721442734595
 30
0.0
 11
607.61310048714381
 21
869.67700442734622
 31
0.0
  0
LINE
  5
2E41
  8
AM_0
 10
609.54328048714399
 20
899.74445442734589
 30
0.0
 11
615.54322048714403
 21
899.74445442734589
 31
0.0
  0
LINE
  5
2E42
  8
AM_0
 10
467.54328048714399
 20
1094.7443944273459
 30
0.0
 11
604.71778048714407
 21
1089.954164427344
 31
0.0
  0
LINE
  5
2E43
  8
AM_0
 10
491.68799048714402
 20
1057.7266244273451
 30
0.0
 11
541.38324048714401
 21
1055.9912144273451
 31
0.0
  0
CIRCLE
  5
2E44
  8
AM_0
 10
409.54328048714399
 20
1062.2444544273451
 30
0.0
 40
9.5
  0
LINE
  5
2E45
  8
AM_0
 10
379.54328048714399
 20
1086.842964427346
 30
0.0
 11
379.54328048714399
 21
1044.456734427346
 31
0.0
  0
LINE
  5
2E46
  8
AM_0
 10
467.54328048714399
 20
1079.8029844273451
 30
0.0
 11
467.54328048714399
 21
1062.5698344273451
 31
0.0
  0
ARC
  5
2E47
  8
AM_0
 10
417.54322048714403
 20
1036.200144427346
 30
0.0
 40
5.0
 50
91.999998000000545
 51
180.00001000000091
  0
LINE
  5
2E48
  8
AM_0
 10
396.04328048714399
 20
918.77869442734561
 30
0.0
 11
396.04328048714399
 21
940.71015442734574
 31
0.0
  0
LINE
  5
2E49
  8
AM_0
 10
407.71772048714388
 20
918.37103442734622
 30
0.0
 11
396.04328048714399
 21
918.77869442734561
 31
0.0
  0
LINE
  5
2E4A
  8
AM_0
 10
407.71772048714388
 20
921.83478442734588
 30
0.0
 11
396.04328048714399
 21
922.24243442734564
 31
0.0
  0
ARC
  5
2E4B
  8
AM_0
 10
407.54322048714391
 20
916.83777442734561
 30
0.0
 40
5.0
 50
0.0
 51
88.000000000002785
  0
LINE
  5
2E4C
  8
AM_0
 10
407.71772048714388
 20
941.11786442734592
 30
0.0
 11
396.04328048714399
 21
940.71015442734574
 31
0.0
  0
LINE
  5
2E4D
  8
AM_0
 10
407.71772048714388
 20
937.65411442734558
 30
0.0
 11
396.04328048714399
 21
937.24646442734604
 31
0.0
  0
ARC
  5
2E4E
  8
AM_0
 10
407.54322048714391
 20
942.65106442734589
 30
0.0
 40
5.0
 50
271.9999999999971
 51
0.0
  0
ARC
  5
2E4F
  8
AM_0
 10
407.54322048714391
 20
946.11481442734555
 30
0.0
 40
5.0
 50
271.9999999999971
 51
0.0
  0
LINE
  5
2E50
  8
AM_0
 10
394.04322048714403
 20
1013.744394427344
 30
0.0
 11
407.71772048714388
 21
1014.221924427346
 31
0.0
  0
LINE
  5
2E51
  8
AM_0
 10
407.71772048714388
 20
1016.582094427346
 30
0.0
 11
396.04328048714399
 21
1016.174384427346
 31
0.0
  0
LINE
  5
2E52
  8
AM_0
 10
396.04328048714399
 20
1013.814274427345
 30
0.0
 11
396.04328048714399
 21
1016.174384427346
 31
0.0
  0
ARC
  5
2E53
  8
AM_0
 10
407.54322048714391
 20
1021.579044427346
 30
0.0
 40
5.0
 50
271.9999999999971
 51
0.0
  0
ARC
  5
2E54
  8
AM_0
 10
407.54322048714391
 20
1019.218934427344
 30
0.0
 40
5.0
 50
271.9999999999971
 51
0.0
  0
LINE
  5
2E55
  8
AM_0
 10
383.67505048714401
 20
1039.5326544273451
 30
0.0
 11
412.54322048714403
 21
1034.442444427345
 31
0.0
  0
ARC
  5
2E56
  8
AM_0
 10
384.54328048714387
 20
1044.456734427346
 30
0.0
 40
5.0
 50
180.00001000000091
 51
259.99998999999872
  0
LINE
  5
2E57
  8
AM_0
 10
432.54322048714391
 20
940.27997442734545
 30
0.0
 11
432.54322048714391
 21
1056.868354427344
 31
0.0
  0
LINE
  5
2E58
  8
AM_0
 10
462.54328048714387
 20
1062.744454427346
 30
0.0
 11
462.54328048714387
 21
934.74445442734589
 31
0.0
  0
ARC
  5
2E59
  8
AM_0
 10
464.54328048714399
 20
929.744454427346
 30
0.0
 40
5.0
 50
270.0
 51
90.00000299999769
  0
LINE
  5
2E5A
  8
AM_0
 10
424.54328048714387
 20
934.74445442734589
 30
0.0
 11
464.54328048714399
 21
934.74445442734589
 31
0.0
  0
LINE
  5
2E5B
  8
AM_0
 10
424.54328048714387
 20
924.74445442734589
 30
0.0
 11
464.54328048714399
 21
924.74445442734589
 31
0.0
  0
ARC
  5
2E5C
  8
AM_0
 10
444.54328048714387
 20
929.744454427346
 30
0.0
 40
12.5
 50
203.5781799999973
 51
336.42183000000068
  0
ARC
  5
2E5D
  8
AM_0
 10
444.54328048714387
 20
929.744454427346
 30
0.0
 40
12.5
 50
23.578179999997531
 51
156.42182000000241
  0
ARC
  5
2E5E
  8
AM_0
 10
424.54328048714387
 20
929.744454427346
 30
0.0
 40
5.0
 50
90.00000299999769
 51
270.0
  0
ARC
  5
2E5F
  8
AM_0
 10
427.54322048714403
 20
919.20886442734593
 30
0.0
 40
5.0
 50
0.0
 51
31.78801800000311
  0
ARC
  5
2E60
  8
AM_0
 10
444.54328048714387
 20
929.744454427346
 30
0.0
 40
15.0
 50
199.4712300000005
 51
211.78801999999919
  0
ARC
  5
2E61
  8
AM_0
 10
427.54322048714403
 20
940.27997442734545
 30
0.0
 40
5.0
 50
328.21198000000078
 51
0.0
  0
ARC
  5
2E62
  8
AM_0
 10
444.54328048714387
 20
929.744454427346
 30
0.0
 40
15.0
 50
148.21198000000049
 51
160.52876999999901
  0
LINE
  5
2E63
  8
AM_0
 10
462.54322048714403
 20
1062.7443944273459
 30
0.0
 11
437.36872048714389
 21
1061.865304427346
 31
0.0
  0
ARC
  5
2E64
  8
AM_0
 10
427.54322048714403
 20
1046.5554244273451
 30
0.0
 40
5.0
 50
271.9999999999971
 51
0.0
  0
LINE
  5
2E65
  8
AM_0
 10
427.71772048714388
 20
1041.558474427346
 30
0.0
 11
417.36872048714389
 21
1041.197084427346
 31
0.0
  0
ARC
  5
2E66
  8
AM_0
 10
437.54322048714403
 20
1056.868354427344
 30
0.0
 40
5.0
 50
91.999998000000545
 51
180.00001000000091
  0
LINE
  5
2E67
  8
AM_0
 10
462.54328048714387
 20
1062.744454427346
 30
0.0
 11
487.54328048714387
 21
1061.8714644273459
 31
0.0
  0
LINE
  5
2E68
  8
AM_0
 10
487.54328048714387
 20
1061.8714044273461
 30
0.0
 11
491.68805048714393
 21
1057.7266244273451
 31
0.0
  0
LINE
  5
2E69
  8
AM_0
 10
467.54328048714399
 20
1094.744454427346
 30
0.0
 11
384.36872048714389
 21
1091.8399144273451
 31
0.0
  0
ARC
  5
2E6A
  8
AM_0
 10
384.54328048714387
 20
1086.842964427346
 30
0.0
 40
5.0
 50
91.999998000000545
 51
180.00001000000091
  0
LINE
  5
2E6B
  8
AM_0
 10
435.07947048714391
 20
1093.402474427344
 30
0.0
 11
465.54328048714387
 21
1082.631414427346
 31
0.0
  0
LINE
  5
2E6C
  8
AM_0
 10
438.54328048714399
 20
1081.571114427345
 30
0.0
 11
465.54334048714389
 21
1072.024724427346
 31
0.0
  0
ARC
  5
2E6D
  8
AM_0
 10
437.54328048714387
 20
1078.742684427345
 30
0.0
 40
3.0
 50
70.527972999999633
 51
180.00001000000091
  0
ARC
  5
2E6E
  8
AM_0
 10
464.54328048714399
 20
1079.8029844273451
 30
0.0
 40
3.0
 50
0.0
 51
70.527972999999633
  0
ARC
  5
2E6F
  8
AM_0
 10
464.54328048714399
 20
1069.1962944273459
 30
0.0
 40
3.0
 50
0.0
 51
70.527972999999633
  0
CIRCLE
  5
2E70
  8
AM_0
 10
579.54328048714365
 20
1062.2444544273451
 30
0.0
 40
9.5
  0
LINE
  5
2E71
  8
AM_0
 10
609.54328048714399
 20
1084.957224427345
 30
0.0
 11
609.54328048714399
 21
1034.5316244273449
 31
0.0
  0
LINE
  5
2E72
  8
AM_0
 10
544.54328048714387
 20
1086.877874427345
 30
0.0
 11
544.54328048714387
 21
1058.332704427346
 31
0.0
  0
LINE
  5
2E73
  8
AM_0
 10
585.26410048714399
 20
1029.474794427344
 30
0.0
 11
596.8224504871439
 21
1029.0711744273451
 31
0.0
  0
ARC
  5
2E74
  8
AM_0
 10
556.54328048714399
 20
1058.332704427346
 30
0.0
 40
12.0
 50
180.00001000000091
 51
268.00000000000261
  0
ARC
  5
2E75
  8
AM_0
 10
541.20868048714408
 20
1050.9943244273441
 30
0.0
 40
5.0
 50
25.5735169999985
 51
88.000000000002785
  0
LINE
  5
2E76
  8
AM_0
 10
556.12445048714392
 20
1046.339974427344
 30
0.0
 11
569.82251048714375
 21
1045.861634427346
 31
0.0
  0
ARC
  5
2E77
  8
AM_0
 10
569.54328048714387
 20
1037.866524427345
 30
0.0
 40
8.0
 50
0.0
 51
88.000000000002785
  0
ARC
  5
2E78
  8
AM_0
 10
585.54328048714399
 20
1037.4699144273441
 30
0.0
 40
8.0
 50
180.00001000000091
 51
268.00000000000261
  0
ARC
  5
2E79
  8
AM_0
 10
606.54328048714399
 20
991.85040442734589
 30
0.0
 40
2.0
 50
180.00001000000091
 51
268.00000000000261
  0
ARC
  5
2E7A
  8
AM_0
 10
607.54328048714376
 20
987.81305442734572
 30
0.0
 40
2.0
 50
0.0
 51
88.000000000002785
  0
ARC
  5
2E7B
  8
AM_0
 10
635.54328048714399
 20
929.74439442734547
 30
0.0
 40
8.0000113999999982
 50
90.00000299999769
 51
270.0
  0
LINE
  5
2E7C
  8
AM_0
 10
609.54328048714399
 20
959.74445442734589
 30
0.0
 11
615.54322048714403
 21
959.74445442734589
 31
0.0
  0
LINE
  5
2E7D
  8
AM_0
 10
606.47345048714385
 20
989.851624427346
 30
0.0
 11
607.61310048714381
 21
989.81183442734562
 31
0.0
  0
LINE
  5
2E7E
  8
AM_0
 10
635.54322048714403
 20
937.744454427346
 30
0.0
 11
635.54322048714403
 21
921.74439442734547
 31
0.0
  0
ARC
  5
2E7F
  8
AM_0
 10
607.54328048714376
 20
1027.115424427345
 30
0.0
 40
3.0
 50
112.0243099999992
 51
180.00001000000091
  0
ARC
  5
2E80
  8
AM_0
 10
596.54328048714365
 20
1021.076054427346
 30
0.0
 40
8.0
 50
0.0
 51
88.000000000002785
  0
ARC
  5
2E81
  8
AM_0
 10
604.54328048714365
 20
1034.5316244273449
 30
0.0
 40
5.0
 50
292.02430999999922
 51
0.0
  0
ARC
  5
2E82
  8
AM_0
 10
549.54328048714387
 20
1086.877874427345
 30
0.0
 40
5.0
 50
88.000000000002785
 51
180.00001000000091
  0
ARC
  5
2E83
  8
AM_0
 10
604.54328048714365
 20
1084.957224427345
 30
0.0
 40
5.0
 50
0.0
 51
88.000000000002785
  0
LINE
  5
2E84
  8
AM_0
 10
697.54322048714403
 20
957.244454427346
 30
0.0
 11
697.54322048714403
 21
902.244454427346
 31
0.0
  0
LINE
  5
2E85
  8
ﾁｭｳｼﾝｾﾝ1
 10
579.54328048714365
 20
1042.744454427346
 30
0.0
 11
579.54328048714365
 21
1081.744454427346
 31
0.0
  0
LINE
  5
2E86
  8
ﾁｭｳｼﾝｾﾝ1
 10
560.04328048714399
 20
1062.2444544273451
 30
0.0
 11
599.04328048714387
 21
1062.2444544273451
 31
0.0
  0
LINE
  5
2E87
  8
ﾁｭｳｼﾝｾﾝ1
 10
409.54328048714399
 20
1042.744454427346
 30
0.0
 11
409.54328048714399
 21
1081.744454427346
 31
0.0
  0
LINE
  5
2E88
  8
ﾁｭｳｼﾝｾﾝ1
 10
390.04328048714399
 20
1062.2444544273451
 30
0.0
 11
429.04328048714387
 21
1062.2444544273451
 31
0.0
  0
LINE
  5
2E89
  8
ﾁｭｳｼﾝｾﾝ1
 10
409.54328048714399
 20
777.744454427346
 30
0.0
 11
409.54328048714399
 21
816.74445442734589
 31
0.0
  0
LINE
  5
2E8A
  8
ﾁｭｳｼﾝｾﾝ1
 10
390.04328048714399
 20
797.244454427346
 30
0.0
 11
429.04328048714387
 21
797.244454427346
 31
0.0
  0
LINE
  5
2E8B
  8
AM_0
 10
314.54328048714399
 20
804.74445442734623
 30
0.0
 11
329.54328048714399
 21
804.74445442734623
 31
0.0
  0
LINE
  5
2E8C
  8
AM_0
 10
314.54328048714399
 20
1054.744454427346
 30
0.0
 11
329.54328048714399
 21
1054.744454427346
 31
0.0
  0
LINE
  5
2E8D
  8
AM_0
 10
314.54328048714399
 20
1054.744454427346
 30
0.0
 11
314.54328048714399
 21
804.74445442734623
 31
0.0
  0
LINE
  5
2E8E
  8
AM_0
 10
330.54328048714382
 20
1053.744454427346
 30
0.0
 11
330.54328048714382
 21
805.74445442734623
 31
0.0
  0
LINE
  5
2E8F
  8
AM_0
 10
393.04328048714439
 20
839.27617421138382
 30
0.0
 11
333.28181348714452
 21
834.04772321138375
 31
0.0
  0
LINE
  5
2E90
  8
AM_0
 10
394.04328048714399
 20
843.74445442734623
 30
0.0
 11
333.2818132365307
 21
838.42851440542051
 31
0.0
  0
ARC
  5
2E91
  8
AM_0
 10
329.54328048714399
 20
805.74445442734623
 30
0.0
 40
1.0
 50
270.0
 51
0.0
  0
ARC
  5
2E92
  8
AM_0
 10
333.54328048714461
 20
831.05913921138381
 30
0.0
 40
3.0
 50
95.0
 51
180.0
  0
ARC
  5
2E93
  8
AM_0
 10
333.54328048714399
 20
835.43993031310254
 30
0.0
 40
3.0
 50
95.000000428873591
 51
180.0
1001
GENIUS_GENODEF_13
1002
{
1000
HIER
1070
     0
1002
}
1002
{
1000
MANEDIT
1070
     0
1002
}
1002
{
1000
NOSEL
1070
     0
1002
}
1002
{
1000
BEHIND
1070
     0
1002
}
1002
{
1000
OTHER
1070
     0
1002
}
1002
{
1000
REACTOR
1002
}
1001
GENIUS_GENOBJ-N-FIL_13
1002
{
1000
OWNER
1000
GEN
1002
}
  0
LINE
  5
2E94
  8
AM_0
 10
393.04328048714387
 20
922.2424444273455
 30
0.0
 11
330.54328048714382
 21
920.05989633411195
 31
0.0
  0
LINE
  5
2E95
  8
AM_0
 10
393.04328048714387
 20
918.77869442734561
 30
0.0
 11
330.54328048714382
 21
916.59614633411149
 31
0.0
  0
LINE
  5
2E96
  8
AM_0
 10
393.04328048714387
 20
940.71021442734639
 30
0.0
 11
330.54328048714382
 21
942.89276252058005
 31
0.0
  0
LINE
  5
2E97
  8
AM_0
 10
393.04328048714387
 20
937.24646442734604
 30
0.0
 11
330.54328048714382
 21
939.42901252058061
 31
0.0
  0
LINE
  5
2E98
  8
AM_0
 10
393.04328048714387
 20
1020.212734643308
 30
0.0
 11
333.28181348714372
 21
1025.441185643308
 31
0.0
  0
LINE
  5
2E99
  8
AM_0
 10
394.04328048714399
 20
1015.744454427345
 30
0.0
 11
333.2818132365307
 21
1021.06039444927
 31
0.0
  0
ARC
  5
2E9A
  8
AM_0
 10
333.54328048714399
 20
1024.04897854159
 30
0.0
 40
3.0
 50
180.0
 51
264.9999995711263
1001
GENIUS_GENODEF_13
1002
{
1000
HIER
1070
     0
1002
}
1002
{
1000
MANEDIT
1070
     0
1002
}
1002
{
1000
NOSEL
1070
     0
1002
}
1002
{
1000
BEHIND
1070
     0
1002
}
1002
{
1000
OTHER
1070
     0
1002
}
1002
{
1000
REACTOR
1002
}
1001
GENIUS_GENOBJ-N-FIL_13
1002
{
1000
OWNER
1000
GEN
1002
}
  0
ARC
  5
2E9B
  8
AM_0
 10
333.54328048714399
 20
1028.429769643308
 30
0.0
 40
3.0
 50
180.0
 51
265.0
  0
ARC
  5
2E9C
  8
AM_0
 10
329.54328048714399
 20
1053.744454427346
 30
0.0
 40
1.0
 50
0.0
 51
90.0
  0
LINE
  5
2E9D
  8
AM_0
 10
393.04328048714439
 20
843.65696575627805
 30
0.0
 11
393.04328048714439
 21
839.27617421138382
 31
0.0
  0
LINE
  5
2E9E
  8
AM_0
 10
393.04328048714387
 20
940.71021442734639
 30
0.0
 11
393.04328048714387
 21
918.77869442734561
 31
0.0
  0
LINE
  5
2E9F
  8
AM_0
 10
393.04328048714387
 20
1015.8319430984139
 30
0.0
 11
393.04328048714387
 21
1020.212734643308
 31
0.0
  0
LINE
  5
2EA0
  8
AM_0
 10
615.54322048714391
 20
453.4585405791218
 30
0.0
 11
697.54322048714391
 21
453.4585405791218
 31
0.0
  0
LINE
  5
2EA1
  8
AM_0
 10
615.54322048714391
 20
508.45854057912169
 30
0.0
 11
697.54322048714391
 21
508.45854057912169
 31
0.0
  0
LINE
  5
2EA2
  8
ﾁｭｳｼﾝｾﾝ
 10
449.53335703034082
 20
480.95854057912157
 30
0.0
 11
702.97207048714415
 21
480.95854057912157
 31
0.0
  0
LINE
  5
2EA3
  8
AM_0
 10
635.54322048714391
 20
512.45854057912175
 30
0.0
 11
697.54322048714391
 21
512.45854057912175
 31
0.0
  0
LINE
  5
2EA4
  8
AM_0
 10
604.54322048714369
 20
561.37682557912183
 30
0.0
 11
604.54322048714369
 21
314.61878557912172
 31
0.0
  0
LINE
  5
2EA5
  8
AM_0
 10
609.54322048714391
 20
539.02717557912172
 30
0.0
 11
609.54322048714391
 21
422.8899355791217
 31
0.0
  0
LINE
  5
2EA6
  8
AM_0
 10
577.54322048714391
 20
585.2857255791215
 30
0.0
 11
577.54322048714391
 21
337.26554557912169
 31
0.0
  0
LINE
  5
2EA7
  8
AM_0
 10
394.04322048714408
 20
522.07788380538796
 30
0.0
 11
394.04322048714408
 21
350.0778838053879
 31
0.0
  0
LINE
  5
2EA8
  8
AM_0
 10
330.54322048714403
 20
560.07788380538796
 30
0.0
 11
330.54322048714403
 21
312.0778838053879
 31
0.0
  0
LINE
  5
2EA9
  8
AM_0
 10
314.54322048714403
 20
561.07788380538807
 30
0.0
 11
314.54322048714403
 21
311.0778838053879
 31
0.0
  0
LINE
  5
2EAA
  8
AM_0
 10
467.54322048714391
 20
473.06452557912172
 30
0.0
 11
467.54322048714391
 21
383.19752057912171
 31
0.0
  0
LINE
  5
2EAB
  8
AM_0
 10
544.54322048714391
 20
517.91618057912183
 30
0.0
 11
544.54322048714391
 21
320.9585355791217
 31
0.0
  0
LINE
  5
2EAC
  8
AM_0
 10
462.5432204871438
 20
602.95852557912156
 30
0.0
 11
462.5432204871438
 21
370.35245557912162
 31
0.0
  0
LINE
  5
2EAD
  8
AM_0
 10
432.54322048714391
 20
599.97957557912162
 30
0.0
 11
432.54322048714391
 21
311.0975155791217
 31
0.0
  0
LINE
  5
2EAE
  8
AM_0
 10
412.5432204871438
 20
547.65822557912179
 30
0.0
 11
412.5432204871438
 21
336.74598057912169
 31
0.0
  0
LINE
  5
2EAF
  8
AM_0
 10
384.54322048714391
 20
310.95853557912159
 30
0.0
 11
431.37262048714388
 21
310.95853557912159
 31
0.0
  0
LINE
  5
2EB0
  8
ﾁｭｳｼﾝｾﾝ
 10
294.9575431671845
 20
435.95853557912159
 30
0.0
 11
459.68591584722492
 21
435.95853557912159
 31
0.0
  0
LINE
  5
2EB1
  8
AM_0
 10
379.54322048714391
 20
280.9585355791217
 30
0.0
 11
609.54322048714391
 21
280.9585355791217
 31
0.0
  0
LINE
  5
2EB2
  8
ｶｸﾚｾﾝ2
 10
400.04322048714403
 20
310.95853557912159
 30
0.0
 11
400.04322048714403
 21
280.9585355791217
 31
0.0
  0
LINE
  5
2EB3
  8
AM_0
 10
379.54322048714391
 20
305.9585355791217
 30
0.0
 11
379.54322048714391
 21
280.9585355791217
 31
0.0
  0
LINE
  5
2EB4
  8
ﾁｭｳｼﾝｾﾝ1
 10
409.54322048714391
 20
315.69869576574581
 30
0.0
 11
409.54322048714391
 21
277.95853557912159
 31
0.0
  0
LINE
  5
2EB5
  8
ｶｸﾚｾﾝ2
 10
419.04322048714391
 20
310.95853557912159
 30
0.0
 11
419.04322048714391
 21
280.9585355791217
 31
0.0
  0
LINE
  5
2EB6
  8
AM_0
 10
393.04322048714403
 20
410.33097780538799
 30
0.0
 11
393.04322048714403
 21
376.15898380538789
 31
0.0
  0
ARC
  5
2EB7
  8
AM_0
 10
398.54327048714401
 20
376.87901057912171
 30
0.0
 40
3.0000000500000001
 50
0.0
 51
90.00000299999769
  0
LINE
  5
2EB8
  8
AM_0
 10
391.04322048714403
 20
374.15898380538789
 30
0.0
 11
330.54322048714403
 21
374.15898380538789
 31
0.0
  0
LINE
  5
2EB9
  8
AM_0
 10
394.04322048714408
 20
350.0778838053879
 30
0.0
 11
333.2817534871441
 21
344.76194380538811
 31
0.0
  0
LINE
  5
2EBA
  8
AM_0
 10
314.54322048714403
 20
311.0778838053879
 30
0.0
 11
329.54322048714403
 21
311.0778838053879
 31
0.0
  0
ARC
  5
2EBB
  8
AM_0
 10
329.54322048714403
 20
312.0778838053879
 30
0.0
 40
1.0
 50
270.0
 51
0.0
  0
ARC
  5
2EBC
  8
AM_0
 10
333.54322048714403
 20
341.77335980538783
 30
0.0
 40
3.0
 50
95.0
 51
180.0
  0
ARC
  5
2EBD
  8
AM_0
 10
384.54322048714391
 20
305.9585355791217
 30
0.0
 40
5.0
 50
90.00000299999769
 51
180.00001000000091
  0
ARC
  5
2EBE
  8
AM_0
 10
422.54322048714391
 20
326.8862405791217
 30
0.0
 40
10.0
 50
179.9999899999988
 51
224.09222000000261
  0
LINE
  5
2EBF
  8
AM_0
 10
424.05072048714391
 20
310.95856557912163
 30
0.0
 11
415.36102048714417
 21
319.92811057912172
 31
0.0
  0
LINE
  5
2EC0
  8
AM_0
 10
412.5432204871438
 20
336.74598057912169
 30
0.0
 11
412.5432204871438
 21
326.8862405791217
 31
0.0
  0
LINE
  5
2EC1
  8
AM_0
 10
394.04322048714391
 20
352.4585355791217
 30
0.0
 11
407.71777048714409
 21
351.98103057912181
 31
0.0
  0
ARC
  5
2EC2
  8
AM_0
 10
391.04322048714403
 20
376.15898380538789
 30
0.0
 40
2.0
 50
270.0
 51
0.0
  0
ARC
  5
2EC3
  8
AM_0
 10
404.54322048714369
 20
359.31510557912179
 30
0.0
 40
3.0000000500000001
 50
179.9999899999988
 51
270.0
  0
ARC
  5
2EC4
  8
AM_0
 10
407.54322048714391
 20
346.9840505791218
 30
0.0
 40
5.0
 50
0.0
 51
88.000000000002785
  0
ARC
  5
2EC5
  8
AM_0
 10
409.54322048714391
 20
353.31510557912179
 30
0.0
 40
3.0000000500000001
 50
0.0
 51
90.00000299999769
  0
LINE
  5
2EC6
  8
AM_0
 10
404.54322048714369
 20
356.31510557912162
 30
0.0
 11
409.54322048714391
 21
356.31510557912162
 31
0.0
  0
LINE
  5
2EC7
  8
AM_0
 10
401.54322048714391
 20
376.87901057912171
 30
0.0
 11
401.54322048714391
 21
359.31510557912179
 31
0.0
  0
LINE
  5
2EC8
  8
AM_0
 10
330.54322048714403
 20
400.13974580538797
 30
0.0
 11
391.04322048714403
 21
400.13974580538797
 31
0.0
  0
LINE
  5
2EC9
  8
AM_0
 10
330.54322048714403
 20
410.33097780538799
 30
0.0
 11
390.34692248714401
 21
410.33097780538799
 31
0.0
  0
LINE
  5
2ECA
  8
AM_0
 10
396.04327048714401
 20
404.84809557912178
 30
0.0
 11
412.5432204871438
 21
404.84809557912178
 31
0.0
  0
LINE
  5
2ECB
  8
AM_0
 10
396.04327048714401
 20
393.09595557912178
 30
0.0
 11
412.5432204871438
 21
393.09595557912178
 31
0.0
  0
LINE
  5
2ECC
  8
AM_0
 10
396.04327048714401
 20
380.10557057912172
 30
0.0
 11
412.5432204871438
 21
380.10557057912172
 31
0.0
  0
LINE
  5
2ECD
  8
AM_0
 10
396.04327048714401
 20
404.84809557912178
 30
0.0
 11
396.04327048714401
 21
380.10557057912172
 31
0.0
  0
ARC
  5
2ECE
  8
AM_0
 10
391.04322048714403
 20
402.13974580538792
 30
0.0
 40
2.0
 50
270.0
 51
0.0
  0
LINE
  5
2ECF
  8
ｶｸﾚｾﾝ2
 10
589.04322048714391
 20
310.95853557912159
 30
0.0
 11
589.04322048714391
 21
280.9585355791217
 31
0.0
  0
LINE
  5
2ED0
  8
ｶｸﾚｾﾝ2
 10
570.04322048714391
 20
310.95853557912159
 30
0.0
 11
570.04322048714391
 21
280.9585355791217
 31
0.0
  0
LINE
  5
2ED1
  8
ﾁｭｳｼﾝｾﾝ1
 10
579.54322048714369
 20
314.8664055791217
 30
0.0
 11
579.54322048714369
 21
277.95853557912159
 31
0.0
  0
LINE
  5
2ED2
  8
AM_0
 10
609.54322048714391
 20
305.9585355791217
 30
0.0
 11
609.54322048714391
 21
280.9585355791217
 31
0.0
  0
LINE
  5
2ED3
  8
AM_0
 10
435.8952704871441
 20
313.82642557912169
 30
0.0
 11
466.58852048714402
 21
378.93330057912158
 31
0.0
  0
ARC
  5
2ED4
  8
AM_0
 10
431.37262048714388
 20
315.9585355791217
 30
0.0
 40
5.0
 50
270.0
 51
334.75946999999809
  0
ARC
  5
2ED5
  8
AM_0
 10
457.54322048714391
 20
383.19752057912171
 30
0.0
 40
10.0
 50
334.75946999999809
 51
0.0
  0
LINE
  5
2ED6
  8
AM_0
 10
554.54322048714369
 20
310.95853557912159
 30
0.0
 11
604.54322048714369
 21
310.95853557912159
 31
0.0
  0
LINE
  5
2ED7
  8
AM_0
 10
544.54322048714391
 20
327.26554557912169
 30
0.0
 11
567.54322048714391
 21
327.26554557912169
 31
0.0
  0
ARC
  5
2ED8
  8
AM_0
 10
554.54322048714369
 20
320.9585355791217
 30
0.0
 40
10.0
 50
179.9999899999988
 51
270.0
  0
ARC
  5
2ED9
  8
AM_0
 10
567.54322048714391
 20
337.26554557912169
 30
0.0
 40
10.0
 50
270.0
 51
0.0
  0
ARC
  5
2EDA
  8
AM_0
 10
609.54322048714391
 20
314.61878557912172
 30
0.0
 40
5.0
 50
179.9999899999988
 51
240.00000999999969
  0
ARC
  5
2EDB
  8
AM_0
 10
604.54322048714369
 20
305.9585355791217
 30
0.0
 40
5.0
 50
0.0
 51
90.00000299999769
  0
ARC
  5
2EDC
  8
AM_0
 10
606.54322048714391
 20
418.85258057912182
 30
0.0
 40
2.0000000500000001
 50
91.999998000000545
 51
180.00001000000091
  0
LINE
  5
2EDD
  8
AM_0
 10
606.47342048714404
 20
420.8513005791217
 30
0.0
 11
607.61297048714403
 21
420.89112557912182
 31
0.0
  0
ARC
  5
2EDE
  8
AM_0
 10
607.54322048714391
 20
422.8899355791217
 30
0.0
 40
2.0000000500000001
 50
271.99999999999687
 51
0.0
  0
LINE
  5
2EDF
  8
AM_0
 10
428.56102048714388
 20
572.58252557912158
 30
0.0
 11
414.50772048714367
 21
553.61047557912173
 31
0.0
  0
ARC
  5
2EE0
  8
AM_0
 10
444.54322048714391
 20
628.95852557912178
 30
0.0
 40
25.000000499999999
 50
306.46672000000012
 51
233.53329000000139
  0
ARC
  5
2EE1
  8
AM_0
 10
407.54322048714391
 20
524.93299557912178
 30
0.0
 40
5.0
 50
271.99999999999687
 51
0.0
  0
LINE
  5
2EE2
  8
AM_0
 10
396.04327048714401
 20
519.52839557912182
 30
0.0
 11
396.04327048714401
 21
534.95852557912156
 31
0.0
  0
LINE
  5
2EE3
  8
AM_0
 10
394.04322048714391
 20
519.45851057912171
 30
0.0
 11
407.71767048714401
 21
519.93604557912136
 31
0.0
  0
LINE
  5
2EE4
  8
AM_0
 10
393.04322048714403
 20
535.07788380538796
 30
0.0
 11
333.2817534871441
 21
540.30633480538802
 31
0.0
  0
LINE
  5
2EE5
  8
AM_0
 10
392.04322048714403
 20
522.01344080538809
 30
0.0
 11
330.54322048714403
 21
522.01344080538809
 31
0.0
  0
ARC
  5
2EE6
  8
AM_0
 10
333.54322048714403
 20
543.29491880538785
 30
0.0
 40
3.0
 50
180.0
 51
265.00000000000028
  0
LINE
  5
2EE7
  8
AM_0
 10
314.54322048714403
 20
561.07788380538807
 30
0.0
 11
329.54322048714403
 21
561.07788380538807
 31
0.0
  0
ARC
  5
2EE8
  8
AM_0
 10
329.54322048714403
 20
560.07788380538796
 30
0.0
 40
1.0
 50
0.0
 51
90.0
  0
LINE
  5
2EE9
  8
AM_0
 10
396.0431704871441
 20
534.95852557912156
 30
0.0
 11
409.64797048714388
 21
535.43362557912155
 31
0.0
  0
LINE
  5
2EEA
  8
AM_0
 10
393.04322048714403
 20
522.07788380538796
 30
0.0
 11
394.04322048714408
 21
522.07788380538796
 31
0.0
  0
LINE
  5
2EEB
  8
AM_0
 10
393.04322048714403
 20
522.07788380538796
 30
0.0
 11
393.04322048714403
 21
535.07788380538796
 31
0.0
  0
ARC
  5
2EEC
  8
AM_0
 10
409.54322048714391
 20
538.43177557912179
 30
0.0
 40
3.0000000500000001
 50
271.99999999999687
 51
0.0
  0
ARC
  5
2EED
  8
AM_0
 10
422.54322048714391
 20
547.65822557912179
 30
0.0
 40
10.0
 50
143.47114000000261
 51
180.00001000000091
  0
ARC
  5
2EEE
  8
AM_0
 10
567.54322048714391
 20
585.2857255791215
 30
0.0
 40
10.0
 50
0.0
 51
88.000000000002785
  0
LINE
  5
2EEF
  8
AM_0
 10
487.5432204871438
 20
597.25707557912165
 30
0.0
 11
487.5432204871438
 21
473.06452557912172
 31
0.0
  0
LINE
  5
2EF0
  8
AM_0
 10
429.54322048714369
 20
600.95857557912154
 30
0.0
 11
429.54322048714369
 21
575.55867557912177
 31
0.0
  0
LINE
  5
2EF1
  8
AM_0
 10
467.54322048714391
 20
473.06452557912172
 30
0.0
 11
487.5432204871438
 21
473.06452557912172
 31
0.0
  0
LINE
  5
2EF2
  8
AM_0
 10
431.56102048714399
 20
576.63252557912165
 30
0.0
 11
428.56102048714388
 21
572.58252557912158
 31
0.0
  0
ARC
  5
2EF3
  8
AM_0
 10
424.54322048714391
 20
575.55867557912177
 30
0.0
 40
5.0
 50
323.47114000000272
 51
0.0
  0
ARC
  5
2EF4
  8
AM_0
 10
427.54322048714391
 20
579.60867557912161
 30
0.0
 40
5.0
 50
323.47114000000272
 51
0.0
  0
ARC
  5
2EF5
  8
AM_0
 10
559.54322048714391
 20
517.91618057912183
 30
0.0
 40
15.0
 50
90.00000299999769
 51
180.00001000000091
  0
LINE
  5
2EF6
  8
AM_0
 10
615.54322048714391
 20
510.95854057912157
 30
0.0
 11
615.54322048714391
 21
450.95854057912169
 31
0.0
  0
LINE
  5
2EF7
  8
AM_0
 10
609.54322048714391
 20
450.95854057912169
 30
0.0
 11
615.54322048714391
 21
450.95854057912169
 31
0.0
  0
LINE
  5
2EF8
  8
AM_0
 10
609.54322048714391
 20
510.95854057912157
 30
0.0
 11
615.54322048714391
 21
510.95854057912157
 31
0.0
  0
LINE
  5
2EF9
  8
AM_0
 10
635.54322048714391
 20
512.45854057912175
 30
0.0
 11
635.54322048714391
 21
508.45854057912169
 31
0.0
  0
LINE
  5
2EFA
  8
AM_0
 10
586.67162048714397
 20
567.52212557912185
 30
0.0
 11
599.97897048714401
 21
566.35787557912181
 31
0.0
  0
LINE
  5
2EFB
  8
AM_0
 10
559.54322048714391
 20
532.91617557912173
 30
0.0
 11
577.54322048714391
 21
532.91617557912173
 31
0.0
  0
ARC
  5
2EFC
  8
AM_0
 10
587.5432204871438
 20
577.48402557912175
 30
0.0
 40
10.0
 50
179.9999899999988
 51
265.00000000000028
  0
ARC
  5
2EFD
  8
AM_0
 10
607.54322048714391
 20
539.02717557912172
 30
0.0
 40
2.0000000500000001
 50
0.0
 51
88.000000000002785
  0
ARC
  5
2EFE
  8
AM_0
 10
606.54322048714391
 20
543.06452557912155
 30
0.0
 40
2.0000000500000001
 50
179.9999899999988
 51
268.00000999999861
  0
LINE
  5
2EFF
  8
AM_0
 10
606.47347048714425
 20
541.06572557912182
 30
0.0
 11
607.61307048714411
 21
541.02597557912168
 31
0.0
  0
ARC
  5
2F00
  8
AM_0
 10
599.54322048714391
 20
561.37682557912183
 30
0.0
 40
5.0
 50
0.0
 51
84.999996999998885
  0
LINE
  5
2F01
  8
AM_0
 10
490.57152048714357
 20
597.97982557912178
 30
0.0
 11
567.89227048714395
 21
595.27967557912177
 31
0.0
  0
LINE
  5
2F02
  8
AM_0
 10
462.5432204871438
 20
602.95852557912156
 30
0.0
 11
482.71772048714388
 21
602.2540255791215
 31
0.0
  0
CIRCLE
  5
2F03
  8
AM_0
 10
444.54322048714391
 20
628.95852557912178
 30
0.0
 40
15.0
  0
LINE
  5
2F04
  8
AM_0
 10
434.74917048714411
 20
611.95852557912156
 30
0.0
 11
454.33722048714418
 21
611.95852557912156
 31
0.0
  0
LINE
  5
2F05
  8
AM_0
 10
431.54322048714391
 20
602.95852557912156
 30
0.0
 11
462.5432204871438
 21
602.95852557912156
 31
0.0
  0
LINE
  5
2F06
  8
AM_0
 10
434.4734204871441
 20
601.9782755791216
 30
0.0
 11
462.5432204871438
 21
602.95852557912156
 31
0.0
  0
LINE
  5
2F07
  8
AM_0
 10
444.54322048714391
 20
613.95852557912156
 30
0.0
 11
454.02132048714418
 21
612.07952557912165
 31
0.0
  0
ARC
  5
2F08
  8
AM_0
 10
435.25967048714432
 20
611.09862557912174
 30
0.0
 40
1.0
 50
101.21328999999869
 51
164.99998999999869
  0
ARC
  5
2F09
  8
AM_0
 10
434.54322048714391
 20
599.97957557912162
 30
0.0
 40
2.0000000500000001
 50
91.999998000000545
 51
180.00001000000091
  0
ARC
  5
2F0A
  8
AM_0
 10
431.54322048714391
 20
600.95857557912154
 30
0.0
 40
2.0000000500000001
 50
90.00000299999769
 51
180.00001000000091
  0
LINE
  5
2F0B
  8
AM_0
 10
432.04322048714391
 20
602.95852557912156
 30
0.0
 11
434.29372048714379
 21
611.35742557912181
 31
0.0
  0
ARC
  5
2F0C
  8
AM_0
 10
426.11817048714391
 20
604.02822557912168
 30
0.0
 40
6.0
 50
349.72994999999878
 51
53.533291000000993
  0
LINE
  5
2F0D
  8
AM_0
 10
435.06517048714409
 20
612.07952557912165
 30
0.0
 11
444.54322048714391
 21
613.95857557912154
 31
0.0
  0
ARC
  5
2F0E
  8
AM_0
 10
453.82687048714399
 20
611.09862557912174
 30
0.0
 40
1.0
 50
15.000000000000741
 51
78.786710000001207
  0
ARC
  5
2F0F
  8
AM_0
 10
462.96822048714409
 20
604.02822557912168
 30
0.0
 40
6.0
 50
126.46669999999671
 51
190.27005999999909
  0
LINE
  5
2F10
  8
AM_0
 10
457.04327048714401
 20
602.95852557912156
 30
0.0
 11
454.79277048714391
 21
611.35747557912168
 31
0.0
  0
ARC
  5
2F11
  8
AM_0
 10
482.54322048714391
 20
597.25707557912165
 30
0.0
 40
5.0
 50
34.887349999997149
 51
88.000000000002785
  0
ARC
  5
2F12
  8
AM_0
 10
490.74602048714388
 20
602.97677557912175
 30
0.0
 40
5.0
 50
214.88733999999911
 51
268.0000000000029
  0
ARC
  5
2F13
  8
AM_0
 10
975.75242735379368
 20
480.95854057912157
 30
0.0
 40
60.0
 50
270.0
 51
90.00000299999769
  0
ARC
  5
2F14
  8
AM_0
 10
975.75242735379368
 20
480.95854057912157
 30
0.0
 40
60.0
 50
90.00000299999769
 51
270.0
  0
LINE
  5
2F15
  8
AM_0
 10
1140.752402353794
 20
310.95853557912159
 30
0.0
 11
1102.5550573537939
 21
507.46684057912171
 31
0.0
  0
LINE
  5
2F16
  8
AM_0
 10
1092.7523973537941
 20
387.92243557912172
 30
0.0
 11
1092.7523973537941
 21
531.8923255791218
 31
0.0
  0
LINE
  5
2F17
  8
AM_0
 10
1075.752397353793
 20
322.95850557912172
 30
0.0
 11
1075.752397353793
 21
465.9585405791218
 31
0.0
  0
LINE
  5
2F18
  8
AM_0
 10
810.75240735379396
 20
310.95853557912159
 30
0.0
 11
848.94978235379403
 21
507.46684057912171
 31
0.0
  0
LINE
  5
2F19
  8
AM_0
 10
858.75239735379375
 20
387.92243557912172
 30
0.0
 11
858.75239735379375
 21
531.8923255791218
 31
0.0
  0
LINE
  5
2F1A
  8
ﾁｭｳｼﾝｾﾝ
 10
975.75242735379368
 20
274.9585205791218
 30
0.0
 11
975.75242735379368
 21
658.08621509981435
 31
0.0
  0
LINE
  5
2F1B
  8
AM_0
 10
875.75242735379391
 20
322.95850557912172
 30
0.0
 11
875.75242735379391
 21
465.9585405791218
 31
0.0
  0
LINE
  5
2F1C
  8
AM_0
 10
1075.752397353793
 20
310.95853557912159
 30
0.0
 11
1135.7524023537931
 21
310.95853557912159
 31
0.0
  0
ARC
  5
2F1D
  8
AM_0
 10
975.75242735379368
 20
387.95850557912172
 30
0.0
 40
117.0
 50
328.72670000000397
 51
0.0
  0
LINE
  5
2F1E
  8
AM_0
 10
1070.752397353793
 20
280.9585355791217
 30
0.0
 11
1140.752402353794
 21
280.9585355791217
 31
0.0
  0
LINE
  5
2F1F
  8
ﾁｭｳｼﾝｾﾝ
 10
840.80107189580633
 20
435.95853557912159
 30
0.0
 11
1109.998778351232
 21
435.95853557912159
 31
0.0
  0
ARC
  5
2F20
  8
AM_0
 10
975.75242735379368
 20
387.95850557912172
 30
0.0
 40
117.0
 50
179.9999899999988
 51
211.27329999999591
  0
LINE
  5
2F21
  8
AM_0
 10
880.75242735379413
 20
280.9585355791217
 30
0.0
 11
810.75240735379396
 21
280.9585355791217
 31
0.0
  0
LINE
  5
2F22
  8
AM_0
 10
875.75242735379391
 20
310.95853557912159
 30
0.0
 11
815.75240735379418
 21
310.95853557912159
 31
0.0
  0
ARC
  5
2F23
  8
AM_0
 10
863.75239735379375
 20
322.95850557912172
 30
0.0
 40
12.0
 50
270.0
 51
0.0
  0
LINE
  5
2F24
  8
ｶｸﾚｾﾝ2
 10
852.75239735379398
 20
310.95853557912159
 30
0.0
 11
852.75239735379398
 21
280.9585355791217
 31
0.0
  0
LINE
  5
2F25
  8
ﾁｭｳｼﾝｾﾝ1
 10
843.25240735379418
 20
315.61979057912163
 30
0.0
 11
843.25240735379418
 21
277.95853557912159
 31
0.0
  0
LINE
  5
2F26
  8
ｶｸﾚｾﾝ2
 10
833.7524073537943
 20
310.95853557912159
 30
0.0
 11
833.7524073537943
 21
280.9585355791217
 31
0.0
  0
LINE
  5
2F27
  8
AM_0
 10
810.75240735379396
 20
310.95853557912159
 30
0.0
 11
810.75240735379396
 21
280.9585355791217
 31
0.0
  0
ARC
  5
2F28
  8
AM_0
 10
815.75240735379418
 20
305.9585355791217
 30
0.0
 40
5.0
 50
90.00000299999769
 51
180.00001000000091
  0
LINE
  5
2F29
  8
AM_0
 10
1070.752397353793
 20
305.9585355791217
 30
0.0
 11
1070.752397353793
 21
280.9585355791217
 31
0.0
  0
ARC
  5
2F2A
  8
AM_0
 10
898.94288735379394
 20
295.00684557912172
 30
0.0
 40
10.0
 50
54.999999000001559
 51
135.0
  0
LINE
  5
2F2B
  8
AM_0
 10
880.75242735379413
 20
305.9585355791217
 30
0.0
 11
880.75242735379413
 21
280.9585355791217
 31
0.0
  0
ARC
  5
2F2C
  8
AM_0
 10
1052.561907353793
 20
295.00684557912172
 30
0.0
 40
10.0
 50
45.000001000003799
 51
124.9999999999972
  0
LINE
  5
2F2D
  8
AM_0
 10
975.75242735379368
 20
296.95853557912159
 30
0.0
 11
1034.7617373537939
 21
296.95853557912159
 31
0.0
  0
LINE
  5
2F2E
  8
AM_0
 10
975.75242735379368
 20
287.95850557912172
 30
0.0
 11
1065.752397353793
 21
287.95850557912172
 31
0.0
  0
LINE
  5
2F2F
  8
AM_0
 10
975.75242735379368
 20
287.95850557912172
 30
0.0
 11
885.75242735379425
 21
287.95850557912172
 31
0.0
  0
LINE
  5
2F30
  8
AM_0
 10
975.75242735379368
 20
296.95853557912159
 30
0.0
 11
916.74308735379395
 21
296.95853557912159
 31
0.0
  0
ARC
  5
2F31
  8
AM_0
 10
890.75242735379413
 20
286.81638557912169
 30
0.0
 40
10.0
 50
135.0
 51
180.00001000000091
  0
ARC
  5
2F32
  8
AM_0
 10
885.75242735379425
 20
282.95850557912172
 30
0.0
 40
5.0
 50
90.00000299999769
 51
180.00001000000091
  0
LINE
  5
2F33
  8
AM_0
 10
883.68132235379414
 20
293.88746057912158
 30
0.0
 11
891.87181235379398
 21
302.0779505791217
 31
0.0
  0
LINE
  5
2F34
  8
AM_0
 10
911.00731235379396
 20
298.76700557912159
 30
0.0
 11
904.67863735379422
 21
303.19840557912158
 31
0.0
  0
ARC
  5
2F35
  8
AM_0
 10
916.74308735379395
 20
306.95853557912159
 30
0.0
 40
10.0
 50
235.0000000000025
 51
270.0
  0
ARC
  5
2F36
  8
AM_0
 10
1034.7617373537939
 20
306.95853557912159
 30
0.0
 40
10.0
 50
270.0
 51
304.99999999999739
  0
LINE
  5
2F37
  8
AM_0
 10
1067.823472353793
 20
293.88746057912158
 30
0.0
 11
1059.632982353794
 21
302.0779505791217
 31
0.0
  0
LINE
  5
2F38
  8
AM_0
 10
1040.4974873537931
 20
298.76704057912173
 30
0.0
 11
1046.8261573537941
 21
303.19840557912158
 31
0.0
  0
ARC
  5
2F39
  8
AM_0
 10
1060.7523973537941
 20
286.81638557912169
 30
0.0
 40
10.0
 50
0.0
 51
45.000001000003799
  0
ARC
  5
2F3A
  8
AM_0
 10
1065.752397353793
 20
282.95850557912172
 30
0.0
 40
5.0
 50
0.0
 51
90.00000299999769
  0
ARC
  5
2F3B
  8
AM_0
 10
875.75242735379391
 20
305.9585355791217
 30
0.0
 40
5.0
 50
0.0
 51
90.00000299999769
  0
ARC
  5
2F3C
  8
AM_0
 10
1087.752397353793
 20
322.95850557912172
 30
0.0
 40
12.0
 50
180.00001000000091
 51
270.0
  0
ARC
  5
2F3D
  8
AM_0
 10
1075.752397353793
 20
305.9585355791217
 30
0.0
 40
5.0
 50
90.00000299999769
 51
180.00001000000091
  0
LINE
  5
2F3E
  8
ｶｸﾚｾﾝ2
 10
1117.752397353793
 20
310.95853557912159
 30
0.0
 11
1117.752397353793
 21
280.9585355791217
 31
0.0
  0
LINE
  5
2F3F
  8
ｶｸﾚｾﾝ2
 10
1098.752412353793
 20
310.95853557912159
 30
0.0
 11
1098.752412353793
 21
280.9585355791217
 31
0.0
  0
LINE
  5
2F40
  8
ﾁｭｳｼﾝｾﾝ1
 10
1108.252397353793
 20
315.61979057912163
 30
0.0
 11
1108.252397353793
 21
277.95853557912159
 31
0.0
  0
LINE
  5
2F41
  8
AM_0
 10
1140.752402353794
 20
310.95853557912159
 30
0.0
 11
1140.752402353794
 21
280.9585355791217
 31
0.0
  0
ARC
  5
2F42
  8
AM_0
 10
1135.7524023537931
 20
305.9585355791217
 30
0.0
 40
5.0
 50
0.0
 51
90.00000299999769
  0
ARC
  5
2F43
  8
AM_0
 10
975.75242735379368
 20
465.9585405791218
 30
0.0
 40
100.0
 50
0.0
 51
90.00000299999769
  0
ARC
  5
2F44
  8
AM_0
 10
1008.752397353793
 20
489.4249405791216
 30
0.0
 40
100.0
 50
0.0
 51
45.402042999998848
  0
ARC
  5
2F45
  8
AM_0
 10
1011.263687353793
 20
489.72163057912172
 30
0.0
 40
93.0
 50
10.999999999998691
 51
43.554363999997882
  0
ARC
  5
2F46
  8
AM_0
 10
940.24110735379395
 20
489.72163057912172
 30
0.0
 40
93.0
 50
136.4456399999961
 51
169.00000000000131
  0
ARC
  5
2F47
  8
AM_0
 10
975.75242735379368
 20
465.9585405791218
 30
0.0
 40
100.0
 50
90.00000299999769
 51
180.00001000000091
  0
ARC
  5
2F48
  8
AM_0
 10
942.75239735379398
 20
489.4249405791216
 30
0.0
 40
100.0
 50
134.59795999999881
 51
180.00001000000091
  0
ARC
  5
2F49
  8
AM_0
 10
975.75242735379368
 20
455.95854057912157
 30
0.0
 40
142.0
 50
90.00000299999769
 51
136.4456399999961
  0
ARC
  5
2F4A
  8
AM_0
 10
975.75242735379368
 20
455.95854057912157
 30
0.0
 40
147.0
 50
90.00000299999769
 51
134.59795999999881
  0
LINE
  5
2F4B
  8
AM_0
 10
697.54322048714391
 20
512.45854057912175
 30
0.0
 11
697.54322048714391
 21
453.4585405791218
 31
0.0
  0
LINE
  5
2F4C
  8
AM_0
 10
842.75240735379396
 20
489.4249405791216
 30
0.0
 11
842.75240735379396
 21
475.58424057912163
 31
0.0
  0
ARC
  5
2F4D
  8
AM_0
 10
868.75239735379398
 20
531.8923255791218
 30
0.0
 40
10.0
 50
149.46391999999909
 51
180.00001000000091
  0
ARC
  5
2F4E
  8
AM_0
 10
975.75242735379368
 20
455.95854057912157
 30
0.0
 40
142.0
 50
43.554363999997882
 51
90.00000299999769
  0
ARC
  5
2F4F
  8
AM_0
 10
975.75242735379368
 20
455.95854057912157
 30
0.0
 40
147.0
 50
45.402042999998848
 51
90.00000299999769
  0
ARC
  5
2F50
  8
AM_0
 10
975.75242735379368
 20
480.95854057912157
 30
0.0
 40
27.500000499999999
 50
106.9123899999985
 51
73.087596999999803
  0
LINE
  5
2F51
  8
ﾁｭｳｼﾝｾﾝ
 10
1067.0556734814161
 20
480.95854057912157
 30
0.0
 11
884.44918122616969
 21
480.95854057912157
 31
0.0
  0
CIRCLE
  5
2F52
  8
AM_5
 10
975.75242735379368
 20
480.95854057912157
 30
0.0
 40
6.0
  0
CIRCLE
  5
2F53
  8
AM_0
 10
975.75242735379368
 20
480.95854057912157
 30
0.0
 40
4.500000049999997
  0
LINE
  5
2F54
  8
AM_0
 10
967.75239735379398
 20
502.45854057912157
 30
0.0
 11
983.75239735379375
 21
502.45854057912157
 31
0.0
  0
LINE
  5
2F55
  8
AM_0
 10
967.75239735379398
 20
512.45854057912175
 30
0.0
 11
983.75239735379375
 21
512.45854057912175
 31
0.0
  0
LINE
  5
2F56
  8
AM_0
 10
967.75239735379398
 20
502.45854057912157
 30
0.0
 11
967.75239735379398
 21
512.45854057912175
 31
0.0
  0
LINE
  5
2F57
  8
AM_0
 10
983.75239735379375
 20
502.45854057912157
 30
0.0
 11
983.75239735379375
 21
512.45854057912175
 31
0.0
  0
ARC
  5
2F58
  8
AM_0
 10
975.75242735379368
 20
648.95852557912178
 30
0.0
 40
5.0
 50
359.999989999999
 51
179.9999899999988
  0
LINE
  5
2F59
  8
AM_0
 10
970.75242735379356
 20
648.95852557912178
 30
0.0
 11
970.75242735379356
 21
606.95852557912156
 31
0.0
  0
ARC
  5
2F5A
  8
AM_0
 10
966.46882735379381
 20
611.09862557912174
 30
0.0
 40
1.0
 50
101.21328999999869
 51
164.99998999999869
  0
LINE
  5
2F5B
  8
AM_0
 10
963.10637235379363
 20
602.41357557912181
 30
0.0
 11
965.50288735379365
 21
611.35742557912181
 31
0.0
  0
ARC
  5
2F5C
  8
AM_0
 10
968.75239735379398
 20
606.95852557912156
 30
0.0
 40
2.0000000500000001
 50
270.0
 51
0.0
  0
LINE
  5
2F5D
  8
AM_0
 10
966.27433735379395
 20
612.07952557912165
 30
0.0
 11
970.75239735379398
 21
612.96727557912175
 31
0.0
  0
LINE
  5
2F5E
  8
AM_0
 10
980.75242735379356
 20
648.95852557912178
 30
0.0
 11
980.75242735379356
 21
606.95852557912156
 31
0.0
  0
ARC
  5
2F5F
  8
AM_0
 10
985.03596735379392
 20
611.09862557912174
 30
0.0
 40
1.0
 50
15.000000000000741
 51
78.786710000001207
  0
LINE
  5
2F60
  8
AM_0
 10
988.39842235379444
 20
602.41357557912181
 30
0.0
 11
986.00190735379374
 21
611.35747557912168
 31
0.0
  0
ARC
  5
2F61
  8
AM_0
 10
982.75239735379353
 20
606.95852557912156
 30
0.0
 40
2.0000000500000001
 50
179.9999899999988
 51
270.0
  0
LINE
  5
2F62
  8
AM_0
 10
980.75239735379364
 20
612.96727557912175
 30
0.0
 11
985.23045735379389
 21
612.07952557912165
 31
0.0
  0
LINE
  5
2F63
  8
AM_0
 10
1108.752417353794
 20
489.4249405791216
 30
0.0
 11
1108.752417353794
 21
475.58424057912163
 31
0.0
  0
ARC
  5
2F64
  8
AM_0
 10
1082.7523973537941
 20
531.8923255791218
 30
0.0
 40
10.0
 50
0.0
 51
30.536084999998732
  0
TEXT
  5
3145
  8
AM_0
 10
822.16090964327952
 20
961.71206680390651
 30
0.0
 40
20.0
  1
VX22-060A~VX22-200A
  0
ENDSEC
  0
EOF
