  0
SECTION
  2
HEADER
  9
$ACADVER
  1
AC1009
  9
$INSBASE
 10
0.0
 20
0.0
 30
0.0
  9
$EXTMIN
 10
337.51382883022728
 20
335.65243958367449
 30
-0.0000000349181948
  9
$EXTMAX
 10
1433.4309576354351
 20
1247.546612640084
 30
0.0000000814935747
  9
$LIMMIN
 10
0.0
 20
0.0
  9
$LIMMAX
 10
1707.0
 20
1110.0
  9
$ORTHOMODE
 70
     0
  9
$REGENMODE
 70
     1
  9
$FILLMODE
 70
     1
  9
$QTEXTMODE
 70
     0
  9
$MIRRTEXT
 70
     1
  9
$DRAGMODE
 70
     2
  9
$LTSCALE
 40
6.0
  9
$OSMODE
 70
   551
  9
$ATTMODE
 70
     1
  9
$TEXTSIZE
 40
2.5
  9
$TRACEWID
 40
1.0
  9
$TEXTSTYLE
  7
STANDARD
  9
$CLAYER
  8
AM_0
  9
$CELTYPE
  6
BYLAYER
  9
$CECOLOR
 62
   256
  9
$DIMSCALE
 40
1.0
  9
$DIMASZ
 40
2.5
  9
$DIMEXO
 40
1.0
  9
$DIMDLI
 40
8.0
  9
$DIMRND
 40
0.0
  9
$DIMDLE
 40
0.0
  9
$DIMEXE
 40
0.6
  9
$DIMTP
 40
0.1
  9
$DIMTM
 40
0.1
  9
$DIMTXT
 40
2.5
  9
$DIMCEN
 40
0.0
  9
$DIMTSZ
 40
0.0
  9
$DIMTOL
 70
     0
  9
$DIMLIM
 70
     0
  9
$DIMTIH
 70
     0
  9
$DIMTOH
 70
     0
  9
$DIMSE1
 70
     0
  9
$DIMSE2
 70
     0
  9
$DIMTAD
 70
     1
  9
$DIMZIN
 70
     8
  9
$DIMBLK
  1

  9
$DIMASO
 70
     1
  9
$DIMSHO
 70
     1
  9
$DIMPOST
  1

  9
$DIMAPOST
  1
"
  9
$DIMALT
 70
     0
  9
$DIMALTD
 70
     2
  9
$DIMALTF
 40
0.0393701
  9
$DIMLFAC
 40
1.0
  9
$DIMTOFL
 70
     1
  9
$DIMTVP
 40
0.0
  9
$DIMTIX
 70
     0
  9
$DIMSOXD
 70
     0
  9
$DIMSAH
 70
     0
  9
$DIMBLK1
  1

  9
$DIMBLK2
  1

  9
$DIMSTYLE
  2
AM_ISO
  9
$DIMCLRD
 70
   256
  9
$DIMCLRE
 70
   256
  9
$DIMCLRT
 70
     4
  9
$DIMTFAC
 40
0.71
  9
$DIMGAP
 40
0.8
  9
$LUNITS
 70
     2
  9
$LUPREC
 70
     2
  9
$SKETCHINC
 40
1.0
  9
$FILLETRAD
 40
30.0
  9
$AUNITS
 70
     0
  9
$AUPREC
 70
     0
  9
$MENU
  1
.
  9
$ELEVATION
 40
0.0
  9
$PELEVATION
 40
0.0
  9
$THICKNESS
 40
0.0
  9
$LIMCHECK
 70
     0
  9
$BLIPMODE
 70
     0
  9
$CHAMFERA
 40
12.0
  9
$CHAMFERB
 40
6.0
  9
$SKPOLY
 70
     0
  9
$TDCREATE
 40
2452066.6787881488
  9
$TDUPDATE
 40
2458541.4765881598
  9
$TDINDWG
 40
0.1654960069
  9
$TDUSRTIMER
 40
0.1654958102
  9
$USRTIMER
 70
     1
  9
$ANGBASE
 50
0.0
  9
$ANGDIR
 70
     0
  9
$PDMODE
 70
     0
  9
$PDSIZE
 40
0.0
  9
$PLINEWID
 40
0.0
  9
$COORDS
 70
     1
  9
$SPLFRAME
 70
     0
  9
$SPLINETYPE
 70
     6
  9
$SPLINESEGS
 70
     8
  9
$ATTDIA
 70
     1
  9
$ATTREQ
 70
     1
  9
$HANDLING
 70
     1
  9
$HANDSEED
  5
3368
  9
$SURFTAB1
 70
     6
  9
$SURFTAB2
 70
     6
  9
$SURFTYPE
 70
     6
  9
$SURFU
 70
     6
  9
$SURFV
 70
     6
  9
$UCSNAME
  2

  9
$UCSORG
 10
0.0
 20
0.0
 30
0.0
  9
$UCSXDIR
 10
1.0
 20
0.0
 30
0.0
  9
$UCSYDIR
 10
0.0
 20
1.0
 30
0.0
  9
$PUCSNAME
  2

  9
$PUCSORG
 10
0.0
 20
0.0
 30
0.0
  9
$PUCSXDIR
 10
1.0
 20
0.0
 30
0.0
  9
$PUCSYDIR
 10
0.0
 20
1.0
 30
0.0
  9
$USERI1
 70
     0
  9
$USERI2
 70
     0
  9
$USERI3
 70
     0
  9
$USERI4
 70
     0
  9
$USERI5
 70
     0
  9
$USERR1
 40
0.0
  9
$USERR2
 40
0.0
  9
$USERR3
 40
0.0
  9
$USERR4
 40
0.0
  9
$USERR5
 40
0.0
  9
$WORLDVIEW
 70
     1
  9
$SHADEDGE
 70
     3
  9
$SHADEDIF
 70
    70
  9
$TILEMODE
 70
     1
  9
$MAXACTVP
 70
    64
  9
$PLIMCHECK
 70
     0
  9
$PEXTMIN
 10
1.0000000000000000E+020
 20
1.0000000000000000E+020
 30
1.0000000000000000E+020
  9
$PEXTMAX
 10
-1.0000000000000000E+020
 20
-1.0000000000000000E+020
 30
-1.0000000000000000E+020
  9
$PLIMMIN
 10
0.0
 20
0.0
  9
$PLIMMAX
 10
420.0
 20
297.0
  9
$UNITMODE
 70
     0
  9
$VISRETAIN
 70
     1
  9
$PLINEGEN
 70
     0
  9
$PSLTSCALE
 70
     1
  0
ENDSEC
  0
SECTION
  2
TABLES
  0
TABLE
  2
VPORT
 70
     1
  0
VPORT
  2
*ACTIVE
 70
     0
 10
0.0
 20
0.0
 11
1.0
 21
1.0
 12
885.47239323283122
 22
791.59952611187919
 13
0.0
 23
0.0
 14
15.0
 24
15.0
 15
60.0
 25
60.0
 16
0.0
 26
0.0
 36
1.0
 17
0.0
 27
0.0
 37
0.0
 40
918.15431612086968
 41
1.7571592210767459
 42
50.0
 43
0.0
 44
0.0
 50
0.0
 51
0.0
 71
     0
 72
   100
 73
     1
 74
     3
 75
     0
 76
     0
 77
     0
 78
     0
  0
ENDTAB
  0
TABLE
  2
LTYPE
 70
    27
  0
LTYPE
  2
CONTINUOUS
 70
     0
  3
Solid line
 72
    65
 73
     0
 40
0.0
  0
LTYPE
  2
AM_ISO02W050
 70
     0
  3
__ __ __ __ __ __ __ __ __ __ __ __ __ __ __
 72
    65
 73
     2
 40
7.5
 49
6.0
 49
-1.5
  0
LTYPE
  2
AM_ISO08W050
 70
     0
  3
____ . ____ . ____ . ____ . ____ . ____ . ____
 72
    65
 73
     4
 40
18.0
 49
12.0
 49
-1.5
 49
3.0
 49
-1.5
  0
LTYPE
  2
AM_ISO09W050
 70
     0
  3
_____ . . _____ . . _____ . . ____ .. ____
 72
    65
 73
     6
 40
22.5
 49
12.0
 49
-1.5
 49
3.0
 49
-1.5
 49
3.0
 49
-1.5
  0
LTYPE
  2
AMCONSTR
 70
     0
  3
_______________________
 72
    65
 73
     2
 40
9999.0
 49
9999.0
 49
0.0
  0
LTYPE
  2
AM_ISO08W050X2
 70
     0
  3
__ . __ . __ . __ . __ . __
 72
    65
 73
     4
 40
9.0
 49
6.0
 49
-0.75
 49
1.5
 49
-0.75
  0
LTYPE
  2
AM_ISO02W050X2
 70
     0
  3
 _ _ _ _ _ _ _ _ _ _ _ _
 72
    65
 73
     2
 40
3.75
 49
3.0
 49
-0.75
  0
LTYPE
  2
AMZIGZAG
 70
     0
  3
/\/-/\/-/\/-/\/-/\/-/\/
 72
    65
 73
     2
 40
11.000099999999991
 49
0.0001
 49
-11.0
  0
LTYPE
  2
ACISOWELD
 70
     0
  3
_ _ _ _ _
 72
    65
 73
     2
 40
2.0
 49
2.0
 49
-1.0
  0
LTYPE
  2
ACISOTGB
 70
     0
  3
__ . . __ . .
 72
    65
 73
     6
 40
9.0
 49
4.0
 49
-1.0
 49
1.0
 49
-1.0
 49
1.0
 49
-1.0
  0
LTYPE
  2
ACISOTGL
 70
     0
  3
_ _ _ _ _
 72
    65
 73
     2
 40
3.0
 49
2.0
 49
-1.0
  0
LTYPE
  2
CENTER
 70
     0
  3
__ . __
 72
    65
 73
     4
 40
7.0
 49
4.0
 49
-1.0
 49
1.0
 49
-1.0
  0
LTYPE
  2
PHANTOM2
 70
     0
  3
Phantom (.5x) ___ _ _ ___ _ _ ___ _ _ ___ _ _
 72
    65
 73
     6
 40
31.75
 49
15.875
 49
-3.174999999999998
 49
3.174999999999998
 49
-3.174999999999998
 49
3.174999999999998
 49
-3.174999999999998
  0
LTYPE
  2
ACANSTGBM
 70
     0
  3
__ . . __ . .
 72
    65
 73
     6
 40
9.0
 49
4.0
 49
-1.0
 49
1.0
 49
-1.0
 49
1.0
 49
-1.0
  0
LTYPE
  2
ACANSTGLM
 70
     0
  3
_ _ _ _ _
 72
    65
 73
     2
 40
3.0
 49
2.0
 49
-1.0
  0
LTYPE
  2
GEN7
 70
     0
  3
____ . ____ . ____ . ____ . ____ . ____ . ____
 72
    65
 73
     4
 40
14.25
 49
9.75
 49
-1.5
 49
1.5
 49
-1.5
  0
LTYPE
  2
GEN3B
 70
     0
  3
 - - - - -
 72
    65
 73
     2
 40
1.0
 49
0.5
 49
-0.5
  0
LTYPE
  2
GEN7A
 70
     0
  3
__ . __ . __
 72
    65
 73
     4
 40
7.375
 49
4.75
 49
-0.875
 49
0.875
 49
-0.875
  0
LTYPE
  2
ACJISTGB
 70
     0
  3
__ . . __ . .
 72
    65
 73
     6
 40
9.0
 49
4.0
 49
-1.0
 49
1.0
 49
-1.0
 49
1.0
 49
-1.0
  0
LTYPE
  2
ACJISTGL
 70
     0
  3
_ _ _ _ _
 72
    65
 73
     2
 40
3.0
 49
2.0
 49
-1.0
  0
LTYPE
  2
HIDDEN
 70
     0
  3
Hidden __ __ __ __ __ __ __ __ __ __ __ __ __ _
 72
    65
 73
     2
 40
0.375
 49
0.25
 49
-0.125
  0
LTYPE
  2
CENTER2
 70
     0
  3
Center (.5x) ___ _ ___ _ ___ _ ___ _ ___ _ ___
 72
    65
 73
     4
 40
1.125
 49
0.75
 49
-0.125
 49
0.125
 49
-0.125
  0
LTYPE
  2
HIDDEN2
 70
     0
  3
Hidden (.5x) _ _ _ _ _ _ _ _ _ _ _ _ _ _ _ _ _
 72
    65
 73
     2
 40
0.1875
 49
0.125
 49
-0.0625
  0
LTYPE
  2
AMZIGZAG2
 70
     0
  3
/\/-/\/-/\/-/\/-/\/-/\/
 72
    65
 73
     2
 40
0.4401
 49
0.0001
 49
-0.4400000000000002
  0
LTYPE
  2
ACANSTGB
 70
     0
  3
__ . . __ . .
 72
    65
 73
     6
 40
0.35433070866
 49
0.15748031496
 49
-0.03937007874
 49
0.03937007874
 49
-0.03937007874
 49
0.03937007874
 49
-0.03937007874
  0
LTYPE
  2
ACANSTGL
 70
     0
  3
_ _ _ _ _
 72
    65
 73
     2
 40
0.11811023622
 49
0.07874015748
 49
-0.03937007874
  0
ENDTAB
  0
TABLE
  2
LAYER
 70
    10
  0
LAYER
  2
0
 70
     0
 62
     7
  6
CONTINUOUS
  0
LAYER
  2
AM_0
 70
     0
 62
     7
  6
CONTINUOUS
  0
LAYER
  2
AM_5
 70
     0
 62
     2
  6
CONTINUOUS
  0
LAYER
  2
DEFPOINTS
 70
     0
 62
     7
  6
CONTINUOUS
  0
LAYER
  2
ｶｸﾚｾﾝ2
 70
     0
 62
     3
  6
GEN3B
  0
LAYER
  2
ﾁｭｳｼﾝｾﾝ
 70
     0
 62
     1
  6
GEN7
  0
LAYER
  2
ﾁｭｳｼﾝｾﾝ1
 70
     0
 62
     1
  6
GEN7A
  0
LAYER
  2
GEV_FROZEN
 70
     1
 62
     7
  6
CONTINUOUS
  0
LAYER
  2
BHII
 70
     0
 62
     7
  6
CONTINUOUS
  0
LAYER
  2
CENN
 70
     0
 62
     7
  6
CONTINUOUS
  0
ENDTAB
  0
TABLE
  2
STYLE
 70
     9
  0
STYLE
  2
STANDARD
 70
     0
 40
0.0
 41
0.8299999999999999
 50
0.0
 71
     0
 42
2.5
  3
txt.shx
  4
bigfont.shx
  0
STYLE
  2
ANNOTATIVE
 70
     0
 40
0.0
 41
1.0
 50
0.0
 71
     0
 42
0.2
  3
txt
  4

  0
STYLE
  2

 70
     1
 40
0.0
 41
1.0
 50
0.0
 71
     0
 42
2.5
  3
ltypeshp.shx
  4

  0
STYLE
  2
ACISOTS
 70
     0
 40
1.0
 41
1.0
 50
0.0
 71
     0
 42
2.5
  3
isocp.shx
  4
extfont.shx
  0
STYLE
  2
ACISOGDT
 70
     0
 40
0.0
 41
1.0
 50
0.0
 71
     0
 42
2.5
  3
amgdt.shx
  4

  0
STYLE
  2
ACANSTS
 70
     0
 40
1.0
 41
1.0
 50
0.0
 71
     0
 42
2.5
  3
romans.shx
  4
bigfont.shx
  0
STYLE
  2
ACANSGDT
 70
     0
 40
0.0
 41
1.0
 50
0.0
 71
     0
 42
2.5
  3
amgdt.shx
  4

  0
STYLE
  2
ACJISTS
 70
     0
 40
1.0
 41
1.0
 50
0.0
 71
     0
 42
2.5
  3
isocp.shx
  4
bigfont.shx
  0
STYLE
  2
ACJISGDT
 70
     0
 40
0.0
 41
1.0
 50
0.0
 71
     0
 42
2.5
  3
amgdt.shx
  4

  0
ENDTAB
  0
TABLE
  2
VIEW
 70
     6
  0
VIEW
  2
AM_VIEW1
 70
     0
 40
555.00000000000011
 10
499.2955801104971
 20
832.50000000000011
 41
998.59116022099431
 11
0.0
 21
0.0
 31
1.0
 12
0.0
 22
0.0
 32
0.0
 42
50.0
 43
0.0
 44
0.0
 50
0.0
 71
     0
  0
VIEW
  2
AM_VIEW2
 70
     0
 40
555.00000000000011
 10
1207.704419889501
 20
832.50000000000011
 41
998.59116022099431
 11
0.0
 21
0.0
 31
1.0
 12
0.0
 22
0.0
 32
0.0
 42
50.0
 43
0.0
 44
0.0
 50
0.0
 71
     0
  0
VIEW
  2
AM_VIEW3
 70
     0
 40
555.00000000000011
 10
499.2955801104971
 20
277.49999999999989
 41
998.59116022099431
 11
0.0
 21
0.0
 31
1.0
 12
0.0
 22
0.0
 32
0.0
 42
50.0
 43
0.0
 44
0.0
 50
0.0
 71
     0
  0
VIEW
  2
AM_VIEW4
 70
     0
 40
555.00000000000011
 10
1207.704419889501
 20
277.49999999999989
 41
998.59116022099431
 11
0.0
 21
0.0
 31
1.0
 12
0.0
 22
0.0
 32
0.0
 42
50.0
 43
0.0
 44
0.0
 50
0.0
 71
     0
  0
VIEW
  2
AM_VIEW5
 70
     0
 40
555.00000000000011
 10
853.5
 20
555.00000000000011
 41
998.59116022099431
 11
0.0
 21
0.0
 31
1.0
 12
0.0
 22
0.0
 32
0.0
 42
50.0
 43
0.0
 44
0.0
 50
0.0
 71
     0
  0
VIEW
  2
AM_VIEW6
 70
     0
 40
1109.9889000000001
 10
853.5
 20
555.0
 41
1997.162348618785
 11
0.0
 21
0.0
 31
1.0
 12
0.0
 22
0.0
 32
0.0
 42
50.0
 43
0.0
 44
0.0
 50
0.0
 71
     0
  0
ENDTAB
  0
TABLE
  2
UCS
 70
     0
  0
ENDTAB
  0
TABLE
  2
APPID
 70
    95
  0
APPID
  2
ACAD
 70
     0
  0
APPID
  2
ACADANNOTATIVE
 70
     0
  0
APPID
  2
MCAD_NO_VIS
 70
     0
  0
APPID
  2
ACAD_TEMP_GRAPHIC
 70
     0
  0
APPID
  2
ACATTRIBSERVICES
 70
     0
  0
APPID
  2
GENIUS_GENREC_14
 70
     0
  0
APPID
  2
GENIUS_GENOBJ-N-REC_13
 70
     0
  0
APPID
  2
GENIUS_GENODEF_13
 70
     0
  0
APPID
  2
GENIUS_GENOLIS_13
 70
     0
  0
APPID
  2
GENIUS_GENOBJ-N-TIT_13
 70
     0
  0
APPID
  2
GENIUS_GENOENT_13
 70
     0
  0
APPID
  2
GENIUS_GENTITLE_13
 70
     0
  0
APPID
  2
GENIUS_GENOREF_13
 70
     0
  0
APPID
  2
GENIUS_GENSCREG_15
 70
     0
  0
APPID
  2
GENIUS_GENOBJ-N-SDF_13
 70
     0
  0
APPID
  2
GENIUS_GENFIL_13
 70
     0
  0
APPID
  2
GENIUS_GENOBJ-N-CHA_13
 70
     0
  0
APPID
  2
GENIUS_GENDTOL_13
 70
     0
  0
APPID
  2
GENIUS_GENOBJ-N-FIL_13
 70
     0
  0
APPID
  2
AD_DRAW
 70
     0
  0
APPID
  2
DESIGNERASSEMBLIES
 70
     0
  0
APPID
  2
ASURF_PCURVE_APPNAME
 70
     0
  0
APPID
  2
GENIUS_GE3SECT_13
 70
     0
  0
APPID
  2
GENIUS_GENCFG_13
 70
     0
  0
APPID
  2
GENIUS_GE3CFG0_13
 70
     0
  0
APPID
  2
GENIUS_GENCFG0_13
 70
     0
  0
APPID
  2
GENIUS_GENCFG1_13
 70
     0
  0
APPID
  2
GENIUS_GENCFG2_13
 70
     0
  0
APPID
  2
GENIUS_GENCFG3_13
 70
     0
  0
APPID
  2
GENIUS_GENCFG4_13
 70
     0
  0
APPID
  2
GENIUS_GEVCFG0_13
 70
     0
  0
APPID
  2
GENIUS_GENHINW_13
 70
     0
  0
APPID
  2
GENIUS_FIRSTVISTXT_14
 70
     0
  0
APPID
  2
GENIUS_GENOBJ-N-LEADER_13
 70
     0
  0
APPID
  2
GEV_VCCNULL_SWITCH_OFF
 70
     0
  0
APPID
  2
GENIUS_GEFCFG0_13
 70
     0
  0
APPID
  2
GENIUS_GENZVEED_13
 70
     0
  0
APPID
  2
GENIUS_GENSCREG_13
 70
     0
  0
APPID
  2
GENIUS_DUMCFG0_13
 70
     0
  0
APPID
  2
GEVID936201362
 70
     0
  0
APPID
  2
GEVDC
 70
     0
  0
APPID
  2
GEVCON
 70
     0
  0
APPID
  2
VCC
 70
     0
  0
APPID
  2
GEVPT
 70
     0
  0
APPID
  2
GEVIT
 70
     0
  0
APPID
  2
GENBH
 70
     0
  0
APPID
  2
GEVMK
 70
     0
  0
APPID
  2
GENIUS_GENBH_13
 70
     0
  0
APPID
  2
GENIUS_GENOBJ-NBEHI-BHF_13
 70
     0
  0
APPID
  2
GENIUS_GENOBJ-NBEHI-BHB_13
 70
     0
  0
APPID
  2
GENIUS_GENOBJ-F-DESC_13
 70
     0
  0
APPID
  2
GENIUS_GEFDESC_14
 70
     0
  0
APPID
  2
GENIUS_GENOBJ-F-PART_13
 70
     0
  0
APPID
  2
GENIUS_GEFSTDP_13
 70
     0
  0
APPID
  2
GENIUS_GEFPARTINS_13
 70
     0
  0
APPID
  2
GENIUS_GENTRA_14
 70
     0
  0
APPID
  2
GENIUS_GENINF13_13
 70
     0
  0
APPID
  2
GENIUS_GENOBJ-N-INFOPT_13
 70
     0
  0
APPID
  2
GENIUS_GENOBJ-N-RSSYM_13
 70
     0
  0
APPID
  2
GENIUS_GENSYMENT_13
 70
     0
  0
APPID
  2
GENIUS_GENSCSYM_13
 70
     0
  0
APPID
  2
GENIUS_GEFINFNAM_13
 70
     0
  0
APPID
  2
GENIUS_GENOBJ-N-CEN_13
 70
     0
  0
APPID
  2
GENIUS_GENOBJ-N-CRS_13
 70
     0
  0
APPID
  2
GENIUS_GENOBJ-N-CRC_13
 70
     0
  0
APPID
  2
GENIUS_GENCRC_14
 70
     0
  0
APPID
  2
GEVID942827039
 70
     0
  0
APPID
  2
GEVID942827040
 70
     0
  0
APPID
  2
GEVID942827041
 70
     0
  0
APPID
  2
GENIUS_GENOBJ-F-SCPASSM_13
 70
     0
  0
APPID
  2
GENIUS_GENDIMSH_14
 70
     0
  0
APPID
  2
GEVID942827042
 70
     0
  0
APPID
  2
GEVID946020473
 70
     0
  0
APPID
  2
GEVID946020474
 70
     0
  0
APPID
  2
GEVID946020475
 70
     0
  0
APPID
  2
GENIUS_GENOBJ-N-HTC_13
 70
     0
  0
APPID
  2
GENIUS_GENHATCH_13
 70
     0
  0
APPID
  2
GEVID948854295
 70
     0
  0
APPID
  2
GEVID939402019
 70
     0
  0
APPID
  2
GEVID952919491
 70
     0
  0
APPID
  2
GEVID952919492
 70
     0
  0
APPID
  2
GENIUS_GEFWELD_13
 70
     0
  0
APPID
  2
GENIUS_GENOBJ-F-WELS_13
 70
     0
  0
APPID
  2
GEVID952919493
 70
     0
  0
APPID
  2
GENIUS_GENOBJ-N-RSBK_13
 70
     0
  0
APPID
  2
GENIUS_GENOBJ-N-LIB_13
 70
     0
  0
APPID
  2
GENIUS_GENSCALE_13
 70
     0
  0
APPID
  2
GEVID986376691
 70
     0
  0
APPID
  2
DCO15
 70
     0
  0
APPID
  2
ACAD_DSTYLE_DIMBREAK
 70
     0
  0
APPID
  2
ACAD_DSTYLE_DIMJAG
 70
     0
  0
APPID
  2
ACAD_NAV_VCDISPLAY
 70
     0
  0
APPID
  2
ACADANNOPO
 70
     0
  0
APPID
  2
ACAD_EXEMPT_FROM_CAD_STANDARDS
 70
     0
  0
APPID
  2
ACAD_MLEADERVER
 70
     0
  0
ENDTAB
  0
TABLE
  2
DIMSTYLE
 70
    22
  0
DIMSTYLE
  2
STANDARD
 70
     0
  3

  4

  5

  6

  7

 40
1.0
 41
0.18
 42
0.0625
 43
0.38
 44
0.18
 45
0.0
 46
0.0
 47
0.0
 48
0.0
140
0.18
141
0.09
142
0.0
143
25.399999999999999
144
1.0
145
0.0
146
1.0
147
0.09
 71
     0
 72
     0
 73
     1
 74
     1
 75
     0
 76
     0
 77
     0
 78
     0
170
     0
171
     2
172
     0
173
     0
174
     0
175
     0
176
     0
177
     0
178
     0
  0
DIMSTYLE
  2
ANNOTATIVE
 70
     0
  3

  4

  5

  6

  7

 40
1.0
 41
0.18
 42
0.0625
 43
0.38
 44
0.18
 45
0.0
 46
0.0
 47
0.0
 48
0.0
140
0.18
141
0.09
142
0.0
143
25.399999999999999
144
1.0
145
0.0
146
1.0
147
0.09
 71
     0
 72
     0
 73
     1
 74
     1
 75
     0
 76
     0
 77
     0
 78
     0
170
     0
171
     2
172
     0
173
     0
174
     0
175
     0
176
     0
177
     0
178
     0
  0
DIMSTYLE
  2
AM_ISO
 70
     0
  3

  4
"
  5

  6

  7

 40
1.0
 41
2.5
 42
1.0
 43
8.0
 44
0.6
 45
0.0
 46
0.0
 47
0.1
 48
0.1
140
2.5
141
0.0
142
0.0
143
0.0393701
144
1.0
145
0.0
146
0.71
147
0.8
 71
     0
 72
     0
 73
     0
 74
     0
 75
     0
 76
     0
 77
     1
 78
     8
170
     0
171
     2
172
     1
173
     0
174
     0
175
     0
176
   256
177
   256
178
     4
  0
DIMSTYLE
  2
AM_ISO$3
 70
     0
  3

  4
"
  5

  6

  7

 40
1.0
 41
2.5
 42
1.0
 43
8.0
 44
0.6
 45
0.0
 46
0.0
 47
0.1
 48
0.1
140
2.5
141
0.0
142
0.0
143
0.0393701
144
1.0
145
0.0
146
0.71
147
0.8
 71
     0
 72
     0
 73
     0
 74
     1
 75
     0
 76
     0
 77
     1
 78
     8
170
     0
171
     2
172
     0
173
     0
174
     0
175
     0
176
   256
177
   256
178
     4
  0
DIMSTYLE
  2
AM_ISO$4
 70
     0
  3

  4
"
  5

  6

  7

 40
1.0
 41
2.5
 42
1.0
 43
8.0
 44
0.6
 45
0.0
 46
0.0
 47
0.1
 48
0.1
140
2.5
141
0.0
142
0.0
143
0.0393701
144
1.0
145
0.0
146
0.71
147
0.8
 71
     0
 72
     0
 73
     0
 74
     1
 75
     0
 76
     0
 77
     1
 78
     8
170
     0
171
     2
172
     0
173
     0
174
     0
175
     0
176
   256
177
   256
178
     4
  0
DIMSTYLE
  2
AM_ISO$6
 70
     0
  3

  4
"
  5

  6

  7

 40
1.0
 41
2.5
 42
1.0
 43
8.0
 44
0.6
 45
0.0
 46
0.0
 47
0.1
 48
0.1
140
2.5
141
0.0
142
0.0
143
0.0393701
144
1.0
145
0.0
146
0.71
147
0.8
 71
     0
 72
     0
 73
     0
 74
     0
 75
     0
 76
     0
 77
     0
 78
     8
170
     0
171
     2
172
     1
173
     0
174
     0
175
     0
176
   256
177
   256
178
     4
  0
DIMSTYLE
  2
AM_ISO$7
 70
     0
  3

  4
"
  5

  6

  7

 40
1.0
 41
2.5
 42
1.0
 43
8.0
 44
0.6
 45
0.0
 46
0.0
 47
0.1
 48
0.1
140
2.5
141
0.0
142
0.0
143
0.0393701
144
1.0
145
0.0
146
0.71
147
0.8
 71
     0
 72
     0
 73
     0
 74
     0
 75
     0
 76
     0
 77
     1
 78
     8
170
     0
171
     2
172
     1
173
     0
174
     0
175
     0
176
   256
177
   256
178
     4
  0
DIMSTYLE
  2
AM_ISO$SF
 70
     0
  3

  4
"
  5

  6

  7

 40
1.0
 41
2.5
 42
1.0
 43
10.0
 44
1.0
 45
0.0
 46
0.0
 47
0.1
 48
0.1
140
3.5
141
0.0
142
0.0
143
0.0393701
144
1.0
145
0.0
146
0.71
147
1.5
 71
     0
 72
     0
 73
     0
 74
     0
 75
     1
 76
     1
 77
     1
 78
     8
170
     0
171
     2
172
     1
173
     0
174
     0
175
     0
176
   256
177
   256
178
     2
  0
DIMSTYLE
  2
AM_ISO$SH
 70
     0
  3

  4
"
  5

  6

  7

 40
1.0
 41
2.5
 42
1.0
 43
10.0
 44
1.0
 45
0.0
 46
0.0
 47
0.1
 48
0.1
140
3.5
141
0.0
142
0.0
143
0.0393701
144
2.0
145
0.0
146
0.71
147
1.5
 71
     0
 72
     0
 73
     0
 74
     0
 75
     1
 76
     1
 77
     1
 78
     8
170
     0
171
     2
172
     1
173
     1
174
     0
175
     0
176
   256
177
   256
178
     2
  0
DIMSTYLE
  2
AM_JIS
 70
     0
  3

  4
"
  5

  6

  7

 40
1.0
 41
2.5
 42
1.0
 43
7.0
 44
1.0
 45
0.0
 46
0.0
 47
0.1
 48
0.1000000001
140
2.5
141
0.0
142
0.0
143
0.0393701
144
1.0
145
0.0
146
0.71
147
1.0
 71
     0
 72
     0
 73
     0
 74
     0
 75
     0
 76
     0
 77
     3
 78
     8
170
     0
171
     2
172
     1
173
     0
174
     0
175
     0
176
   256
177
   256
178
     4
  0
DIMSTYLE
  2
AM_JIS$3
 70
     0
  3

  4
"
  5

  6

  7

 40
1.0
 41
2.5
 42
1.0
 43
7.0
 44
1.0
 45
0.0
 46
0.0
 47
0.1
 48
0.1000000001
140
2.5
141
0.0
142
0.0
143
0.0393701
144
1.0
145
0.0
146
0.71
147
1.0
 71
     0
 72
     0
 73
     0
 74
     1
 75
     0
 76
     0
 77
     3
 78
     8
170
     0
171
     2
172
     0
173
     0
174
     0
175
     0
176
   256
177
   256
178
     4
  0
DIMSTYLE
  2
AM_JIS$4
 70
     0
  3

  4
"
  5

  6

  7

 40
1.0
 41
2.5
 42
1.0
 43
7.0
 44
1.0
 45
0.0
 46
0.0
 47
0.1
 48
0.1000000001
140
2.5
141
0.0
142
0.0
143
0.0393701
144
1.0
145
0.0
146
0.71
147
1.0
 71
     0
 72
     0
 73
     0
 74
     0
 75
     0
 76
     0
 77
     3
 78
     8
170
     0
171
     2
172
     0
173
     0
174
     0
175
     0
176
   256
177
   256
178
     4
  0
DIMSTYLE
  2
AM_JIS$6
 70
     0
  3

  4
"
  5

  6

  7

 40
1.0
 41
2.5
 42
1.0
 43
7.0
 44
1.0
 45
0.0
 46
0.0
 47
0.1
 48
0.1000000001
140
2.5
141
0.0
142
0.0
143
0.0393701
144
1.0
145
0.0
146
0.71
147
1.0
 71
     0
 72
     0
 73
     0
 74
     0
 75
     0
 76
     0
 77
     0
 78
     8
170
     0
171
     2
172
     1
173
     0
174
     0
175
     0
176
   256
177
   256
178
     4
  0
DIMSTYLE
  2
AM_JIS$7
 70
     0
  3

  4
"
  5

  6

  7

 40
1.0
 41
2.5
 42
1.0
 43
7.0
 44
1.0
 45
0.0
 46
0.0
 47
0.1
 48
0.1000000001
140
2.5
141
0.0
142
0.0
143
0.0393701
144
1.0
145
0.0
146
0.71
147
1.0
 71
     0
 72
     0
 73
     0
 74
     0
 75
     0
 76
     0
 77
     3
 78
     8
170
     0
171
     2
172
     1
173
     0
174
     0
175
     0
176
   256
177
   256
178
     4
  0
DIMSTYLE
  2
AM_JIS$SF
 70
     0
  3

  4
"
  5

  6

  7

 40
1.0
 41
2.5
 42
1.0
 43
10.0
 44
1.0
 45
0.0
 46
0.0
 47
0.1
 48
0.1
140
3.5
141
0.0
142
0.0
143
0.0393701
144
1.0
145
0.0
146
0.71
147
1.5
 71
     0
 72
     0
 73
     0
 74
     0
 75
     1
 76
     1
 77
     3
 78
     8
170
     0
171
     2
172
     1
173
     0
174
     0
175
     0
176
   256
177
   256
178
     4
  0
DIMSTYLE
  2
AM_JIS$SH
 70
     0
  3

  4
"
  5

  6

  7

 40
1.0
 41
2.5
 42
1.0
 43
10.0
 44
1.0
 45
0.0
 46
0.0
 47
0.1
 48
0.1
140
3.5
141
0.0
142
0.0
143
0.0393701
144
1.0
145
0.0
146
0.71
147
1.5
 71
     0
 72
     0
 73
     0
 74
     0
 75
     1
 76
     0
 77
     3
 78
     8
170
     0
171
     2
172
     1
173
     1
174
     0
175
     0
176
   256
177
   256
178
     4
  0
DIMSTYLE
  2
AM_ANSI
 70
     0
  3

  4
mm
  5

  6

  7

 40
1.0
 41
0.1
 42
0.05
 43
0.5
 44
0.1
 45
0.0
 46
0.0
 47
0.1
 48
0.1
140
0.12
141
0.0
142
0.0
143
25.399999999999999
144
1.0
145
0.0
146
0.71
147
0.06
 71
     0
 72
     0
 73
     1
 74
     1
 75
     0
 76
     0
 77
     0
 78
     7
170
     0
171
     2
172
     0
173
     0
174
     0
175
     0
176
   256
177
   256
178
     2
  0
DIMSTYLE
  2
AM_ANSI$3
 70
     0
  3

  4
mm
  5

  6

  7

 40
1.0
 41
0.1
 42
0.05
 43
0.5
 44
0.1
 45
0.0
 46
0.0
 47
0.1
 48
0.1
140
0.12
141
0.0
142
0.0
143
25.399999999999999
144
1.0
145
0.0
146
0.71
147
0.06
 71
     0
 72
     0
 73
     1
 74
     1
 75
     0
 76
     0
 77
     0
 78
     7
170
     0
171
     2
172
     0
173
     0
174
     0
175
     0
176
   256
177
   256
178
     2
  0
DIMSTYLE
  2
AM_ANSI$4
 70
     0
  3

  4
mm
  5

  6

  7

 40
1.0
 41
0.1
 42
0.05
 43
0.5
 44
0.1
 45
0.0
 46
0.0
 47
0.1
 48
0.1
140
0.12
141
0.0
142
0.0
143
25.399999999999999
144
1.0
145
0.0
146
0.71
147
0.06
 71
     0
 72
     0
 73
     1
 74
     1
 75
     0
 76
     0
 77
     0
 78
     7
170
     0
171
     2
172
     0
173
     0
174
     0
175
     0
176
   256
177
   256
178
     2
  0
DIMSTYLE
  2
AM_ANSI$7
 70
     0
  3

  4
mm
  5

  6

  7

 40
1.0
 41
0.1
 42
0.05
 43
0.5
 44
0.1
 45
0.0
 46
0.0
 47
0.1
 48
0.1
140
0.24
141
0.0
142
0.0
143
25.399999999999999
144
1.0
145
0.0
146
0.71
147
0.06
 71
     0
 72
     0
 73
     1
 74
     1
 75
     0
 76
     0
 77
     0
 78
     7
170
     0
171
     2
172
     0
173
     0
174
     0
175
     0
176
   256
177
   256
178
     2
  0
DIMSTYLE
  2
AM_ANSI$SF
 70
     0
  3

  4
mm
  5

  6

  7

 40
1.0
 41
0.1
 42
0.05
 43
0.5
 44
0.1
 45
0.0
 46
0.0
 47
0.1
 48
0.1
140
0.12
141
0.0
142
0.0
143
25.399999999999999
144
1.0
145
0.0
146
0.71
147
0.06
 71
     0
 72
     0
 73
     1
 74
     1
 75
     1
 76
     1
 77
     0
 78
     7
170
     0
171
     2
172
     0
173
     0
174
     0
175
     0
176
   256
177
   256
178
     2
  0
DIMSTYLE
  2
AM_ANSI$SH
 70
     0
  3

  4
mm
  5

  6

  7

 40
1.0
 41
0.1
 42
0.05
 43
0.5
 44
0.1
 45
0.0
 46
0.0
 47
0.1
 48
0.1
140
0.12
141
0.0
142
0.0
143
25.399999999999999
144
1.0
145
0.0
146
0.71
147
0.06
 71
     0
 72
     0
 73
     1
 74
     1
 75
     1
 76
     1
 77
     0
 78
     7
170
     0
171
     2
172
     0
173
     1
174
     0
175
     0
176
   256
177
   256
178
     2
  0
ENDTAB
  0
ENDSEC
  0
SECTION
  2
BLOCKS
  0
BLOCK
  8
0
  2
$MODEL_SPACE
 70
     0
 10
0.0
 20
0.0
 30
0.0
  3
$MODEL_SPACE
  1

  0
ENDBLK
  5
31C9
  8
0
  0
BLOCK
 67
     1
  8
0
  2
$PAPER_SPACE
 70
     0
 10
0.0
 20
0.0
 30
0.0
  3
$PAPER_SPACE
  1

  0
ENDBLK
  5
31C5
 67
     1
  8
0
  0
BLOCK
  8
0
  2
GENAXEH
 70
     0
 10
0.0
 20
0.0
 30
0.0
  3
GENAXEH
  1

  0
LINE
  5
2EF3
  8
0
 10
-1.0
 20
0.0
 30
0.0
 11
1.0
 21
0.0
 31
0.0
  0
ENDBLK
  5
2EF4
  8
0
  0
BLOCK
  8
0
  2
_OPEN30
 70
     0
 10
0.0
 20
0.0
 30
0.0
  3
_OPEN30
  1

  0
LINE
  5
2EF7
  8
0
 62
     0
 10
-1.0
 20
0.26794919
 30
0.0
 11
0.0
 21
0.0
 31
0.0
  0
LINE
  5
2EF8
  8
0
 62
     0
 10
0.0
 20
0.0
 30
0.0
 11
-1.0
 21
-0.26794919
 31
0.0
  0
LINE
  5
2EF9
  8
0
 62
     0
 10
0.0
 20
0.0
 30
0.0
 11
-1.0
 21
0.0
 31
0.0
  0
ENDBLK
  5
2EFA
  8
0
  0
BLOCK
  8
0
  2
*U4
 70
     1
 10
0.0
 20
0.0
 30
0.0
  3
*U4
  1
*U
  0
LINE
  5
2EFD
  8
BHII
 10
0.0
 20
7.6999999999999984
 30
0.0
 11
0.0000000000000021
 21
-0.3279404685324049
 31
0.0
  0
LINE
  5
2EFE
  8
BHII
 10
2.0
 20
7.6999999999999984
 30
0.0
 11
2.0000000000000022
 21
0.3999999999999986
 31
0.0
  0
LINE
  5
2EFF
  8
BHII
 10
0.0
 20
-7.6999999999999984
 30
0.0
 11
2.0
 21
-7.6999999999999984
 31
0.0
  0
LINE
  5
2F00
  8
BHII
 10
2.0
 20
-0.3999999999999999
 30
0.0
 11
0.0000000000000001
 21
-1.127940468532403
 31
0.0
  0
LINE
  5
2F01
  8
BHII
 10
2.0000000000000022
 20
0.3999999999999986
 30
0.0
 11
0.0000000000000021
 21
-0.3279404685324049
 31
0.0
  0
LINE
  5
2F02
  8
BHII
 10
2.0
 20
-0.3999999999999999
 30
0.0
 11
2.0
 21
-7.6999999999999984
 31
0.0
  0
LINE
  5
2F03
  8
BHII
 10
0.0000000000000001
 20
-1.127940468532403
 30
0.0
 11
0.0
 21
-7.6999999999999984
 31
0.0
  0
LINE
  5
2F04
  8
CENN
 10
-2.999999999999996
 20
0.0
 30
0.0
 11
5.0
 21
0.0
 31
0.0
  0
LINE
  5
2F05
  8
BHII
 10
2.0
 20
7.6999999999999984
 30
0.0
 11
0.0
 21
7.6999999999999984
 31
0.0
  0
ENDBLK
  5
2F06
  8
0
  0
BLOCK
  8
0
  2
*U5
 70
     1
 10
0.0
 20
0.0
 30
0.0
  3
*U5
  1
*U
  0
LINE
  5
2F09
  8
BHII
 10
0.0
 20
7.6999999999999984
 30
0.0
 11
0.0000000000000021
 21
-0.3279404685324049
 31
0.0
  0
LINE
  5
2F0A
  8
BHII
 10
2.0
 20
7.6999999999999984
 30
0.0
 11
2.0000000000000022
 21
0.3999999999999986
 31
0.0
  0
LINE
  5
2F0B
  8
BHII
 10
0.0
 20
-7.6999999999999984
 30
0.0
 11
2.0
 21
-7.6999999999999984
 31
0.0
  0
LINE
  5
2F0C
  8
BHII
 10
2.0
 20
-0.3999999999999999
 30
0.0
 11
0.0000000000000001
 21
-1.127940468532403
 31
0.0
  0
LINE
  5
2F0D
  8
BHII
 10
2.0000000000000022
 20
0.3999999999999986
 30
0.0
 11
0.0000000000000021
 21
-0.3279404685324049
 31
0.0
  0
LINE
  5
2F0E
  8
BHII
 10
2.0
 20
-0.3999999999999999
 30
0.0
 11
2.0
 21
-7.6999999999999984
 31
0.0
  0
LINE
  5
2F0F
  8
BHII
 10
0.0000000000000001
 20
-1.127940468532403
 30
0.0
 11
0.0
 21
-7.6999999999999984
 31
0.0
  0
LINE
  5
2F10
  8
CENN
 10
-2.999999999999996
 20
0.0
 30
0.0
 11
5.0
 21
0.0
 31
0.0
  0
LINE
  5
2F11
  8
BHII
 10
2.0
 20
7.6999999999999984
 30
0.0
 11
0.0
 21
7.6999999999999984
 31
0.0
  0
ENDBLK
  5
2F12
  8
0
  0
BLOCK
  8
0
  2
_NONE
 70
     0
 10
0.0
 20
0.0
 30
0.0
  3
_NONE
  1

  0
ENDBLK
  5
2F15
  8
0
  0
BLOCK
  8
0
  2
*U7
 70
     1
 10
0.0
 20
0.0
 30
0.0
  3
*U7
  1
*U
  0
LINE
  5
2F18
  8
BHII
 10
0.0
 20
7.6999999999999984
 30
0.0
 11
0.0000000000000021
 21
-0.3279404685324049
 31
0.0
  0
LINE
  5
2F19
  8
BHII
 10
2.0
 20
7.6999999999999984
 30
0.0
 11
2.0000000000000022
 21
0.3999999999999986
 31
0.0
  0
LINE
  5
2F1A
  8
BHII
 10
0.0
 20
-7.6999999999999984
 30
0.0
 11
2.0
 21
-7.6999999999999984
 31
0.0
  0
LINE
  5
2F1B
  8
BHII
 10
2.0
 20
-0.3999999999999999
 30
0.0
 11
0.0000000000000001
 21
-1.127940468532403
 31
0.0
  0
LINE
  5
2F1C
  8
BHII
 10
2.0000000000000022
 20
0.3999999999999986
 30
0.0
 11
0.0000000000000021
 21
-0.3279404685324049
 31
0.0
  0
LINE
  5
2F1D
  8
BHII
 10
2.0
 20
-0.3999999999999999
 30
0.0
 11
2.0
 21
-7.6999999999999984
 31
0.0
  0
LINE
  5
2F1E
  8
BHII
 10
0.0000000000000001
 20
-1.127940468532403
 30
0.0
 11
0.0
 21
-7.6999999999999984
 31
0.0
  0
LINE
  5
2F1F
  8
CENN
 10
-2.999999999999996
 20
0.0
 30
0.0
 11
5.0
 21
0.0
 31
0.0
  0
LINE
  5
2F20
  8
BHII
 10
2.0
 20
7.6999999999999984
 30
0.0
 11
0.0
 21
7.6999999999999984
 31
0.0
  0
ENDBLK
  5
2F21
  8
0
  0
BLOCK
  8
0
  2
*U8
 70
     1
 10
0.0
 20
0.0
 30
0.0
  3
*U8
  1
*U
  0
LINE
  5
2F24
  8
BHII
 10
0.0
 20
7.6999999999999984
 30
0.0
 11
0.0000000000000021
 21
-0.3279404685324049
 31
0.0
  0
LINE
  5
2F25
  8
BHII
 10
2.0
 20
7.6999999999999984
 30
0.0
 11
2.0000000000000022
 21
0.3999999999999986
 31
0.0
  0
LINE
  5
2F26
  8
BHII
 10
0.0
 20
-7.6999999999999984
 30
0.0
 11
2.0
 21
-7.6999999999999984
 31
0.0
  0
LINE
  5
2F27
  8
BHII
 10
2.0
 20
-0.3999999999999999
 30
0.0
 11
0.0000000000000001
 21
-1.127940468532403
 31
0.0
  0
LINE
  5
2F28
  8
BHII
 10
2.0000000000000022
 20
0.3999999999999986
 30
0.0
 11
0.0000000000000021
 21
-0.3279404685324049
 31
0.0
  0
LINE
  5
2F29
  8
BHII
 10
2.0
 20
-0.3999999999999999
 30
0.0
 11
2.0
 21
-7.6999999999999984
 31
0.0
  0
LINE
  5
2F2A
  8
BHII
 10
0.0000000000000001
 20
-1.127940468532403
 30
0.0
 11
0.0
 21
-7.6999999999999984
 31
0.0
  0
LINE
  5
2F2B
  8
CENN
 10
-2.999999999999996
 20
0.0
 30
0.0
 11
5.0
 21
0.0
 31
0.0
  0
LINE
  5
2F2C
  8
BHII
 10
2.0
 20
7.6999999999999984
 30
0.0
 11
0.0
 21
7.6999999999999984
 31
0.0
  0
ENDBLK
  5
2F2D
  8
0
  0
BLOCK
  8
0
  2
_ACMFILLEDHALF
 70
     0
 10
0.0
 20
0.0
 30
0.0
  3
_ACMFILLEDHALF
  1

  0
TRACE
  5
32CC
  8
AM_0
 62
     0
 10
-0.8
 20
0.0
 30
0.0
 11
-1.0
 21
0.166666666
 31
0.0
 12
0.0
 22
0.0
 32
0.0
 13
0.0
 23
0.0
 33
0.0
  0
LINE
  5
32CD
  8
AM_0
 62
     0
 10
-1.0
 20
0.0
 30
0.0
 11
-0.8
 21
0.0
 31
0.0
  0
ENDBLK
  5
32CB
  8
0
  0
ENDSEC
  0
SECTION
  2
ENTITIES
  0
INSERT
  5
2F2E
  8
GEV_FROZEN
  2
*U4
 10
900.68725648575435
 20
561.57261424397791
 30
0.0
 41
0.1
 42
0.1
 43
0.1
 50
179.9999999999998
1001
GENBH
1002
{
1000
-NOBRK
1002
}
  0
INSERT
  5
2F2F
  8
GEV_FROZEN
  2
*U5
 10
900.68725648575435
 20
561.57261424397791
 30
0.0
 41
0.1
 42
0.1
 43
0.1
 50
179.9999999999998
1001
GENBH
1002
{
1000
-NOBRK
1002
}
  0
INSERT
  5
2F30
  8
GEV_FROZEN
  2
*U7
 10
900.68725648575435
 20
561.57261424397791
 30
0.0
 41
0.1
 42
0.1
 43
0.1
 50
179.9999999999998
1001
GENBH
1002
{
1000
-NOBRK
1002
}
  0
INSERT
  5
2F31
  8
GEV_FROZEN
  2
*U8
 10
900.68725648575435
 20
561.57261424397791
 30
0.0
 41
0.1
 42
0.1
 43
0.1
 50
179.9999999999998
1001
GENBH
1002
{
1000
-NOBRK
1002
}
  0
LINE
  5
2F33
  8
AM_0
 10
819.25875903295389
 20
1076.4703061142161
 30
0.0
 11
900.258759032954
 21
1076.4703061142161
 31
0.0
  0
LINE
  5
2F34
  8
AM_0
 10
819.25875903295389
 20
1058.4703061142161
 30
0.0
 11
900.258759032954
 21
1058.4703061142161
 31
0.0
  0
LINE
  5
2F35
  8
AM_0
 10
795.258759032954
 20
1037.4703061142161
 30
0.0
 11
900.258759032954
 21
1037.4703061142161
 31
0.0
  0
LINE
  5
2F36
  8
AM_0
 10
795.258759032954
 20
1097.4703061142161
 30
0.0
 11
900.258759032954
 21
1097.4703061142161
 31
0.0
  0
LINE
  5
2F37
  8
ﾁｭｳｼﾝｾﾝ
 10
337.58847441247951
 20
1067.470306114217
 30
0.0
 11
916.08169903295391
 21
1067.4703061142161
 31
0.0
  0
LINE
  5
2F38
  8
AM_0
 10
431.75879903295402
 20
981.47030611421712
 30
0.0
 11
431.75879903295402
 21
1153.4703061142161
 31
0.0
  0
LINE
  5
2F39
  8
AM_0
 10
465.25879903295402
 20
1161.414166114216
 30
0.0
 11
465.25879903295402
 21
973.52645611421713
 31
0.0
  0
LINE
  5
2F3A
  8
AM_0
 10
494.25879903295402
 20
1185.470266114216
 30
0.0
 11
494.25879903295402
 21
949.47030611421735
 31
0.0
  0
LINE
  5
2F3B
  8
AM_0
 10
676.75869903295415
 20
1225.3697661142171
 30
0.0
 11
676.75869903295415
 21
909.57095611421676
 31
0.0
  0
LINE
  5
2F3C
  8
AM_0
 10
571.75869903295415
 20
942.53890611421673
 30
0.0
 11
571.75869903295415
 21
1192.4016661142159
 31
0.0
  0
LINE
  5
2F3D
  8
AM_0
 10
591.75869903295415
 20
915.27236611421677
 30
0.0
 11
591.75869903295415
 21
1062.4703061142161
 31
0.0
  0
LINE
  5
2F3E
  8
AM_0
 10
512.25879903295402
 20
1187.470266114216
 30
0.0
 11
512.25879903295402
 21
947.47030611421724
 31
0.0
  0
LINE
  5
2F3F
  8
AM_0
 10
525.25869903295404
 20
1185.470266114216
 30
0.0
 11
525.25869903295404
 21
949.47030611421735
 31
0.0
  0
LINE
  5
2F40
  8
AM_0
 10
753.258759032954
 20
947.12716611421661
 30
0.0
 11
753.258759032954
 21
1187.813466114216
 31
0.0
  0
LINE
  5
2F41
  8
AM_0
 10
646.75875903295389
 20
1226.4173661142161
 30
0.0
 11
646.75875903295389
 21
908.5232861142166
 31
0.0
  0
LINE
  5
2F42
  8
AM_0
 10
789.258759032954
 20
1129.5731661142161
 30
0.0
 11
789.258759032954
 21
1005.367396114216
 31
0.0
  0
LINE
  5
2F43
  8
AM_0
 10
783.258759032954
 20
1167.9351661142159
 30
0.0
 11
783.258759032954
 21
967.00539611421675
 31
0.0
  0
LINE
  5
2F44
  8
AM_0
 10
646.75875903295389
 20
908.5232861142166
 30
0.0
 11
596.58419903295407
 21
910.2754161142168
 31
0.0
  0
LINE
  5
2F45
  8
AM_0
 10
600.04409903295402
 20
889.40078611421666
 30
0.0
 11
642.98592903295412
 21
894.71078611421683
 31
0.0
  0
LINE
  5
2F46
  8
AM_0
 10
647.57198903295409
 20
905.10549611421675
 30
0.0
 11
605.07192903295413
 21
898.10024611421659
 31
0.0
  0
LINE
  5
2F47
  8
AM_0
 10
534.0840990329541
 20
891.57961611421661
 30
0.0
 11
651.758759032954
 21
887.47030611421667
 31
0.0
  0
ARC
  5
2F48
  8
AM_0
 10
534.25879903295402
 20
896.57656611421669
 30
0.0
 40
5.0
 50
180.00001000000091
 51
268.0000000000029
  0
LINE
  5
2F49
  8
AM_0
 10
525.25869903295404
 20
980.79543611421673
 30
0.0
 11
571.75869903295415
 21
980.79543611421673
 31
0.0
  0
LINE
  5
2F4A
  8
AM_0
 10
525.25869903295404
 20
996.53750611421663
 30
0.0
 11
571.75869903295415
 21
996.53750611421663
 31
0.0
  0
LINE
  5
2F4B
  8
AM_0
 10
527.25879903295379
 20
955.47030611421724
 30
0.0
 11
566.75869903295415
 21
955.47030611421724
 31
0.0
  0
LINE
  5
2F4C
  8
AM_0
 10
529.25879903295402
 20
896.57656611421669
 30
0.0
 11
529.25879903295402
 21
952.17129611421672
 31
0.0
  0
LINE
  5
2F4D
  8
AM_0
 10
468.548699032954
 20
968.82803611421673
 30
0.0
 11
490.968799032954
 21
960.66775611421724
 31
0.0
  0
LINE
  5
2F4E
  8
AM_0
 10
460.43319903295401
 20
980.10885611421634
 30
0.0
 11
433.7588990329541
 21
981.04031611421681
 31
0.0
  0
LINE
  5
2F4F
  8
AM_0
 10
460.43319903295401
 20
982.46896611421676
 30
0.0
 11
431.75879903295402
 21
983.47030611421621
 31
0.0
  0
LINE
  5
2F50
  8
AM_0
 10
433.7588990329541
 20
983.40047611421676
 30
0.0
 11
433.7588990329541
 21
981.04037611421666
 31
0.0
  0
ARC
  5
2F51
  8
AM_0
 10
460.25879903295379
 20
977.47201611421713
 30
0.0
 40
5.0
 50
0.0
 51
88.000000000002998
  0
ARC
  5
2F52
  8
AM_0
 10
460.25879903295379
 20
975.11190611421671
 30
0.0
 40
5.0
 50
0.0
 51
88.000000000002998
  0
ARC
  5
2F53
  8
AM_0
 10
470.25879903295402
 20
973.52645611421713
 30
0.0
 40
5.0
 50
179.9999899999988
 51
250.0000000000046
  0
LINE
  5
2F54
  8
AM_0
 10
496.25879903295402
 20
947.47030611421724
 30
0.0
 11
523.25879903295402
 21
947.47030611421724
 31
0.0
  0
ARC
  5
2F55
  8
AM_0
 10
489.25879903295379
 20
955.96926611421702
 30
0.0
 40
5.0
 50
0.0
 51
70.000000000004647
  0
ARC
  5
2F56
  8
AM_0
 10
496.25879903295402
 20
949.47030611421735
 30
0.0
 40
2.0
 50
179.9999899999988
 51
270.0
  0
ARC
  5
2F57
  8
AM_0
 10
527.25879903295379
 20
953.47030611421667
 30
0.0
 40
2.0
 50
90.00000299999769
 51
180.00001000000091
  0
ARC
  5
2F58
  8
AM_0
 10
523.25879903295402
 20
949.47030611421735
 30
0.0
 40
2.0
 50
270.0
 51
0.0
  0
ARC
  5
2F59
  8
AM_0
 10
534.25879903295402
 20
952.17129611421672
 30
0.0
 40
5.0
 50
138.7152999999978
 51
180.00001000000091
  0
LINE
  5
2F5A
  8
AM_0
 10
512.25879903295402
 20
967.74306611421673
 30
0.0
 11
525.25869903295404
 21
967.74306611421673
 31
0.0
  0
LINE
  5
2F5B
  8
AM_0
 10
512.25879903295402
 20
983.29940611421682
 30
0.0
 11
525.25869903295404
 21
983.29940611421682
 31
0.0
  0
LINE
  5
2F5C
  8
AM_0
 10
512.25879903295402
 20
991.473596114217
 30
0.0
 11
525.25869903295404
 21
991.473596114217
 31
0.0
  0
ARC
  5
2F5D
  8
AM_0
 10
586.75869903295415
 20
931.84689611421675
 30
0.0
 40
5.0
 50
0.0
 51
86.16916099999878
  0
CIRCLE
  5
2F5E
  8
AM_0
 10
559.25875903295378
 20
922.47030611421724
 30
0.0
 40
12.0
  0
ARC
  5
2F5F
  8
AM_0
 10
576.75869903295415
 20
942.53890611421673
 30
0.0
 40
5.0
 50
180.00001000000091
 51
266.16915999999748
  0
LINE
  5
2F60
  8
AM_0
 10
587.09273903295411
 20
936.83572611421675
 30
0.0
 11
576.42471903295404
 21
937.55007611421661
 31
0.0
  0
ARC
  5
2F61
  8
AM_0
 10
604.258759032954
 20
903.03365611421634
 30
0.0
 40
5.0
 50
180.00001000000091
 51
279.35984999999653
  0
LINE
  5
2F62
  8
AM_0
 10
596.75869903295415
 20
920.38027611421671
 30
0.0
 11
622.758759032954
 21
920.38027611421671
 31
0.0
  0
LINE
  5
2F63
  8
AM_0
 10
596.75869903295415
 20
931.17068611421712
 30
0.0
 11
622.758759032954
 21
931.17068611421712
 31
0.0
  0
ARC
  5
2F64
  8
AM_0
 10
596.75869903295415
 20
915.3802761142166
 30
0.0
 40
5.0
 50
90.00000299999769
 51
180.00001000000091
  0
ARC
  5
2F65
  8
AM_0
 10
596.75869903295415
 20
915.27236611421677
 30
0.0
 40
5.0
 50
180.00001000000091
 51
268.00000999999878
  0
ARC
  5
2F66
  8
AM_0
 10
596.75869903295415
 20
936.17068611421666
 30
0.0
 40
5.0
 50
180.00001000000091
 51
270.0
  0
ARC
  5
2F67
  8
AM_0
 10
622.758759032954
 20
922.38027611421671
 30
0.0
 40
2.0
 50
270.0
 51
0.0
  0
ARC
  5
2F68
  8
AM_0
 10
622.758759032954
 20
929.17068611421723
 30
0.0
 40
2.0
 50
0.0
 51
90.00000299999769
  0
LINE
  5
2F69
  8
AM_0
 10
624.758759032954
 20
922.38027611421671
 30
0.0
 11
624.758759032954
 21
929.17068611421723
 31
0.0
  0
ARC
  5
2F6A
  8
AM_0
 10
566.75869903295415
 20
950.47030611421644
 30
0.0
 40
5.0
 50
0.0
 51
90.00000299999769
  0
LINE
  5
2F6B
  8
AM_0
 10
624.758759032954
 20
974.52615611421675
 30
0.0
 11
624.758759032954
 21
1016.441736114215
 31
0.0
  0
LINE
  5
2F6C
  8
AM_0
 10
596.75869903295415
 20
972.52615611421675
 30
0.0
 11
622.758759032954
 21
972.52615611421675
 31
0.0
  0
ARC
  5
2F6D
  8
AM_0
 10
596.75869903295415
 20
967.52615611421675
 30
0.0
 40
5.0
 50
90.00000299999769
 51
180.00001000000091
  0
ARC
  5
2F6E
  8
AM_0
 10
622.758759032954
 20
974.52615611421675
 30
0.0
 40
2.0
 50
270.0
 51
0.0
  0
LINE
  5
2F6F
  8
AM_0
 10
596.75869903295415
 20
1018.441736114216
 30
0.0
 11
622.758759032954
 21
1018.441736114216
 31
0.0
  0
ARC
  5
2F70
  8
AM_0
 10
596.75869903295415
 20
1023.441736114216
 30
0.0
 40
5.0
 50
180.00001000000091
 51
270.0
  0
ARC
  5
2F71
  8
AM_0
 10
622.758759032954
 20
1016.441736114215
 30
0.0
 40
2.0
 50
0.0
 51
90.00000299999769
  0
ARC
  5
2F72
  8
AM_0
 10
743.25875903295389
 20
947.12716611421661
 30
0.0
 40
10.0
 50
271.99999999999682
 51
0.0
  0
CIRCLE
  5
2F73
  8
AM_0
 10
759.25875903295389
 20
922.47030611421724
 30
0.0
 40
12.0
  0
LINE
  5
2F74
  8
AM_0
 10
651.75869903295415
 20
887.47030611421667
 30
0.0
 11
784.43319903295378
 21
892.10342611421663
 31
0.0
  0
LINE
  5
2F75
  8
AM_0
 10
715.53793903295411
 20
910.92513611421691
 30
0.0
 11
646.75875903295389
 21
908.5232861142166
 31
0.0
  0
ARC
  5
2F76
  8
AM_0
 10
641.758759032954
 20
904.63522611421683
 30
0.0
 40
10.0
 50
277.0491999999964
 51
0.0
  0
ARC
  5
2F77
  8
AM_0
 10
646.75875903295389
 20
910.03890611421662
 30
0.0
 40
5.0
 50
279.35985999999889
 51
344.36583000000519
  0
LINE
  5
2F78
  8
AM_0
 10
651.758759032954
 20
904.63522611421683
 30
0.0
 11
651.758759032954
 21
908.69790611421683
 31
0.0
  0
ARC
  5
2F79
  8
AM_0
 10
733.258759032954
 20
900.32241611421705
 30
0.0
 40
10.0
 50
180.00001000000091
 51
271.99999000000111
  0
ARC
  5
2F7A
  8
AM_0
 10
738.25875903295389
 20
921.93734611421667
 30
0.0
 40
15.0
 50
91.999998000000787
 51
180.00001000000091
  0
ARC
  5
2F7B
  8
AM_0
 10
715.258759032954
 20
918.92025611421673
 30
0.0
 40
8.0
 50
271.99999999999682
 51
0.0
  0
LINE
  5
2F7C
  8
AM_0
 10
723.258759032954
 20
900.32241611421705
 30
0.0
 11
723.258759032954
 21
921.93734611421667
 31
0.0
  0
LINE
  5
2F7D
  8
AM_0
 10
743.60769903295397
 20
937.13326611421667
 30
0.0
 11
737.73525903295399
 21
936.92825611421665
 31
0.0
  0
LINE
  5
2F7E
  8
AM_0
 10
789.258759032954
 20
897.10036611421685
 30
0.0
 11
789.258759032954
 21
957.84023611421674
 31
0.0
  0
ARC
  5
2F7F
  8
AM_0
 10
784.25875903295389
 20
897.10036611421685
 30
0.0
 40
5.0
 50
271.99999999999682
 51
0.0
  0
LINE
  5
2F80
  8
ﾁｭｳｼﾝｾﾝ1
 10
738.25875903295389
 20
922.47030611421724
 30
0.0
 11
780.25875903295389
 21
922.47030611421724
 31
0.0
  0
LINE
  5
2F81
  8
ﾁｭｳｼﾝｾﾝ1
 10
759.25875903295389
 20
901.47030611421667
 30
0.0
 11
759.25875903295389
 21
943.47030611421667
 31
0.0
  0
ARC
  5
2F82
  8
AM_0
 10
775.258759032954
 20
968.19582611421674
 30
0.0
 40
8.0
 50
271.99999999999682
 51
0.0
  0
LINE
  5
2F83
  8
AM_0
 10
775.53793903295411
 20
960.20064611421674
 30
0.0
 11
762.90975903295384
 21
959.75967611421675
 31
0.0
  0
ARC
  5
2F84
  8
AM_0
 10
763.25875903295389
 20
949.76577611421612
 30
0.0
 40
10.0
 50
91.999998000000787
 51
180.00001000000091
  0
ARC
  5
2F85
  8
AM_0
 10
788.25875903295389
 20
967.00539611421675
 30
0.0
 40
5.0
 50
180.00001000000091
 51
246.421820000005
  0
ARC
  5
2F86
  8
AM_0
 10
784.25875903295389
 20
957.84023611421674
 30
0.0
 40
5.0
 50
0.0
 51
66.421821000003519
  0
ARC
  5
2F87
  8
AM_0
 10
786.258759032954
 20
1005.367396114216
 30
0.0
 40
3.0
 50
271.99999999999682
 51
0.0
  0
ARC
  5
2F88
  8
AM_0
 10
786.258759032954
 20
999.36373611421675
 30
0.0
 40
3.0
 50
91.999998000000787
 51
180.00001000000091
  0
LINE
  5
2F89
  8
AM_0
 10
786.15408903295395
 20
1002.361846114216
 30
0.0
 11
786.36343903295415
 21
1002.369166114216
 31
0.0
  0
LINE
  5
2F8A
  8
AM_0
 10
646.75875903295389
 20
1226.4173661142161
 30
0.0
 11
596.58419903295407
 21
1224.665266114215
 31
0.0
  0
LINE
  5
2F8B
  8
AM_0
 10
647.57192903295413
 20
1229.835066114216
 30
0.0
 11
605.07192903295413
 21
1236.8402661142161
 31
0.0
  0
LINE
  5
2F8C
  8
AM_0
 10
600.04409903295402
 20
1245.539866114216
 30
0.0
 11
642.98586903295416
 21
1240.229866114217
 31
0.0
  0
LINE
  5
2F8D
  8
AM_0
 10
534.08419903295407
 20
1243.3610661142161
 30
0.0
 11
651.758759032954
 21
1247.4704661142171
 31
0.0
  0
CIRCLE
  5
2F8E
  8
AM_0
 10
559.25875903295378
 20
1212.4702661142171
 30
0.0
 40
12.0
  0
LINE
  5
2F8F
  8
AM_0
 10
591.75869903295415
 20
1072.4703061142161
 30
0.0
 11
591.75869903295415
 21
1219.6681661142161
 31
0.0
  0
LINE
  5
2F90
  8
AM_0
 10
624.758759032954
 20
1212.560266114215
 30
0.0
 11
624.758759032954
 21
1205.7698661142149
 31
0.0
  0
LINE
  5
2F91
  8
AM_0
 10
529.25879903295402
 20
1238.364066114216
 30
0.0
 11
529.25879903295402
 21
1182.7693661142159
 31
0.0
  0
LINE
  5
2F92
  8
AM_0
 10
525.25869903295404
 20
1154.145266114215
 30
0.0
 11
571.75869903295415
 21
1154.145266114215
 31
0.0
  0
LINE
  5
2F93
  8
AM_0
 10
525.25869903295404
 20
1138.403066114216
 30
0.0
 11
571.75869903295415
 21
1138.403066114216
 31
0.0
  0
LINE
  5
2F94
  8
AM_0
 10
527.25879903295379
 20
1179.470266114216
 30
0.0
 11
566.75869903295415
 21
1179.470266114216
 31
0.0
  0
ARC
  5
2F95
  8
AM_0
 10
460.25879903295379
 20
1080.9007861142161
 30
0.0
 40
5.0
 50
271.99999999999682
 51
0.0
  0
LINE
  5
2F96
  8
AM_0
 10
433.7588990329541
 20
1056.5045461142161
 30
0.0
 11
433.7588990329541
 21
1078.4360661142159
 31
0.0
  0
LINE
  5
2F97
  8
AM_0
 10
460.43319903295401
 20
1075.903776114216
 30
0.0
 11
433.7588990329541
 21
1074.972316114216
 31
0.0
  0
LINE
  5
2F98
  8
AM_0
 10
460.43319903295401
 20
1055.573086114216
 30
0.0
 11
433.75879903295402
 21
1056.5045461142161
 31
0.0
  0
LINE
  5
2F99
  8
AM_0
 10
460.43329903295393
 20
1059.0367761142161
 30
0.0
 11
433.7588990329541
 21
1059.968286114216
 31
0.0
  0
ARC
  5
2F9A
  8
AM_0
 10
460.25879903295379
 20
1054.0398261142161
 30
0.0
 40
5.0
 50
0.0
 51
88.000000000002998
  0
ARC
  5
2F9B
  8
AM_0
 10
460.25879903295379
 20
1050.5761361142161
 30
0.0
 40
5.0
 50
0.0
 51
88.000000000002998
  0
LINE
  5
2F9C
  8
AM_0
 10
460.43319903295401
 20
1079.367586114216
 30
0.0
 11
433.75879903295402
 21
1078.4360661142159
 31
0.0
  0
ARC
  5
2F9D
  8
AM_0
 10
460.25879903295379
 20
1084.364526114216
 30
0.0
 40
5.0
 50
271.99999999999682
 51
0.0
  0
LINE
  5
2F9E
  8
AM_0
 10
468.54859903295397
 20
1166.1126661142159
 30
0.0
 11
490.968799032954
 21
1174.2729661142159
 31
0.0
  0
LINE
  5
2F9F
  8
AM_0
 10
460.43319903295401
 20
1154.831766114216
 30
0.0
 11
433.75879903295402
 21
1153.900266114216
 31
0.0
  0
LINE
  5
2FA0
  8
AM_0
 10
460.43319903295401
 20
1152.471666114217
 30
0.0
 11
431.75879903295402
 21
1151.4702661142151
 31
0.0
  0
LINE
  5
2FA1
  8
AM_0
 10
433.7588990329541
 20
1151.5401661142171
 30
0.0
 11
433.7588990329541
 21
1153.900266114216
 31
0.0
  0
ARC
  5
2FA2
  8
AM_0
 10
460.25879903295379
 20
1157.4685661142159
 30
0.0
 40
5.0
 50
271.99999999999682
 51
0.0
  0
ARC
  5
2FA3
  8
AM_0
 10
460.25879903295379
 20
1159.828666114216
 30
0.0
 40
5.0
 50
271.99999999999682
 51
0.0
  0
ARC
  5
2FA4
  8
AM_0
 10
470.25879903295402
 20
1161.414166114216
 30
0.0
 40
5.0
 50
109.9999999999953
 51
180.00001000000091
  0
LINE
  5
2FA5
  8
AM_0
 10
512.25879903295402
 20
1143.466866114215
 30
0.0
 11
525.25869903295404
 21
1143.466866114215
 31
0.0
  0
LINE
  5
2FA6
  8
AM_0
 10
512.25879903295402
 20
1151.6410661142161
 30
0.0
 11
525.25869903295404
 21
1151.6410661142161
 31
0.0
  0
LINE
  5
2FA7
  8
AM_0
 10
496.25879903295402
 20
1187.470266114216
 30
0.0
 11
523.25879903295402
 21
1187.470266114216
 31
0.0
  0
ARC
  5
2FA8
  8
AM_0
 10
489.25879903295379
 20
1178.971366114215
 30
0.0
 40
5.0
 50
289.99999999999523
 51
0.0
  0
ARC
  5
2FA9
  8
AM_0
 10
496.25879903295402
 20
1185.470266114216
 30
0.0
 40
2.0
 50
90.00000299999769
 51
180.00001000000091
  0
LINE
  5
2FAA
  8
AM_0
 10
512.25879903295402
 20
1167.197466114216
 30
0.0
 11
525.25869903295404
 21
1167.197466114216
 31
0.0
  0
ARC
  5
2FAB
  8
AM_0
 10
527.25879903295379
 20
1181.470266114216
 30
0.0
 40
2.0
 50
179.9999899999988
 51
270.0
  0
ARC
  5
2FAC
  8
AM_0
 10
523.25879903295402
 20
1185.470266114216
 30
0.0
 40
2.0
 50
0.0
 51
90.00000299999769
  0
ARC
  5
2FAD
  8
AM_0
 10
534.25879903295402
 20
1182.7693661142159
 30
0.0
 40
5.0
 50
180.00001000000091
 51
221.28494000000109
  0
LINE
  5
2FAE
  8
AM_0
 10
624.758759032954
 20
1160.4145661142161
 30
0.0
 11
624.758759032954
 21
1118.4988661142161
 31
0.0
  0
LINE
  5
2FAF
  8
AM_0
 10
586.758759032954
 20
1072.4703061142161
 30
0.0
 11
626.758759032954
 21
1072.4703061142161
 31
0.0
  0
LINE
  5
2FB0
  8
AM_0
 10
586.758759032954
 20
1062.4703061142161
 30
0.0
 11
626.758759032954
 21
1062.4703061142161
 31
0.0
  0
ARC
  5
2FB1
  8
AM_0
 10
586.758759032954
 20
1067.4703061142161
 30
0.0
 40
5.0
 50
90.00000299999769
 51
270.0
  0
ARC
  5
2FB2
  8
AM_0
 10
606.758759032954
 20
1067.4703061142161
 30
0.0
 40
12.5
 50
23.578179999997531
 51
156.42182000000241
  0
ARC
  5
2FB3
  8
AM_0
 10
606.758759032954
 20
1067.4703061142161
 30
0.0
 40
12.5
 50
203.5781799999973
 51
336.42182999999471
  0
ARC
  5
2FB4
  8
AM_0
 10
626.758759032954
 20
1067.4703061142161
 30
0.0
 40
5.0
 50
270.0
 51
90.00000299999769
  0
LINE
  5
2FB5
  8
AM_0
 10
596.75869903295415
 20
1116.4988661142161
 30
0.0
 11
622.758759032954
 21
1116.4988661142161
 31
0.0
  0
ARC
  5
2FB6
  8
AM_0
 10
596.75869903295415
 20
1111.4988661142161
 30
0.0
 40
5.0
 50
90.00000299999769
 51
180.00001000000091
  0
ARC
  5
2FB7
  8
AM_0
 10
622.758759032954
 20
1118.4988661142161
 30
0.0
 40
2.0
 50
270.0
 51
0.0
  0
ARC
  5
2FB8
  8
AM_0
 10
586.75869903295415
 20
1203.0937661142159
 30
0.0
 40
5.0
 50
273.83084000000241
 51
0.0
  0
ARC
  5
2FB9
  8
AM_0
 10
566.75869903295415
 20
1184.4702661142151
 30
0.0
 40
5.0
 50
270.0
 51
0.0
  0
ARC
  5
2FBA
  8
AM_0
 10
576.75869903295415
 20
1192.4016661142159
 30
0.0
 40
5.0
 50
93.830836999998056
 51
180.00001000000091
  0
LINE
  5
2FBB
  8
AM_0
 10
587.09280903295405
 20
1198.1048661142161
 30
0.0
 11
576.42464903295411
 21
1197.390466114216
 31
0.0
  0
ARC
  5
2FBC
  8
AM_0
 10
596.75869903295415
 20
1167.414566114217
 30
0.0
 40
5.0
 50
180.00001000000091
 51
270.0
  0
LINE
  5
2FBD
  8
AM_0
 10
596.75869903295415
 20
1162.414566114217
 30
0.0
 11
622.758759032954
 21
1162.414566114217
 31
0.0
  0
ARC
  5
2FBE
  8
AM_0
 10
622.758759032954
 20
1160.4145661142161
 30
0.0
 40
2.0
 50
0.0
 51
90.00000299999769
  0
LINE
  5
2FBF
  8
AM_0
 10
596.75869903295415
 20
1203.769866114216
 30
0.0
 11
622.758759032954
 21
1203.769866114216
 31
0.0
  0
ARC
  5
2FC0
  8
AM_0
 10
596.75869903295415
 20
1198.769866114216
 30
0.0
 40
5.0
 50
90.00000299999769
 51
180.00001000000091
  0
ARC
  5
2FC1
  8
AM_0
 10
622.758759032954
 20
1205.7698661142149
 30
0.0
 40
2.0
 50
270.0
 51
0.0
  0
ARC
  5
2FC2
  8
AM_0
 10
534.25879903295402
 20
1238.364066114216
 30
0.0
 40
5.0
 50
91.999998000000787
 51
180.00001000000091
  0
LINE
  5
2FC3
  8
AM_0
 10
596.75869903295415
 20
1214.5602661142159
 30
0.0
 11
622.758759032954
 21
1214.5602661142159
 31
0.0
  0
ARC
  5
2FC4
  8
AM_0
 10
604.258759032954
 20
1231.9069661142159
 30
0.0
 40
5.0
 50
80.640142999995817
 51
180.00001000000091
  0
ARC
  5
2FC5
  8
AM_0
 10
596.75869903295415
 20
1219.560266114215
 30
0.0
 40
5.0
 50
180.00001000000091
 51
270.0
  0
ARC
  5
2FC6
  8
AM_0
 10
596.75869903295415
 20
1219.6681661142161
 30
0.0
 40
5.0
 50
91.999998000000787
 51
180.00001000000091
  0
ARC
  5
2FC7
  8
AM_0
 10
622.758759032954
 20
1212.560266114215
 30
0.0
 40
2.0
 50
0.0
 51
90.00000299999769
  0
ARC
  5
2FC8
  8
AM_0
 10
738.25875903295389
 20
1213.0032661142161
 30
0.0
 40
15.0
 50
180.00001000000091
 51
268.0000000000029
  0
CIRCLE
  5
2FC9
  8
AM_0
 10
759.25875903295389
 20
1212.4702661142171
 30
0.0
 40
12.0
  0
LINE
  5
2FCA
  8
AM_0
 10
789.258759032954
 20
1237.8402661142161
 30
0.0
 11
789.258759032954
 21
1177.1002661142161
 31
0.0
  0
ARC
  5
2FCB
  8
AM_0
 10
743.25875903295389
 20
1187.813466114216
 30
0.0
 40
10.0
 50
0.0
 51
88.000000000002998
  0
LINE
  5
2FCC
  8
AM_0
 10
743.60769903295397
 20
1197.8073661142159
 30
0.0
 11
737.73525903295399
 21
1198.0124661142161
 31
0.0
  0
LINE
  5
2FCD
  8
AM_0
 10
795.258759032954
 20
1099.9703061142161
 30
0.0
 11
795.258759032954
 21
1034.9703061142161
 31
0.0
  0
LINE
  5
2FCE
  8
AM_0
 10
789.258759032954
 20
1034.9703061142161
 30
0.0
 11
795.258759032954
 21
1034.9703061142161
 31
0.0
  0
LINE
  5
2FCF
  8
AM_0
 10
789.258759032954
 20
1099.9703061142161
 30
0.0
 11
795.258759032954
 21
1099.9703061142161
 31
0.0
  0
ARC
  5
2FD0
  8
AM_0
 10
819.25875903295389
 20
1067.4703061142161
 30
0.0
 40
8.9999962
 50
90.00000299999769
 51
270.0
  0
LINE
  5
2FD1
  8
AM_0
 10
819.25875903295389
 20
1076.4703061142161
 30
0.0
 11
819.25875903295389
 21
1058.4703061142161
 31
0.0
  0
ARC
  5
2FD2
  8
AM_0
 10
775.258759032954
 20
1166.7448661142159
 30
0.0
 40
8.0
 50
0.0
 51
88.000000000002998
  0
ARC
  5
2FD3
  8
AM_0
 10
786.258759032954
 20
1135.576866114216
 30
0.0
 40
3.0
 50
180.00001000000091
 51
268.0000000000029
  0
ARC
  5
2FD4
  8
AM_0
 10
786.258759032954
 20
1129.5731661142161
 30
0.0
 40
3.0
 50
0.0
 51
88.000000000002998
  0
LINE
  5
2FD5
  8
AM_0
 10
786.15408903295395
 20
1132.578666114216
 30
0.0
 11
786.36349903295411
 21
1132.5713661142161
 31
0.0
  0
LINE
  5
2FD6
  8
AM_0
 10
775.53793903295411
 20
1174.739966114216
 30
0.0
 11
762.90981903295415
 21
1175.1809661142161
 31
0.0
  0
ARC
  5
2FD7
  8
AM_0
 10
763.25875903295389
 20
1185.174766114216
 30
0.0
 40
10.0
 50
180.00001000000091
 51
268.0000000000029
  0
ARC
  5
2FD8
  8
AM_0
 10
788.25875903295389
 20
1167.9351661142159
 30
0.0
 40
5.0
 50
113.5781799999949
 51
180.00001000000091
  0
ARC
  5
2FD9
  8
AM_0
 10
784.25875903295389
 20
1177.1002661142161
 30
0.0
 40
5.0
 50
293.57817999999492
 51
0.0
  0
LINE
  5
2FDA
  8
AM_0
 10
651.758759032954
 20
1247.470266114216
 30
0.0
 11
784.43325903295374
 21
1242.837266114215
 31
0.0
  0
LINE
  5
2FDB
  8
AM_0
 10
715.53793903295411
 20
1224.015566114216
 30
0.0
 11
646.75875903295389
 21
1226.417466114216
 31
0.0
  0
ARC
  5
2FDC
  8
AM_0
 10
641.758759032954
 20
1230.305366114216
 30
0.0
 40
10.0
 50
0.0
 51
82.950795999998775
  0
ARC
  5
2FDD
  8
AM_0
 10
646.75875903295389
 20
1224.9016661142159
 30
0.0
 40
5.0
 50
15.63417199999704
 51
80.640142999995817
  0
LINE
  5
2FDE
  8
AM_0
 10
651.758759032954
 20
1230.305366114216
 30
0.0
 11
651.758759032954
 21
1226.242666114216
 31
0.0
  0
ARC
  5
2FDF
  8
AM_0
 10
733.258759032954
 20
1234.618166114215
 30
0.0
 40
10.0
 50
88.000000000002998
 51
180.00001000000091
  0
ARC
  5
2FE0
  8
AM_0
 10
715.258759032954
 20
1216.020366114215
 30
0.0
 40
8.0
 50
0.0
 51
88.000000000002998
  0
LINE
  5
2FE1
  8
AM_0
 10
723.258759032954
 20
1234.618166114215
 30
0.0
 11
723.258759032954
 21
1213.0032661142161
 31
0.0
  0
ARC
  5
2FE2
  8
AM_0
 10
784.25875903295389
 20
1237.8402661142161
 30
0.0
 40
5.0
 50
0.0
 51
88.000000000002998
  0
LINE
  5
2FE3
  8
AM_0
 10
900.258759032954
 20
1097.4703061142161
 30
0.0
 11
900.258759032954
 21
1037.4703061142161
 31
0.0
  0
LINE
  5
2FE4
  8
ﾁｭｳｼﾝｾﾝ1
 10
559.25875903295378
 20
901.47030611421667
 30
0.0
 11
559.25875903295378
 21
943.47030611421667
 31
0.0
  0
LINE
  5
2FE5
  8
ﾁｭｳｼﾝｾﾝ1
 10
538.25875903295378
 20
922.47030611421724
 30
0.0
 11
580.25875903295378
 21
922.47030611421724
 31
0.0
  0
LINE
  5
2FE6
  8
ﾁｭｳｼﾝｾﾝ1
 10
559.25875903295378
 20
1191.470266114216
 30
0.0
 11
559.25875903295378
 21
1233.470266114216
 31
0.0
  0
LINE
  5
2FE7
  8
ﾁｭｳｼﾝｾﾝ1
 10
538.25875903295378
 20
1212.4702661142171
 30
0.0
 11
580.25875903295378
 21
1212.4702661142171
 31
0.0
  0
LINE
  5
2FE8
  8
ﾁｭｳｼﾝｾﾝ1
 10
759.25875903295389
 20
1191.470266114216
 30
0.0
 11
759.25875903295389
 21
1233.470266114216
 31
0.0
  0
LINE
  5
2FE9
  8
ﾁｭｳｼﾝｾﾝ1
 10
738.25875903295389
 20
1212.4702661142171
 30
0.0
 11
780.25875903295389
 21
1212.4702661142171
 31
0.0
  0
LINE
  5
2FEA
  8
AM_0
 10
352.25879903295402
 20
942.47030611421644
 30
0.0
 11
367.25879903295402
 21
942.47030611421644
 31
0.0
  0
LINE
  5
2FEB
  8
AM_0
 10
352.25879903295402
 20
1192.4703061142161
 30
0.0
 11
367.25879903295402
 21
1192.4703061142161
 31
0.0
  0
LINE
  5
2FEC
  8
AM_0
 10
352.25879903295402
 20
1192.4703061142161
 30
0.0
 11
352.25879903295402
 21
942.47030611421644
 31
0.0
  0
LINE
  5
2FED
  8
AM_0
 10
368.25879903295402
 20
1191.4703061142161
 30
0.0
 11
368.25879903295402
 21
943.47030611421667
 31
0.0
  0
LINE
  5
2FEE
  8
AM_0
 10
430.7587990329547
 20
977.00202589825483
 30
0.0
 11
370.99733203295472
 21
971.7735748982542
 31
0.0
  0
LINE
  5
2FEF
  8
AM_0
 10
431.75879903295402
 20
981.47030611421712
 30
0.0
 11
370.99733178234078
 21
976.15436609229084
 31
0.0
  0
ARC
  5
2FF0
  8
AM_0
 10
367.25879903295402
 20
943.47030611421667
 30
0.0
 40
1.0
 50
270.0
 51
0.0
  0
ARC
  5
2FF1
  8
AM_0
 10
371.25879903295481
 20
968.78499089825425
 30
0.0
 40
3.0
 50
94.999999999999446
 51
180.0
  0
ARC
  5
2FF2
  8
AM_0
 10
371.25879903295402
 20
973.16578199997275
 30
0.0
 40
3.0
 50
95.000000428874188
 51
180.0
1001
GENIUS_GENODEF_13
1002
{
1000
HIER
1070
     0
1002
}
1002
{
1000
MANEDIT
1070
     0
1002
}
1002
{
1000
NOSEL
1070
     0
1002
}
1002
{
1000
BEHIND
1070
     0
1002
}
1002
{
1000
OTHER
1070
     0
1002
}
1002
{
1000
REACTOR
1002
}
1001
GENIUS_GENOBJ-N-FIL_13
1002
{
1000
OWNER
1000
GEN
1002
}
  0
LINE
  5
2FF3
  8
AM_0
 10
430.75879903295379
 20
1059.9682961142159
 30
0.0
 11
368.25879903295402
 21
1057.7857480209821
 31
0.0
  0
LINE
  5
2FF4
  8
AM_0
 10
430.75879903295379
 20
1056.5045461142161
 30
0.0
 11
368.25879903295402
 21
1054.3219980209819
 31
0.0
  0
LINE
  5
2FF5
  8
AM_0
 10
430.75879903295379
 20
1078.4360661142159
 30
0.0
 11
368.25879903295402
 21
1080.61861420745
 31
0.0
  0
LINE
  5
2FF6
  8
AM_0
 10
430.75879903295379
 20
1074.972316114216
 30
0.0
 11
368.25879903295402
 21
1077.1548642074511
 31
0.0
  0
LINE
  5
2FF7
  8
AM_0
 10
430.75879903295379
 20
1157.9385863301791
 30
0.0
 11
370.99733203295398
 21
1163.167037330179
 31
0.0
  0
LINE
  5
2FF8
  8
AM_0
 10
431.75879903295402
 20
1153.4703061142161
 30
0.0
 11
370.99733178234078
 21
1158.7862461361419
 31
0.0
  0
ARC
  5
2FF9
  8
AM_0
 10
371.25879903295402
 20
1161.7748302284599
 30
0.0
 40
3.0
 50
180.0
 51
264.99999957112573
1001
GENIUS_GENODEF_13
1002
{
1000
HIER
1070
     0
1002
}
1002
{
1000
MANEDIT
1070
     0
1002
}
1002
{
1000
NOSEL
1070
     0
1002
}
1002
{
1000
BEHIND
1070
     0
1002
}
1002
{
1000
OTHER
1070
     0
1002
}
1002
{
1000
REACTOR
1002
}
1001
GENIUS_GENOBJ-N-FIL_13
1002
{
1000
OWNER
1000
GEN
1002
}
  0
ARC
  5
2FFA
  8
AM_0
 10
371.25879903295402
 20
1166.1556213301781
 30
0.0
 40
3.0
 50
180.0
 51
265.0000000000004
  0
ARC
  5
2FFB
  8
AM_0
 10
367.25879903295402
 20
1191.4703061142161
 30
0.0
 40
1.0
 50
0.0
 51
90.0
  0
LINE
  5
2FFC
  8
AM_0
 10
430.7587990329547
 20
981.38281744314884
 30
0.0
 11
430.7587990329547
 21
977.00202589825483
 31
0.0
  0
LINE
  5
2FFD
  8
AM_0
 10
430.75879903295379
 20
1078.4360661142159
 30
0.0
 11
430.75879903295379
 21
1056.5045461142161
 31
0.0
  0
LINE
  5
2FFE
  8
AM_0
 10
430.75879903295379
 20
1153.5577947852851
 30
0.0
 11
430.75879903295379
 21
1157.9385863301791
 31
0.0
  0
LINE
  5
2FFF
  8
AM_0
 10
529.25870903295356
 20
345.09197182702871
 30
0.0
 11
789.2587090329539
 21
345.09197182702871
 31
0.0
  0
LINE
  5
3000
  8
AM_0
 10
738.25870903295424
 20
377.09197182702871
 30
0.0
 11
784.2587090329539
 21
377.09197182702871
 31
0.0
  0
LINE
  5
3001
  8
ﾁｭｳｼﾝｾﾝ
 10
903.1977590329542
 20
570.0919768270287
 30
0.0
 11
553.0094173333008
 21
570.0919768270287
 31
0.0
  0
LINE
  5
3002
  8
AM_0
 10
762.38725903295415
 20
663.91804682702866
 30
0.0
 11
775.95605903295416
 21
662.73089682702835
 31
0.0
  0
ARC
  5
3003
  8
AM_0
 10
446.25885903295398
 20
547.32555682702866
 30
0.0
 40
3.0000000500000001
 50
270.0
 51
0.0
  0
LINE
  5
3004
  8
AM_0
 10
431.7587090329539
 20
547.71135505329494
 30
0.0
 11
431.7587090329539
 21
375.71135505329482
 31
0.0
  0
LINE
  5
3005
  8
AM_0
 10
352.25870903295402
 20
586.71135505329494
 30
0.0
 11
352.25870903295402
 21
336.71135505329482
 31
0.0
  0
LINE
  5
3006
  8
AM_0
 10
368.25870903295402
 20
585.71135505329494
 30
0.0
 11
368.25870903295402
 21
337.71135505329488
 31
0.0
  0
LINE
  5
3007
  8
AM_0
 10
646.75870903295356
 20
702.09199682702877
 30
0.0
 11
646.75870903295356
 21
422.33007182702852
 31
0.0
  0
LINE
  5
3008
  8
AM_0
 10
753.25870903295424
 20
683.71294682702865
 30
0.0
 11
753.25870903295424
 21
425.74395182702852
 31
0.0
  0
LINE
  5
3009
  8
AM_0
 10
723.25870903295424
 20
606.01889682702836
 30
0.0
 11
723.25870903295424
 21
392.09197182702871
 31
0.0
  0
LINE
  5
300A
  8
AM_0
 10
676.75870903295356
 20
700.40654682702882
 30
0.0
 11
676.75870903295356
 21
499.39419182702852
 31
0.0
  0
LINE
  5
300B
  8
AM_0
 10
591.75870903295356
 20
700.09204682702875
 30
0.0
 11
591.75870903295356
 21
377.09197182702871
 31
0.0
  0
LINE
  5
300C
  8
AM_0
 10
525.25870903295424
 20
640.09199682702865
 30
0.0
 11
525.25870903295424
 21
404.09200682702868
 31
0.0
  0
LINE
  5
300D
  8
AM_0
 10
512.25875903295366
 20
642.09199682702865
 30
0.0
 11
512.25875903295366
 21
402.0919718270286
 31
0.0
  0
LINE
  5
300E
  8
AM_0
 10
571.75870903295356
 20
650.28569682702835
 30
0.0
 11
571.75870903295356
 21
400.47847682702883
 31
0.0
  0
LINE
  5
300F
  8
AM_0
 10
465.2587090329539
 20
461.59200682702868
 30
0.0
 11
465.2587090329539
 21
597.57529682702875
 31
0.0
  0
LINE
  5
3010
  8
AM_0
 10
494.25870903295367
 20
596.08864682702847
 30
0.0
 11
494.25870903295367
 21
448.09533182702859
 31
0.0
  0
LINE
  5
3011
  8
ﾁｭｳｼﾝｾﾝ
 10
337.58847441247951
 20
461.59200682702868
 30
0.0
 11
566.10305963917085
 21
461.59200682702868
 31
0.0
  0
LINE
  5
3012
  8
AM_0
 10
496.25875903295372
 20
446.09533182702847
 30
0.0
 11
525.25870903295424
 21
446.09533182702847
 31
0.0
  0
LINE
  5
3013
  8
AM_0
 10
483.25870903295419
 20
437.92110682702861
 30
0.0
 11
525.25870903295424
 21
437.92110682702861
 31
0.0
  0
LINE
  5
3014
  8
AM_0
 10
485.25870903295402
 20
422.36477182702868
 30
0.0
 11
525.25870903295424
 21
422.36477182702868
 31
0.0
  0
LINE
  5
3015
  8
AM_0
 10
476.08420903295399
 20
400.82876182702847
 30
0.0
 11
512.25875903295366
 21
402.09200682702863
 31
0.0
  0
LINE
  5
3016
  8
AM_0
 10
431.7587090329539
 20
375.71135505329482
 30
0.0
 11
370.99724203295398
 21
370.39541505329493
 31
0.0
  0
LINE
  5
3017
  8
AM_0
 10
352.25870903295402
 20
336.71135505329482
 30
0.0
 11
367.25870903295419
 21
336.71135505329482
 31
0.0
  0
ARC
  5
3018
  8
AM_0
 10
367.25870903295419
 20
337.71135505329488
 30
0.0
 40
1.0
 50
270.0
 51
0.0
  0
ARC
  5
3019
  8
AM_0
 10
371.25870903295419
 20
367.40683105329481
 30
0.0
 40
3.0
 50
95.0
 51
180.0
  0
ARC
  5
301A
  8
AM_0
 10
428.75870903295419
 20
401.7924550532947
 30
0.0
 40
2.0
 50
270.0
 51
0.0
  0
ARC
  5
301B
  8
AM_0
 10
428.75870903295419
 20
427.77321705329479
 30
0.0
 40
2.0
 50
270.0
 51
0.0
  0
LINE
  5
301C
  8
AM_0
 10
428.75870903295419
 20
399.79245505329482
 30
0.0
 11
368.25870903295402
 21
399.79245505329482
 31
0.0
  0
LINE
  5
301D
  8
AM_0
 10
368.25870903295402
 20
435.96444905329491
 30
0.0
 11
428.0624110329544
 21
435.96444905329491
 31
0.0
  0
LINE
  5
301E
  8
AM_0
 10
368.25870903295402
 20
425.7732170532949
 30
0.0
 11
428.75870903295419
 21
425.7732170532949
 31
0.0
  0
LINE
  5
301F
  8
AM_0
 10
430.75870903295402
 20
435.96444905329491
 30
0.0
 11
430.75870903295402
 21
401.7924550532947
 31
0.0
  0
LINE
  5
3020
  8
AM_0
 10
433.75885903295398
 20
430.48153182702868
 30
0.0
 11
433.75885903295398
 21
405.7390368270286
 31
0.0
  0
LINE
  5
3021
  8
AM_0
 10
460.7587090329539
 20
418.72939682702872
 30
0.0
 11
460.7587090329539
 21
405.7390368270286
 31
0.0
  0
LINE
  5
3022
  8
AM_0
 10
471.25875903295372
 20
419.36477182702868
 30
0.0
 11
471.25875903295372
 21
379.59197182702871
 31
0.0
  0
LINE
  5
3023
  8
AM_0
 10
465.75870903295402
 20
430.48153182702868
 30
0.0
 11
465.75870903295402
 21
405.7390368270286
 31
0.0
  0
LINE
  5
3024
  8
AM_0
 10
433.75885903295398
 20
405.7390368270286
 30
0.0
 11
465.75870903295402
 21
405.7390368270286
 31
0.0
  0
LINE
  5
3025
  8
AM_0
 10
431.7587090329539
 20
376.59200182702858
 30
0.0
 11
468.25870903295402
 21
376.59200182702858
 31
0.0
  0
ARC
  5
3026
  8
AM_0
 10
468.25870903295402
 20
379.59197182702871
 30
0.0
 40
3.0000000500000001
 50
270.0
 51
0.0
  0
ARC
  5
3027
  8
AM_0
 10
476.25875903295372
 20
395.83181182702879
 30
0.0
 40
5.0
 50
91.999998000000545
 51
180.00001000000091
  0
LINE
  5
3028
  8
AM_0
 10
433.75885903295398
 20
430.48153182702868
 30
0.0
 11
465.75870903295402
 21
430.48153182702868
 31
0.0
  0
LINE
  5
3029
  8
AM_0
 10
460.7587090329539
 20
418.72942682702848
 30
0.0
 11
465.75875903295372
 21
430.48156182702871
 31
0.0
  0
LINE
  5
302A
  8
AM_0
 10
433.75885903295398
 20
418.72939682702872
 30
0.0
 11
460.7587090329539
 21
418.72939682702872
 31
0.0
  0
LINE
  5
302B
  8
AM_0
 10
483.25870903295419
 20
424.36477182702862
 30
0.0
 11
483.25870903295419
 21
454.09530182702872
 31
0.0
  0
ARC
  5
302C
  8
AM_0
 10
474.25870903295367
 20
419.36477182702868
 30
0.0
 40
3.0000000500000001
 50
90.00000299999769
 51
180.00001000000091
  0
ARC
  5
302D
  8
AM_0
 10
485.25870903295402
 20
424.36477182702862
 30
0.0
 40
2.0000000500000001
 50
179.9999899999988
 51
270.0
  0
ARC
  5
302E
  8
AM_0
 10
481.25875903295361
 20
454.09530182702872
 30
0.0
 40
2.0000000500000001
 50
0.0
 51
90.00000299999769
  0
ARC
  5
302F
  8
AM_0
 10
496.25875903295372
 20
448.09533182702859
 30
0.0
 40
2.0000000500000001
 50
179.9999899999988
 51
270.0
  0
LINE
  5
3030
  8
AM_0
 10
449.25870903295419
 20
544.32555682702866
 30
0.0
 11
464.51695903295399
 21
544.32555682702866
 31
0.0
  0
LINE
  5
3031
  8
AM_0
 10
529.25870903295356
 20
372.09197182702871
 30
0.0
 11
529.25870903295356
 21
345.09197182702871
 31
0.0
  0
LINE
  5
3032
  8
ｶｸﾚｾﾝ2
 10
571.25875903295389
 20
377.09197182702871
 30
0.0
 11
571.25875903295389
 21
345.09197182702871
 31
0.0
  0
LINE
  5
3033
  8
ｶｸﾚｾﾝ2
 10
547.25875903295378
 20
377.09197182702871
 30
0.0
 11
547.25875903295378
 21
345.09197182702871
 31
0.0
  0
LINE
  5
3034
  8
ｶｸﾚｾﾝ2
 10
747.25875903295389
 20
377.09197182702871
 30
0.0
 11
747.25875903295389
 21
345.09197182702871
 31
0.0
  0
LINE
  5
3035
  8
AM_0
 10
602.15525903295395
 20
379.85058182702869
 30
0.0
 11
648.65525903295395
 21
424.13628682702853
 31
0.0
  0
LINE
  5
3036
  8
AM_0
 10
624.75875903295389
 20
471.03484682702867
 30
0.0
 11
624.75875903295389
 21
434.76552682702862
 31
0.0
  0
LINE
  5
3037
  8
AM_0
 10
534.25870903295356
 20
377.09197182702871
 30
0.0
 11
595.25870903295424
 21
377.09197182702871
 31
0.0
  0
LINE
  5
3038
  8
AM_0
 10
527.25875903295366
 20
410.09197182702871
 30
0.0
 11
566.75870903295356
 21
410.09197182702871
 31
0.0
  0
LINE
  5
3039
  8
AM_0
 10
525.25870903295424
 20
451.15917682702872
 30
0.0
 11
571.75870903295356
 21
451.15917682702872
 31
0.0
  0
LINE
  5
303A
  8
AM_0
 10
525.25870903295424
 20
435.41710682702859
 30
0.0
 11
571.75870903295356
 21
435.41710682702859
 31
0.0
  0
ARC
  5
303B
  8
AM_0
 10
534.25870903295356
 20
372.09197182702871
 30
0.0
 40
5.0
 50
90.00000299999769
 51
180.00001000000091
  0
LINE
  5
303C
  8
AM_0
 10
512.25875903295366
 20
402.0919718270286
 30
0.0
 11
523.25870903295424
 21
402.0919718270286
 31
0.0
  0
ARC
  5
303D
  8
AM_0
 10
527.25875903295366
 20
408.09197182702832
 30
0.0
 40
2.0000000500000001
 50
90.00000299999769
 51
180.00001000000091
  0
ARC
  5
303E
  8
AM_0
 10
523.25870903295424
 20
404.09200682702868
 30
0.0
 40
2.0000000500000001
 50
270.0
 51
0.0
  0
ARC
  5
303F
  8
AM_0
 10
595.25870903295424
 20
387.0919718270286
 30
0.0
 40
10.0
 50
270.0
 51
313.60281999999847
  0
LINE
  5
3040
  8
AM_0
 10
574.72330903295403
 20
393.37197182702852
 30
0.0
 11
588.7941590329541
 21
379.44182682702871
 31
0.0
  0
ARC
  5
3041
  8
AM_0
 10
581.75870903295367
 20
372.33529182702853
 30
0.0
 40
10.0
 50
28.402999999997601
 51
45.287918000001568
  0
ARC
  5
3042
  8
AM_0
 10
581.75870903295367
 20
400.47847682702883
 30
0.0
 40
10.0
 50
179.9999899999988
 51
225.28791999999751
  0
ARC
  5
3043
  8
AM_0
 10
566.75870903295356
 20
405.09197182702871
 30
0.0
 40
5.0
 50
0.0
 51
90.00000299999769
  0
ARC
  5
3044
  8
AM_0
 10
596.75870903295356
 20
427.76549682702858
 30
0.0
 40
5.0
 50
90.00000299999769
 51
180.00001000000091
  0
LINE
  5
3045
  8
AM_0
 10
596.75870903295356
 20
432.76549682702858
 30
0.0
 11
622.75870903295424
 21
432.76549682702858
 31
0.0
  0
ARC
  5
3046
  8
AM_0
 10
622.75870903295424
 20
434.76552682702862
 30
0.0
 40
2.0000000500000001
 50
270.0
 51
0.0
  0
ARC
  5
3047
  8
AM_0
 10
596.75870903295356
 20
478.03487682702871
 30
0.0
 40
5.0
 50
179.9999899999988
 51
270.0
  0
LINE
  5
3048
  8
AM_0
 10
596.75870903295356
 20
473.03487682702871
 30
0.0
 11
622.75870903295424
 21
473.03487682702871
 31
0.0
  0
ARC
  5
3049
  8
AM_0
 10
622.75870903295424
 20
471.03484682702867
 30
0.0
 40
2.0000000500000001
 50
0.0
 51
90.00000299999769
  0
LINE
  5
304A
  8
AM_0
 10
651.75870903295356
 20
499.39419182702852
 30
0.0
 11
651.75870903295356
 21
431.3776818270286
 31
0.0
  0
ARC
  5
304B
  8
AM_0
 10
641.75870903295356
 20
431.3776818270286
 30
0.0
 40
10.0
 50
313.60281999999847
 51
0.0
  0
ARC
  5
304C
  8
AM_0
 10
743.25870903295424
 20
425.74395182702852
 30
0.0
 40
10.0
 50
270.0
 51
0.0
  0
ARC
  5
304D
  8
AM_0
 10
738.25870903295424
 20
392.09197182702871
 30
0.0
 40
15.0
 50
179.9999899999988
 51
270.0
  0
LINE
  5
304E
  8
AM_0
 10
723.25870903295424
 20
415.74395182702852
 30
0.0
 11
743.25870903295424
 21
415.74395182702852
 31
0.0
  0
LINE
  5
304F
  8
AM_0
 10
646.75870903295356
 20
499.39419182702852
 30
0.0
 11
676.75870903295356
 21
499.39419182702852
 31
0.0
  0
LINE
  5
3050
  8
AM_0
 10
485.25870903295402
 20
621.81919682702869
 30
0.0
 11
525.25870903295424
 21
621.81919682702869
 31
0.0
  0
LINE
  5
3051
  8
AM_0
 10
483.25870903295419
 20
606.26279682702875
 30
0.0
 11
525.25870903295424
 21
606.26279682702875
 31
0.0
  0
LINE
  5
3052
  8
AM_0
 10
496.25875903295372
 20
598.08859682702848
 30
0.0
 11
525.25870903295424
 21
598.08859682702848
 31
0.0
  0
ARC
  5
3053
  8
AM_0
 10
497.25875903295372
 20
639.09199682702877
 30
0.0
 40
3.0000000500000001
 50
90.00000299999769
 51
180.00001000000091
  0
LINE
  5
3054
  8
AM_0
 10
352.25870903295402
 20
586.71135505329494
 30
0.0
 11
367.25870903295419
 21
586.71135505329494
 31
0.0
  0
ARC
  5
3055
  8
AM_0
 10
491.25875903295372
 20
631.93169682702865
 30
0.0
 40
3.0000000500000001
 50
270.0
 51
0.0
  0
LINE
  5
3056
  8
AM_0
 10
494.25870903295367
 20
639.09199682702877
 30
0.0
 11
494.25870903295367
 21
621.81919682702869
 31
0.0
  0
LINE
  5
3057
  8
AM_0
 10
430.75870903295402
 20
560.71135505329494
 30
0.0
 11
370.99724203295398
 21
565.93980605329455
 31
0.0
  0
LINE
  5
3058
  8
AM_0
 10
429.75870903295419
 20
547.64691205329495
 30
0.0
 11
368.25870903295402
 21
547.64691205329495
 31
0.0
  0
ARC
  5
3059
  8
AM_0
 10
371.25870903295419
 20
568.92839005329472
 30
0.0
 40
3.0
 50
180.0
 51
265.0
  0
ARC
  5
305A
  8
AM_0
 10
367.25870903295419
 20
585.71135505329494
 30
0.0
 40
1.0
 50
0.0
 51
90.0
  0
ARC
  5
305B
  8
AM_0
 10
481.25875903295361
 20
590.0885968270286
 30
0.0
 40
2.0000000500000001
 50
270.0
 51
0.0
  0
ARC
  5
305C
  8
AM_0
 10
462.25870903295419
 20
575.0919768270287
 30
0.0
 40
3.0000000500000001
 50
270.0
 51
0.0
  0
LINE
  5
305D
  8
AM_0
 10
449.25870903295419
 20
547.32555682702866
 30
0.0
 11
449.25870903295419
 21
569.09200682702874
 31
0.0
  0
ARC
  5
305E
  8
AM_0
 10
446.25885903295398
 20
563.59197682702847
 30
0.0
 40
3.0000000500000001
 50
270.0
 51
0.0
  0
ARC
  5
305F
  8
AM_0
 10
446.25885903295398
 20
550.10015682702885
 30
0.0
 40
3.0000000500000001
 50
271.9999999999971
 51
0.0
  0
LINE
  5
3060
  8
AM_0
 10
433.75885903295398
 20
560.5919768270287
 30
0.0
 11
446.25885903295398
 21
560.5919768270287
 31
0.0
  0
LINE
  5
3061
  8
AM_0
 10
431.7587090329539
 20
546.59200682702885
 30
0.0
 11
446.3634590329537
 21
547.10201682702848
 31
0.0
  0
LINE
  5
3062
  8
AM_0
 10
430.75870903295402
 20
547.71135505329494
 30
0.0
 11
431.7587090329539
 21
547.71135505329494
 31
0.0
  0
LINE
  5
3063
  8
AM_0
 10
430.75870903295402
 20
547.71135505329494
 30
0.0
 11
430.75870903295402
 21
560.71135505329494
 31
0.0
  0
LINE
  5
3064
  8
AM_0
 10
433.75885903295398
 20
546.66180182702885
 30
0.0
 11
433.75885903295398
 21
560.5919768270287
 31
0.0
  0
LINE
  5
3065
  8
AM_0
 10
452.2587090329539
 20
572.09197682702847
 30
0.0
 11
462.25870903295419
 21
572.09197682702847
 31
0.0
  0
ARC
  5
3066
  8
AM_0
 10
452.2587090329539
 20
569.09200682702874
 30
0.0
 40
3.0000000500000001
 50
90.00000299999769
 51
180.00001000000091
  0
LINE
  5
3067
  8
AM_0
 10
465.92865903295422
 20
600.07529682702875
 30
0.0
 11
481.72280903295359
 21
627.43174682702875
 31
0.0
  0
LINE
  5
3068
  8
AM_0
 10
483.25870903295419
 20
590.0885968270286
 30
0.0
 11
483.25870903295419
 21
619.81919682702835
 31
0.0
  0
ARC
  5
3069
  8
AM_0
 10
470.25870903295419
 20
597.57529682702875
 30
0.0
 40
5.0
 50
149.9999999999992
 51
180.00001000000091
  0
ARC
  5
306A
  8
AM_0
 10
496.25875903295372
 20
596.08864682702847
 30
0.0
 40
2.0000000500000001
 50
90.00000299999769
 51
180.00001000000091
  0
LINE
  5
306B
  8
AM_0
 10
484.32090903295398
 20
628.93174682702875
 30
0.0
 11
491.25875903295372
 21
628.93174682702875
 31
0.0
  0
ARC
  5
306C
  8
AM_0
 10
484.32090903295398
 20
625.93169682702876
 30
0.0
 40
3.0000000500000001
 50
90.00000299999769
 51
149.9999999999992
  0
ARC
  5
306D
  8
AM_0
 10
485.25870903295402
 20
619.81919682702835
 30
0.0
 40
2.0000000500000001
 50
90.00000299999769
 51
180.00001000000091
  0
CIRCLE
  5
306E
  8
AM_0
 10
606.75870903295367
 20
728.09199682702865
 30
0.0
 40
15.0
  0
ARC
  5
306F
  8
AM_0
 10
606.75870903295367
 20
728.09199682702865
 30
0.0
 40
25.000000499999999
 50
306.46672000000012
 51
233.5332899999996
  0
LINE
  5
3070
  8
AM_0
 10
596.58420903295405
 20
700.33984682702862
 30
0.0
 11
646.75870903295356
 21
702.09199682702877
 31
0.0
  0
LINE
  5
3071
  8
AM_0
 10
593.75875903295355
 20
702.09199682702877
 30
0.0
 11
646.75870903295356
 21
702.09199682702877
 31
0.0
  0
LINE
  5
3072
  8
AM_0
 10
525.25870903295424
 20
608.76684682702864
 30
0.0
 11
571.75870903295356
 21
608.76684682702864
 31
0.0
  0
LINE
  5
3073
  8
AM_0
 10
525.25870903295424
 20
593.02479682702835
 30
0.0
 11
571.75870903295356
 21
593.02479682702835
 31
0.0
  0
LINE
  5
3074
  8
AM_0
 10
624.75875903295389
 20
593.31699682702845
 30
0.0
 11
624.75875903295389
 21
560.14281682702858
 31
0.0
  0
ARC
  5
3075
  8
AM_0
 10
596.75870903295356
 20
553.1428168270287
 30
0.0
 40
5.0
 50
90.00000299999769
 51
180.00001000000091
  0
LINE
  5
3076
  8
AM_0
 10
596.75870903295356
 20
558.1428168270287
 30
0.0
 11
622.75870903295424
 21
558.1428168270287
 31
0.0
  0
ARC
  5
3077
  8
AM_0
 10
622.75870903295424
 20
560.14281682702858
 30
0.0
 40
2.0000000500000001
 50
270.0
 51
0.0
  0
ARC
  5
3078
  8
AM_0
 10
596.75870903295356
 20
600.31699682702867
 30
0.0
 40
5.0
 50
179.9999899999988
 51
270.0
  0
LINE
  5
3079
  8
AM_0
 10
596.75870903295356
 20
595.31699682702867
 30
0.0
 11
622.75870903295424
 21
595.31699682702867
 31
0.0
  0
ARC
  5
307A
  8
AM_0
 10
622.75870903295424
 20
593.31699682702845
 30
0.0
 40
2.0000000500000001
 50
0.0
 51
90.00000299999769
  0
LINE
  5
307B
  8
AM_0
 10
527.25875903295366
 20
634.09199682702865
 30
0.0
 11
566.75870903295356
 21
634.09199682702865
 31
0.0
  0
LINE
  5
307C
  8
AM_0
 10
512.25875903295366
 20
642.09199682702865
 30
0.0
 11
523.25870903295424
 21
642.09199682702865
 31
0.0
  0
LINE
  5
307D
  8
AM_0
 10
497.25875903295372
 20
642.09199682702865
 30
0.0
 11
512.25875903295366
 21
642.09199682702865
 31
0.0
  0
ARC
  5
307E
  8
AM_0
 10
527.25875903295366
 20
636.09199682702865
 30
0.0
 40
2.0000000500000001
 50
179.9999899999988
 51
270.0
  0
ARC
  5
307F
  8
AM_0
 10
523.25870903295424
 20
640.09199682702865
 30
0.0
 40
2.0000000500000001
 50
0.0
 51
90.00000299999769
  0
ARC
  5
3080
  8
AM_0
 10
596.75870903295356
 20
670.21264682702872
 30
0.0
 40
5.0
 50
90.00000299999769
 51
180.00001000000091
  0
ARC
  5
3081
  8
AM_0
 10
581.75870903295367
 20
675.89819682702864
 30
0.0
 40
10.0
 50
308.65980999999641
 51
0.0
  0
ARC
  5
3082
  8
AM_0
 10
581.75870903295367
 20
650.28569682702835
 30
0.0
 40
10.0
 50
128.65980999999641
 51
180.00001000000091
  0
ARC
  5
3083
  8
AM_0
 10
566.75870903295356
 20
639.09199682702877
 30
0.0
 40
5.0
 50
270.0
 51
0.0
  0
LINE
  5
3084
  8
AM_0
 10
588.00570903295409
 20
668.0895468270287
 30
0.0
 11
575.51175903295405
 21
658.09439682702873
 31
0.0
  0
ARC
  5
3085
  8
AM_0
 10
596.75870903295356
 20
696.83954682702881
 30
0.0
 40
5.0
 50
179.9999899999988
 51
270.0
  0
ARC
  5
3086
  8
AM_0
 10
597.47515903295414
 20
710.23209682702884
 30
0.0
 40
1.0
 50
101.21328999999869
 51
164.99998999999869
  0
ARC
  5
3087
  8
AM_0
 10
596.75870903295356
 20
695.34289682702865
 30
0.0
 40
5.0
 50
91.999998000000545
 51
180.00001000000091
  0
LINE
  5
3088
  8
AM_0
 10
594.25870903295367
 20
702.09199682702877
 30
0.0
 11
596.50920903295366
 21
710.49089682702868
 31
0.0
  0
ARC
  5
3089
  8
AM_0
 10
593.75875903295355
 20
700.09204682702875
 30
0.0
 40
2.0000000500000001
 50
90.00000299999769
 51
180.00001000000091
  0
ARC
  5
308A
  8
AM_0
 10
588.33370903295395
 20
703.16169682702855
 30
0.0
 40
6.0
 50
349.72994999999878
 51
53.533291000000993
  0
LINE
  5
308B
  8
AM_0
 10
596.75870903295356
 20
691.83954682702847
 30
0.0
 11
622.75870903295424
 21
691.83954682702847
 31
0.0
  0
LINE
  5
308C
  8
AM_0
 10
596.75870903295356
 20
675.21264682702872
 30
0.0
 11
622.75870903295424
 21
675.21264682702872
 31
0.0
  0
ARC
  5
308D
  8
AM_0
 10
622.75870903295424
 20
689.83954682702881
 30
0.0
 40
2.0000000500000001
 50
0.0
 51
90.00000299999769
  0
ARC
  5
308E
  8
AM_0
 10
622.75870903295424
 20
677.21264682702872
 30
0.0
 40
2.0000000500000001
 50
270.0
 51
0.0
  0
LINE
  5
308F
  8
AM_0
 10
624.75875903295389
 20
689.83954682702881
 30
0.0
 11
624.75875903295389
 21
677.21264682702872
 31
0.0
  0
LINE
  5
3090
  8
AM_0
 10
596.96470903295392
 20
711.09199682702865
 30
0.0
 11
616.55280903295443
 21
711.09199682702865
 31
0.0
  0
LINE
  5
3091
  8
AM_0
 10
606.75885903295409
 20
713.09189682702845
 30
0.0
 11
616.23680903295406
 21
711.21294682702865
 31
0.0
  0
LINE
  5
3092
  8
AM_0
 10
597.28070903295395
 20
711.21299682702875
 30
0.0
 11
606.75870903295367
 21
713.09199682702865
 31
0.0
  0
LINE
  5
3093
  8
AM_0
 10
619.25870903295367
 20
702.09204682702875
 30
0.0
 11
617.00830903295389
 21
710.49089682702868
 31
0.0
  0
ARC
  5
3094
  8
AM_0
 10
625.18375903295396
 20
703.16169682702855
 30
0.0
 40
6.0
 50
126.46669999999671
 51
190.27005999999909
  0
ARC
  5
3095
  8
AM_0
 10
616.0423590329541
 20
710.23209682702884
 30
0.0
 40
1.0
 50
15.000000000000741
 51
78.786710000001207
  0
ARC
  5
3096
  8
AM_0
 10
738.25870903295424
 20
606.01889682702836
 30
0.0
 40
15.0
 50
90.00000299999769
 51
180.00001000000091
  0
LINE
  5
3097
  8
AM_0
 10
738.25870903295424
 20
621.01889682702836
 30
0.0
 11
753.25870903295424
 21
621.01889682702836
 31
0.0
  0
LINE
  5
3098
  8
AM_0
 10
688.473909032954
 20
695.63219682702868
 30
0.0
 11
743.60770903295395
 21
693.70689682702869
 31
0.0
  0
LINE
  5
3099
  8
AM_0
 10
646.75875903295389
 20
702.09199682702877
 30
0.0
 11
671.77525903295395
 21
701.21839682702876
 31
0.0
  0
ARC
  5
309A
  8
AM_0
 10
688.82290903295416
 20
705.62614682702826
 30
0.0
 40
10.0
 50
239.99999999999949
 51
268.00000000000261
  0
ARC
  5
309B
  8
AM_0
 10
671.0772090329541
 20
681.23054682702866
 30
0.0
 40
20.000000499999999
 50
60.000002000001302
 51
88.000000000002785
  0
LINE
  5
309C
  8
AM_0
 10
681.0772090329541
 20
698.55109682702835
 30
0.0
 11
683.82290903295404
 21
696.96589682702847
 31
0.0
  0
ARC
  5
309D
  8
AM_0
 10
763.25870903295424
 20
673.87994682702868
 30
0.0
 40
10.0
 50
179.9999899999988
 51
265.0
  0
ARC
  5
309E
  8
AM_0
 10
743.25870903295424
 20
683.71294682702865
 30
0.0
 40
10.0
 50
0.0
 51
88.000000000002785
  0
LINE
  5
309F
  8
AM_0
 10
900.258759032954
 20
604.09199682702865
 30
0.0
 11
900.258759032954
 21
540.0919768270287
 31
0.0
  0
LINE
  5
30A0
  8
AM_0
 10
795.25870903295424
 20
602.59199682702865
 30
0.0
 11
795.25870903295424
 21
537.5919768270287
 31
0.0
  0
LINE
  5
30A1
  8
AM_0
 10
789.2587090329539
 20
632.19489682702874
 30
0.0
 11
789.2587090329539
 21
507.98904182702847
 31
0.0
  0
LINE
  5
30A2
  8
AM_0
 10
783.25870903295424
 20
654.76129682702867
 30
0.0
 11
783.25870903295424
 21
377.09197182702871
 31
0.0
  0
CIRCLE
  5
30A3
  8
AM_0
 10
1237.188727281487
 20
570.0919768270287
 30
0.0
 40
65.0
  0
LINE
  5
30A4
  8
ﾁｭｳｼﾝｾﾝ
 10
1237.188727281487
 20
761.86977032741015
 30
0.0
 11
1237.188727281487
 21
335.6544568270287
 31
0.0
  0
LINE
  5
30A5
  8
AM_0
 10
1374.0071022814871
 20
601.89354682702879
 30
0.0
 11
1417.1886972814871
 21
379.74349182702872
 31
0.0
  0
LINE
  5
30A6
  8
AM_0
 10
1367.188712281486
 20
619.39399682702845
 30
0.0
 11
1367.188712281486
 21
482.09197682702847
 31
0.0
  0
LINE
  5
30A7
  8
AM_0
 10
1344.1886972814871
 20
555.09197682702847
 30
0.0
 11
1344.1886972814871
 21
392.09197182702871
 31
0.0
  0
LINE
  5
30A8
  8
AM_0
 10
1130.1886972814871
 20
555.09197682702847
 30
0.0
 11
1130.1886972814871
 21
392.09197182702871
 31
0.0
  0
LINE
  5
30A9
  8
AM_0
 10
1107.188727281487
 20
619.39399682702845
 30
0.0
 11
1107.188727281487
 21
482.09197682702847
 31
0.0
  0
LINE
  5
30AA
  8
AM_0
 10
1100.370272281486
 20
601.89354682702879
 30
0.0
 11
1057.188712281486
 21
379.74349182702872
 31
0.0
  0
ARC
  5
30AB
  8
AM_0
 10
1237.188727281487
 20
570.0919768270287
 30
0.0
 40
30.000000499999999
 50
107.45760000000089
 51
72.542383999997952
  0
LINE
  5
30AC
  8
AM_0
 10
1417.1887122814869
 20
345.09197182702871
 30
0.0
 11
1337.1887122814881
 21
345.09197182702871
 31
0.0
  0
ARC
  5
30AD
  8
AM_0
 10
1237.188727281487
 20
482.09197682702847
 30
0.0
 40
130.0
 50
325.39400000000001
 51
0.0
  0
LINE
  5
30AE
  8
AM_0
 10
1412.1887122814881
 20
377.09197182702871
 30
0.0
 11
1342.1887122814869
 21
377.09197182702871
 31
0.0
  0
ARC
  5
30AF
  8
AM_0
 10
1359.1886972814871
 20
392.09197182702871
 30
0.0
 40
15.0
 50
179.9999899999988
 51
270.0
  0
LINE
  5
30B0
  8
AM_0
 10
1057.188712281486
 20
345.09197182702871
 30
0.0
 11
1137.188727281487
 21
345.09197182702871
 31
0.0
  0
LINE
  5
30B1
  8
AM_0
 10
1062.188712281486
 20
377.09197182702871
 30
0.0
 11
1132.188727281487
 21
377.09197182702871
 31
0.0
  0
LINE
  5
30B2
  8
AM_0
 10
789.2587090329539
 20
372.09197182702871
 30
0.0
 11
789.2587090329539
 21
345.09197182702871
 31
0.0
  0
LINE
  5
30B3
  8
AM_0
 10
1057.188712281486
 20
379.74346182702868
 30
0.0
 11
1057.188712281486
 21
345.09197182702871
 31
0.0
  0
LINE
  5
30B4
  8
ｶｸﾚｾﾝ2
 10
771.25875903295389
 20
377.09197182702871
 30
0.0
 11
771.25875903295389
 21
345.09197182702871
 31
0.0
  0
LINE
  5
30B5
  8
AM_0
 10
795.25870903295424
 20
540.0919768270287
 30
0.0
 11
900.258759032954
 21
540.0919768270287
 31
0.0
  0
ARC
  5
30B6
  8
AM_0
 10
784.2587090329539
 20
372.09197182702871
 30
0.0
 40
5.0
 50
0.0
 51
90.00000299999769
  0
ARC
  5
30B7
  8
AM_0
 10
786.258759032954
 20
507.98904182702847
 30
0.0
 40
3.0000000500000001
 50
271.9999999999971
 51
0.0
  0
ARC
  5
30B8
  8
AM_0
 10
786.258759032954
 20
501.98540682702873
 30
0.0
 40
3.0000000500000001
 50
91.999998000000545
 51
180.00001000000091
  0
LINE
  5
30B9
  8
AM_0
 10
786.15405903295391
 20
504.98357682702868
 30
0.0
 11
786.36345903295376
 21
504.99087182702868
 31
0.0
  0
LINE
  5
30BA
  8
AM_0
 10
789.2587090329539
 20
537.5919768270287
 30
0.0
 11
795.25870903295424
 21
537.5919768270287
 31
0.0
  0
ARC
  5
30BB
  8
AM_0
 10
1062.188712281486
 20
372.09197182702871
 30
0.0
 40
5.0
 50
90.00000299999769
 51
180.00001000000091
  0
LINE
  5
30BC
  8
AM_0
 10
1137.188727281487
 20
372.09197182702871
 30
0.0
 11
1137.188727281487
 21
345.09197182702871
 31
0.0
  0
LINE
  5
30BD
  8
AM_0
 10
1337.1887122814881
 20
372.09197182702871
 30
0.0
 11
1337.1887122814881
 21
345.09197182702871
 31
0.0
  0
LINE
  5
30BE
  8
ｶｸﾚｾﾝ2
 10
1104.1887272814861
 20
377.09197182702871
 30
0.0
 11
1104.1887272814861
 21
345.09197182702871
 31
0.0
  0
LINE
  5
30BF
  8
ｶｸﾚｾﾝ2
 10
1080.1887122814869
 20
377.09197182702871
 30
0.0
 11
1080.1887122814869
 21
345.09197182702871
 31
0.0
  0
LINE
  5
30C0
  8
AM_0
 10
1177.243567281487
 20
357.86168682702868
 30
0.0
 11
1237.188727281487
 21
357.86168682702868
 31
0.0
  0
LINE
  5
30C1
  8
AM_0
 10
1140.1886972814871
 20
348.09197182702871
 30
0.0
 11
1237.188727281487
 21
348.09197182702871
 31
0.0
  0
LINE
  5
30C2
  8
AM_0
 10
1140.1176522814869
 20
358.02089682702859
 30
0.0
 11
1148.241767281487
 21
366.14501182702872
 31
0.0
  0
ARC
  5
30C3
  8
AM_0
 10
1140.1886972814871
 20
345.09197182702871
 30
0.0
 40
3.0000000500000001
 50
90.00000299999769
 51
180.00001000000091
  0
ARC
  5
30C4
  8
AM_0
 10
1147.188727281487
 20
350.94985182702868
 30
0.0
 40
10.0
 50
135.0
 51
180.00001000000091
  0
LINE
  5
30C5
  8
AM_0
 10
1171.365697281487
 20
359.77150682702882
 30
0.0
 11
1161.1906472814869
 21
367.16411682702881
 31
0.0
  0
ARC
  5
30C6
  8
AM_0
 10
1155.312812281486
 20
359.07393682702872
 30
0.0
 40
10.0
 50
54.000001999999917
 51
135.0
  0
ARC
  5
30C7
  8
AM_0
 10
1177.243567281487
 20
367.86168682702868
 30
0.0
 40
10.0
 50
233.9999999999971
 51
270.0
  0
LINE
  5
30C8
  8
AM_0
 10
1334.1886972814871
 20
348.09197182702871
 30
0.0
 11
1237.188727281487
 21
348.09197182702871
 31
0.0
  0
LINE
  5
30C9
  8
AM_0
 10
1297.1338572814871
 20
357.86168682702868
 30
0.0
 11
1237.188727281487
 21
357.86168682702868
 31
0.0
  0
LINE
  5
30CA
  8
AM_0
 10
1303.011667281487
 20
359.77153682702868
 30
0.0
 11
1313.1867422814871
 21
367.16414682702867
 31
0.0
  0
ARC
  5
30CB
  8
AM_0
 10
1297.1338572814871
 20
367.86168682702868
 30
0.0
 40
10.0
 50
270.0
 51
306.00000000000261
  0
ARC
  5
30CC
  8
AM_0
 10
1334.1886972814871
 20
345.09197182702871
 30
0.0
 40
3.0000000500000001
 50
0.0
 51
90.00000299999769
  0
LINE
  5
30CD
  8
AM_0
 10
1334.2597722814869
 20
358.02092682702852
 30
0.0
 11
1326.1356572814871
 21
366.14501182702872
 31
0.0
  0
ARC
  5
30CE
  8
AM_0
 10
1319.064582281487
 20
359.07393682702872
 30
0.0
 40
10.0
 50
45.000001000003799
 51
126.0000000000027
  0
ARC
  5
30CF
  8
AM_0
 10
1327.188727281487
 20
350.94985182702868
 30
0.0
 40
10.0
 50
0.0
 51
45.000001000003799
  0
ARC
  5
30D0
  8
AM_0
 10
1237.188727281487
 20
482.09197682702847
 30
0.0
 40
130.0
 50
179.9999899999988
 51
214.60599000000229
  0
ARC
  5
30D1
  8
AM_0
 10
1115.1886922814861
 20
392.09197182702871
 30
0.0
 40
15.0
 50
270.0
 51
0.0
  0
ARC
  5
30D2
  8
AM_0
 10
1132.188727281487
 20
372.09197182702871
 30
0.0
 40
5.0
 50
0.0
 51
90.00000299999769
  0
ARC
  5
30D3
  8
AM_0
 10
1342.1887122814869
 20
372.09197182702871
 30
0.0
 40
5.0
 50
90.00000299999769
 51
180.00001000000091
  0
LINE
  5
30D4
  8
AM_0
 10
1417.1887122814869
 20
379.74346182702868
 30
0.0
 11
1417.1887122814869
 21
345.09197182702871
 31
0.0
  0
LINE
  5
30D5
  8
ﾁｭｳｼﾝｾﾝ1
 10
1382.1887122814869
 20
381.93038182702873
 30
0.0
 11
1382.1887122814869
 21
338.85241182702862
 31
0.0
  0
LINE
  5
30D6
  8
ｶｸﾚｾﾝ2
 10
1394.1886972814871
 20
377.09197182702871
 30
0.0
 11
1394.1886972814871
 21
345.09197182702871
 31
0.0
  0
LINE
  5
30D7
  8
ｶｸﾚｾﾝ2
 10
1370.188712281486
 20
377.09197182702871
 30
0.0
 11
1370.188712281486
 21
345.09197182702871
 31
0.0
  0
ARC
  5
30D8
  8
AM_0
 10
1412.1887122814881
 20
372.09197182702871
 30
0.0
 40
5.0
 50
0.0
 51
90.00000299999769
  0
ARC
  5
30D9
  8
AM_0
 10
1256.211857281487
 20
578.99648682702878
 30
0.0
 40
120.0
 50
10.999999999998691
 51
71.515243000000595
  0
ARC
  5
30DA
  8
AM_0
 10
1257.324257281487
 20
573.27361682702872
 30
0.0
 40
120.0
 50
10.999999999998691
 51
68.524651000000731
  0
ARC
  5
30DB
  8
AM_0
 10
1237.188727281487
 20
555.09197682702847
 30
0.0
 40
107.0
 50
0.0
 51
90.00000299999769
  0
LINE
  5
30DC
  8
AM_0
 10
795.25870903295424
 20
600.09199682702865
 30
0.0
 11
900.258759032954
 21
600.09199682702865
 31
0.0
  0
LINE
  5
30DD
  8
AM_0
 10
819.25870903295367
 20
604.09199682702865
 30
0.0
 11
900.258759032954
 21
604.09199682702865
 31
0.0
  0
LINE
  5
30DE
  8
AM_0
 10
789.2587090329539
 20
602.59199682702865
 30
0.0
 11
795.25870903295424
 21
602.59199682702865
 31
0.0
  0
LINE
  5
30DF
  8
AM_0
 10
819.25870903295367
 20
604.09199682702865
 30
0.0
 11
819.25870903295367
 21
600.09199682702865
 31
0.0
  0
ARC
  5
30E0
  8
AM_0
 10
786.258759032954
 20
632.19489682702874
 30
0.0
 40
3.0000000500000001
 50
0.0
 51
88.000000000002785
  0
ARC
  5
30E1
  8
AM_0
 10
786.258759032954
 20
638.19854682702862
 30
0.0
 40
3.0000000500000001
 50
179.9999899999988
 51
268.00000999999861
  0
LINE
  5
30E2
  8
AM_0
 10
786.15405903295391
 20
635.20039682702873
 30
0.0
 11
786.36345903295376
 21
635.19304682702864
 31
0.0
  0
ARC
  5
30E3
  8
AM_0
 10
775.25870903295424
 20
654.76129682702867
 30
0.0
 40
8.0
 50
0.0
 51
84.999996999998885
  0
LINE
  5
30E4
  8
AM_0
 10
1242.188727281487
 20
748.09199682702865
 30
0.0
 11
1242.188727281487
 21
706.09199682702877
 31
0.0
  0
LINE
  5
30E5
  8
AM_0
 10
1232.188727281487
 20
748.09199682702865
 30
0.0
 11
1232.188727281487
 21
706.09199682702877
 31
0.0
  0
LINE
  5
30E6
  8
ﾁｭｳｼﾝｾﾝ
 10
1328.3544552950341
 20
570.0919768270287
 30
0.0
 11
1145.3460490379659
 21
570.0919768270287
 31
0.0
  0
ARC
  5
30E7
  8
AM_0
 10
1237.188727281487
 20
522.09197682702847
 30
0.0
 40
175.0000049999999
 50
90.00000299999769
 51
111.4753500000013
  0
ARC
  5
30E8
  8
AM_0
 10
1237.188727281487
 20
522.09197682702847
 30
0.0
 40
180.0000049999999
 50
90.00000299999769
 51
108.4847599999984
  0
ARC
  5
30E9
  8
AM_0
 10
1237.188727281487
 20
555.09197682702847
 30
0.0
 40
107.0
 50
90.00000299999769
 51
180.00001000000091
  0
ARC
  5
30EA
  8
AM_0
 10
1217.0531372814869
 20
573.27361682702872
 30
0.0
 40
120.0
 50
111.4753500000013
 51
169.00000000000131
  0
ARC
  5
30EB
  8
AM_0
 10
1218.1655922814871
 20
578.99648682702878
 30
0.0
 40
120.0
 50
108.4847599999984
 51
169.00000000000131
  0
ARC
  5
30EC
  8
AM_0
 10
1117.1887272814861
 20
619.39399682702845
 30
0.0
 40
10.0
 50
155.21109000000271
 51
180.00001000000091
  0
CIRCLE
  5
30ED
  8
AM_0
 10
1237.188727281487
 20
570.0919768270287
 30
0.0
 40
4.500000049999997
  0
CIRCLE
  5
30EE
  8
AM_5
 10
1237.188727281487
 20
570.0919768270287
 30
0.0
 40
6.0
  0
LINE
  5
30EF
  8
AM_0
 10
1228.1886972814871
 20
593.09199682702865
 30
0.0
 11
1246.1886972814871
 21
593.09199682702865
 31
0.0
  0
LINE
  5
30F0
  8
AM_0
 10
1228.1886972814871
 20
604.09199682702865
 30
0.0
 11
1246.1886972814871
 21
604.09199682702865
 31
0.0
  0
LINE
  5
30F1
  8
AM_0
 10
1228.1886972814871
 20
604.09199682702865
 30
0.0
 11
1228.1886972814871
 21
593.09199682702865
 31
0.0
  0
LINE
  5
30F2
  8
AM_0
 10
1246.1886972814871
 20
604.09199682702865
 30
0.0
 11
1246.1886972814871
 21
593.09199682702865
 31
0.0
  0
ARC
  5
30F3
  8
AM_0
 10
1237.188727281487
 20
522.09197682702847
 30
0.0
 40
175.0000049999999
 50
68.524644999998387
 51
90.00000299999769
  0
ARC
  5
30F4
  8
AM_0
 10
1237.188727281487
 20
522.09197682702847
 30
0.0
 40
180.0000049999999
 50
71.515243000000595
 51
90.00000299999769
  0
LINE
  5
30F5
  8
AM_0
 10
1242.188727281487
 20
712.10074682702862
 30
0.0
 11
1246.666787281488
 21
711.21299682702875
 31
0.0
  0
LINE
  5
30F6
  8
AM_0
 10
1227.7106672814871
 20
711.21294682702865
 30
0.0
 11
1232.1886972814871
 21
712.10069682702886
 31
0.0
  0
ARC
  5
30F7
  8
AM_0
 10
1227.905127281487
 20
710.23209682702884
 30
0.0
 40
1.0
 50
101.21328999999869
 51
164.99998999999869
  0
LINE
  5
30F8
  8
AM_0
 10
1224.5700422814871
 20
701.64909682702876
 30
0.0
 11
1226.9391822814871
 21
710.49089682702868
 31
0.0
  0
ARC
  5
30F9
  8
AM_0
 10
1230.1886972814871
 20
706.09199682702877
 30
0.0
 40
2.0000000500000001
 50
270.0
 51
0.0
  0
ARC
  5
30FA
  8
AM_0
 10
1244.188727281487
 20
706.09199682702877
 30
0.0
 40
2.0000000500000001
 50
179.9999899999988
 51
270.0
  0
ARC
  5
30FB
  8
AM_0
 10
1246.472327281487
 20
710.23209682702884
 30
0.0
 40
1.0
 50
15.000000000000741
 51
78.786710000001207
  0
LINE
  5
30FC
  8
AM_0
 10
1249.807347281487
 20
701.64914682702874
 30
0.0
 11
1247.438207281486
 21
710.49089682702868
 31
0.0
  0
ARC
  5
30FD
  8
AM_0
 10
1237.188727281487
 20
748.09199682702865
 30
0.0
 40
5.0
 50
0.0
 51
179.9999899999988
  0
ARC
  5
30FE
  8
AM_0
 10
1357.188712281486
 20
619.39399682702845
 30
0.0
 40
10.0
 50
0.0
 51
24.788911000003161
  0
LINE
  5
30FF
  8
ﾁｭｳｼﾝｾﾝ
 10
1122.931434668141
 20
461.59200682702868
 30
0.0
 11
1351.446019894832
 21
461.59200682702868
 31
0.0
  0
LINE
  5
3100
  8
ﾁｭｳｼﾝｾﾝ1
 10
1092.1887122814869
 20
381.93038182702873
 30
0.0
 11
1092.1887122814869
 21
338.85241182702862
 31
0.0
  0
LINE
  5
3101
  8
ﾁｭｳｼﾝｾﾝ1
 10
759.25875903295389
 20
381.93038182702873
 30
0.0
 11
759.25875903295389
 21
338.85241182702862
 31
0.0
  0
LINE
  5
3102
  8
ﾁｭｳｼﾝｾﾝ1
 10
559.25875903295378
 20
381.93038182702873
 30
0.0
 11
559.25875903295378
 21
338.85241182702862
 31
0.0
  0
TEXT
  5
32F1
  8
AM_0
 10
1056.646490563742
 20
1130.4359945313779
 30
0.0
 40
20.0
  1
VX22-240A~VX22-300A
  0
ENDSEC
  0
EOF
