  0
SECTION
  2
HEADER
  9
$ACADVER
  1
AC1009
  9
$INSBASE
 10
0.0
 20
0.0
 30
0.0
  9
$EXTMIN
 10
295.0445974665281
 20
304.02155198095443
 30
-0.0000000349181948
  9
$EXTMAX
 10
1100.106318549492
 20
1005.397332905002
 30
0.0000000814935747
  9
$LIMMIN
 10
0.0
 20
0.0
  9
$LIMMAX
 10
1422.5
 20
925.0
  9
$ORTHOMODE
 70
     0
  9
$REGENMODE
 70
     1
  9
$FILLMODE
 70
     1
  9
$QTEXTMODE
 70
     0
  9
$MIRRTEXT
 70
     1
  9
$DRAGMODE
 70
     2
  9
$LTSCALE
 40
5.0
  9
$OSMODE
 70
   551
  9
$ATTMODE
 70
     1
  9
$TEXTSIZE
 40
2.5
  9
$TRACEWID
 40
1.0
  9
$TEXTSTYLE
  7
STANDARD
  9
$CLAYER
  8
AM_0
  9
$CELTYPE
  6
BYLAYER
  9
$CECOLOR
 62
   256
  9
$DIMSCALE
 40
1.0
  9
$DIMASZ
 40
2.5
  9
$DIMEXO
 40
1.0
  9
$DIMDLI
 40
8.0
  9
$DIMRND
 40
0.0
  9
$DIMDLE
 40
0.0
  9
$DIMEXE
 40
0.6
  9
$DIMTP
 40
0.1
  9
$DIMTM
 40
0.1
  9
$DIMTXT
 40
2.5
  9
$DIMCEN
 40
0.0
  9
$DIMTSZ
 40
0.0
  9
$DIMTOL
 70
     0
  9
$DIMLIM
 70
     0
  9
$DIMTIH
 70
     0
  9
$DIMTOH
 70
     0
  9
$DIMSE1
 70
     0
  9
$DIMSE2
 70
     0
  9
$DIMTAD
 70
     1
  9
$DIMZIN
 70
     8
  9
$DIMBLK
  1

  9
$DIMASO
 70
     1
  9
$DIMSHO
 70
     1
  9
$DIMPOST
  1

  9
$DIMAPOST
  1
"
  9
$DIMALT
 70
     0
  9
$DIMALTD
 70
     2
  9
$DIMALTF
 40
0.0393701
  9
$DIMLFAC
 40
1.0
  9
$DIMTOFL
 70
     1
  9
$DIMTVP
 40
0.0
  9
$DIMTIX
 70
     0
  9
$DIMSOXD
 70
     0
  9
$DIMSAH
 70
     0
  9
$DIMBLK1
  1

  9
$DIMBLK2
  1

  9
$DIMSTYLE
  2
AM_ISO
  9
$DIMCLRD
 70
   256
  9
$DIMCLRE
 70
   256
  9
$DIMCLRT
 70
     4
  9
$DIMTFAC
 40
0.71
  9
$DIMGAP
 40
0.8
  9
$LUNITS
 70
     2
  9
$LUPREC
 70
     2
  9
$SKETCHINC
 40
1.0
  9
$FILLETRAD
 40
25.0
  9
$AUNITS
 70
     0
  9
$AUPREC
 70
     0
  9
$MENU
  1
.
  9
$ELEVATION
 40
0.0
  9
$PELEVATION
 40
0.0
  9
$THICKNESS
 40
0.0
  9
$LIMCHECK
 70
     0
  9
$BLIPMODE
 70
     0
  9
$CHAMFERA
 40
10.0
  9
$CHAMFERB
 40
5.0
  9
$SKPOLY
 70
     0
  9
$TDCREATE
 40
2452066.694432871
  9
$TDUPDATE
 40
2458541.4770642021
  9
$TDINDWG
 40
0.0954920949
  9
$TDUSRTIMER
 40
0.0954918866
  9
$USRTIMER
 70
     1
  9
$ANGBASE
 50
0.0
  9
$ANGDIR
 70
     0
  9
$PDMODE
 70
     0
  9
$PDSIZE
 40
0.0
  9
$PLINEWID
 40
0.0
  9
$COORDS
 70
     1
  9
$SPLFRAME
 70
     0
  9
$SPLINETYPE
 70
     6
  9
$SPLINESEGS
 70
     8
  9
$ATTDIA
 70
     1
  9
$ATTREQ
 70
     1
  9
$HANDLING
 70
     1
  9
$HANDSEED
  5
319F
  9
$SURFTAB1
 70
     6
  9
$SURFTAB2
 70
     6
  9
$SURFTYPE
 70
     6
  9
$SURFU
 70
     6
  9
$SURFV
 70
     6
  9
$UCSNAME
  2

  9
$UCSORG
 10
0.0
 20
0.0
 30
0.0
  9
$UCSXDIR
 10
1.0
 20
0.0
 30
0.0
  9
$UCSYDIR
 10
0.0
 20
1.0
 30
0.0
  9
$PUCSNAME
  2

  9
$PUCSORG
 10
0.0
 20
0.0
 30
0.0
  9
$PUCSXDIR
 10
1.0
 20
0.0
 30
0.0
  9
$PUCSYDIR
 10
0.0
 20
1.0
 30
0.0
  9
$USERI1
 70
     0
  9
$USERI2
 70
     0
  9
$USERI3
 70
     0
  9
$USERI4
 70
     0
  9
$USERI5
 70
     0
  9
$USERR1
 40
0.0
  9
$USERR2
 40
0.0
  9
$USERR3
 40
0.0
  9
$USERR4
 40
0.0
  9
$USERR5
 40
0.0
  9
$WORLDVIEW
 70
     1
  9
$SHADEDGE
 70
     3
  9
$SHADEDIF
 70
    70
  9
$TILEMODE
 70
     1
  9
$MAXACTVP
 70
    64
  9
$PLIMCHECK
 70
     0
  9
$PEXTMIN
 10
1.0000000000000000E+020
 20
1.0000000000000000E+020
 30
1.0000000000000000E+020
  9
$PEXTMAX
 10
-1.0000000000000000E+020
 20
-1.0000000000000000E+020
 30
-1.0000000000000000E+020
  9
$PLIMMIN
 10
0.0
 20
0.0
  9
$PLIMMAX
 10
420.0
 20
297.0
  9
$UNITMODE
 70
     0
  9
$VISRETAIN
 70
     1
  9
$PLINEGEN
 70
     0
  9
$PSLTSCALE
 70
     1
  0
ENDSEC
  0
SECTION
  2
TABLES
  0
TABLE
  2
VPORT
 70
     1
  0
VPORT
  2
*ACTIVE
 70
     0
 10
0.0
 20
0.0
 11
1.0
 21
1.0
 12
697.5754580080104
 22
654.70944244297846
 13
0.0
 23
0.0
 14
12.5
 24
12.5
 15
50.0
 25
50.0
 16
0.0
 26
0.0
 36
1.0
 17
0.0
 27
0.0
 37
0.0
 40
706.19071763519742
 41
1.757159221076747
 42
50.0
 43
0.0
 44
0.0
 50
0.0
 51
0.0
 71
     0
 72
   100
 73
     1
 74
     3
 75
     0
 76
     0
 77
     0
 78
     0
  0
ENDTAB
  0
TABLE
  2
LTYPE
 70
    27
  0
LTYPE
  2
CONTINUOUS
 70
     0
  3
Solid line
 72
    65
 73
     0
 40
0.0
  0
LTYPE
  2
AM_ISO02W050
 70
     0
  3
__ __ __ __ __ __ __ __ __ __ __ __ __ __ __
 72
    65
 73
     2
 40
7.5
 49
6.0
 49
-1.5
  0
LTYPE
  2
AM_ISO08W050
 70
     0
  3
____ . ____ . ____ . ____ . ____ . ____ . ____
 72
    65
 73
     4
 40
18.0
 49
12.0
 49
-1.5
 49
3.0
 49
-1.5
  0
LTYPE
  2
AM_ISO09W050
 70
     0
  3
_____ . . _____ . . _____ . . ____ .. ____
 72
    65
 73
     6
 40
22.5
 49
12.0
 49
-1.5
 49
3.0
 49
-1.5
 49
3.0
 49
-1.5
  0
LTYPE
  2
AMCONSTR
 70
     0
  3
_______________________
 72
    65
 73
     2
 40
9999.0
 49
9999.0
 49
0.0
  0
LTYPE
  2
AM_ISO08W050X2
 70
     0
  3
__ . __ . __ . __ . __ . __
 72
    65
 73
     4
 40
9.0
 49
6.0
 49
-0.75
 49
1.5
 49
-0.75
  0
LTYPE
  2
AM_ISO02W050X2
 70
     0
  3
 _ _ _ _ _ _ _ _ _ _ _ _
 72
    65
 73
     2
 40
3.75
 49
3.0
 49
-0.75
  0
LTYPE
  2
AMZIGZAG
 70
     0
  3
/\/-/\/-/\/-/\/-/\/-/\/
 72
    65
 73
     2
 40
11.000099999999991
 49
0.0001
 49
-11.0
  0
LTYPE
  2
ACISOWELD
 70
     0
  3
_ _ _ _ _
 72
    65
 73
     2
 40
2.0
 49
2.0
 49
-1.0
  0
LTYPE
  2
ACISOTGB
 70
     0
  3
__ . . __ . .
 72
    65
 73
     6
 40
9.0
 49
4.0
 49
-1.0
 49
1.0
 49
-1.0
 49
1.0
 49
-1.0
  0
LTYPE
  2
ACISOTGL
 70
     0
  3
_ _ _ _ _
 72
    65
 73
     2
 40
3.0
 49
2.0
 49
-1.0
  0
LTYPE
  2
CENTER
 70
     0
  3
__ . __
 72
    65
 73
     4
 40
7.0
 49
4.0
 49
-1.0
 49
1.0
 49
-1.0
  0
LTYPE
  2
PHANTOM2
 70
     0
  3
Phantom (.5x) ___ _ _ ___ _ _ ___ _ _ ___ _ _
 72
    65
 73
     6
 40
31.75
 49
15.875
 49
-3.174999999999998
 49
3.174999999999998
 49
-3.174999999999998
 49
3.174999999999998
 49
-3.174999999999998
  0
LTYPE
  2
ACANSTGBM
 70
     0
  3
__ . . __ . .
 72
    65
 73
     6
 40
9.0
 49
4.0
 49
-1.0
 49
1.0
 49
-1.0
 49
1.0
 49
-1.0
  0
LTYPE
  2
ACANSTGLM
 70
     0
  3
_ _ _ _ _
 72
    65
 73
     2
 40
3.0
 49
2.0
 49
-1.0
  0
LTYPE
  2
GEN7
 70
     0
  3
____ . ____ . ____ . ____ . ____ . ____ . ____
 72
    65
 73
     4
 40
14.25
 49
9.75
 49
-1.5
 49
1.5
 49
-1.5
  0
LTYPE
  2
GEN3B
 70
     0
  3
 - - - - -
 72
    65
 73
     2
 40
1.0
 49
0.5
 49
-0.5
  0
LTYPE
  2
GEN7A
 70
     0
  3
__ . __ . __
 72
    65
 73
     4
 40
7.375
 49
4.75
 49
-0.875
 49
0.875
 49
-0.875
  0
LTYPE
  2
ACJISTGB
 70
     0
  3
__ . . __ . .
 72
    65
 73
     6
 40
9.0
 49
4.0
 49
-1.0
 49
1.0
 49
-1.0
 49
1.0
 49
-1.0
  0
LTYPE
  2
ACJISTGL
 70
     0
  3
_ _ _ _ _
 72
    65
 73
     2
 40
3.0
 49
2.0
 49
-1.0
  0
LTYPE
  2
HIDDEN
 70
     0
  3
Hidden __ __ __ __ __ __ __ __ __ __ __ __ __ _
 72
    65
 73
     2
 40
0.375
 49
0.25
 49
-0.125
  0
LTYPE
  2
CENTER2
 70
     0
  3
Center (.5x) ___ _ ___ _ ___ _ ___ _ ___ _ ___
 72
    65
 73
     4
 40
1.125
 49
0.75
 49
-0.125
 49
0.125
 49
-0.125
  0
LTYPE
  2
HIDDEN2
 70
     0
  3
Hidden (.5x) _ _ _ _ _ _ _ _ _ _ _ _ _ _ _ _ _
 72
    65
 73
     2
 40
0.1875
 49
0.125
 49
-0.0625
  0
LTYPE
  2
AMZIGZAG2
 70
     0
  3
/\/-/\/-/\/-/\/-/\/-/\/
 72
    65
 73
     2
 40
0.4401
 49
0.0001
 49
-0.4400000000000002
  0
LTYPE
  2
ACANSTGB
 70
     0
  3
__ . . __ . .
 72
    65
 73
     6
 40
0.35433070866
 49
0.15748031496
 49
-0.03937007874
 49
0.03937007874
 49
-0.03937007874
 49
0.03937007874
 49
-0.03937007874
  0
LTYPE
  2
ACANSTGL
 70
     0
  3
_ _ _ _ _
 72
    65
 73
     2
 40
0.11811023622
 49
0.07874015748
 49
-0.03937007874
  0
ENDTAB
  0
TABLE
  2
LAYER
 70
     7
  0
LAYER
  2
0
 70
     0
 62
     7
  6
CONTINUOUS
  0
LAYER
  2
AM_0
 70
     0
 62
     7
  6
CONTINUOUS
  0
LAYER
  2
AM_5
 70
     0
 62
     2
  6
CONTINUOUS
  0
LAYER
  2
DEFPOINTS
 70
     0
 62
     7
  6
CONTINUOUS
  0
LAYER
  2
ｶｸﾚｾﾝ2
 70
     0
 62
     3
  6
GEN3B
  0
LAYER
  2
ﾁｭｳｼﾝｾﾝ
 70
     0
 62
     1
  6
GEN7
  0
LAYER
  2
ﾁｭｳｼﾝｾﾝ1
 70
     0
 62
     1
  6
GEN7A
  0
ENDTAB
  0
TABLE
  2
STYLE
 70
     9
  0
STYLE
  2
STANDARD
 70
     0
 40
0.0
 41
0.8299999999999999
 50
0.0
 71
     0
 42
2.5
  3
txt.shx
  4
bigfont.shx
  0
STYLE
  2
ANNOTATIVE
 70
     0
 40
0.0
 41
1.0
 50
0.0
 71
     0
 42
0.2
  3
txt
  4

  0
STYLE
  2

 70
     1
 40
0.0
 41
1.0
 50
0.0
 71
     0
 42
2.5
  3
ltypeshp.shx
  4

  0
STYLE
  2
ACISOTS
 70
     0
 40
1.0
 41
1.0
 50
0.0
 71
     0
 42
2.5
  3
isocp.shx
  4
extfont.shx
  0
STYLE
  2
ACISOGDT
 70
     0
 40
0.0
 41
1.0
 50
0.0
 71
     0
 42
2.5
  3
amgdt.shx
  4

  0
STYLE
  2
ACANSTS
 70
     0
 40
1.0
 41
1.0
 50
0.0
 71
     0
 42
2.5
  3
romans.shx
  4
bigfont.shx
  0
STYLE
  2
ACANSGDT
 70
     0
 40
0.0
 41
1.0
 50
0.0
 71
     0
 42
2.5
  3
amgdt.shx
  4

  0
STYLE
  2
ACJISTS
 70
     0
 40
1.0
 41
1.0
 50
0.0
 71
     0
 42
2.5
  3
isocp.shx
  4
bigfont.shx
  0
STYLE
  2
ACJISGDT
 70
     0
 40
0.0
 41
1.0
 50
0.0
 71
     0
 42
2.5
  3
amgdt.shx
  4

  0
ENDTAB
  0
TABLE
  2
VIEW
 70
     6
  0
VIEW
  2
AM_VIEW1
 70
     0
 40
462.5
 10
416.07965009208078
 20
693.75
 41
832.15930018416213
 11
0.0
 21
0.0
 31
1.0
 12
0.0
 22
0.0
 32
0.0
 42
50.0
 43
0.0
 44
0.0
 50
0.0
 71
     0
  0
VIEW
  2
AM_VIEW2
 70
     0
 40
462.5
 10
1006.420349907918
 20
693.75
 41
832.15930018416213
 11
0.0
 21
0.0
 31
1.0
 12
0.0
 22
0.0
 32
0.0
 42
50.0
 43
0.0
 44
0.0
 50
0.0
 71
     0
  0
VIEW
  2
AM_VIEW3
 70
     0
 40
462.5
 10
416.07965009208078
 20
231.25
 41
832.15930018416213
 11
0.0
 21
0.0
 31
1.0
 12
0.0
 22
0.0
 32
0.0
 42
50.0
 43
0.0
 44
0.0
 50
0.0
 71
     0
  0
VIEW
  2
AM_VIEW4
 70
     0
 40
462.5
 10
1006.420349907918
 20
231.25
 41
832.15930018416213
 11
0.0
 21
0.0
 31
1.0
 12
0.0
 22
0.0
 32
0.0
 42
50.0
 43
0.0
 44
0.0
 50
0.0
 71
     0
  0
VIEW
  2
AM_VIEW5
 70
     0
 40
462.5
 10
711.24999999999966
 20
462.5
 41
832.15930018416179
 11
0.0
 21
0.0
 31
1.0
 12
0.0
 22
0.0
 32
0.0
 42
50.0
 43
0.0
 44
0.0
 50
0.0
 71
     0
  0
VIEW
  2
AM_VIEW6
 70
     0
 40
924.99075000000005
 10
711.24999999999966
 20
462.5
 41
1664.3019571823199
 11
0.0
 21
0.0
 31
1.0
 12
0.0
 22
0.0
 32
0.0
 42
50.0
 43
0.0
 44
0.0
 50
0.0
 71
     0
  0
ENDTAB
  0
TABLE
  2
UCS
 70
     0
  0
ENDTAB
  0
TABLE
  2
APPID
 70
    95
  0
APPID
  2
ACAD
 70
     0
  0
APPID
  2
ACADANNOTATIVE
 70
     0
  0
APPID
  2
MCAD_NO_VIS
 70
     0
  0
APPID
  2
ACAD_TEMP_GRAPHIC
 70
     0
  0
APPID
  2
ACATTRIBSERVICES
 70
     0
  0
APPID
  2
GENIUS_GENREC_14
 70
     0
  0
APPID
  2
GENIUS_GENOBJ-N-REC_13
 70
     0
  0
APPID
  2
GENIUS_GENODEF_13
 70
     0
  0
APPID
  2
GENIUS_GENOLIS_13
 70
     0
  0
APPID
  2
GENIUS_GENOBJ-N-TIT_13
 70
     0
  0
APPID
  2
GENIUS_GENOENT_13
 70
     0
  0
APPID
  2
GENIUS_GENTITLE_13
 70
     0
  0
APPID
  2
GENIUS_GENOREF_13
 70
     0
  0
APPID
  2
GENIUS_GENSCREG_15
 70
     0
  0
APPID
  2
GENIUS_GENOBJ-N-SDF_13
 70
     0
  0
APPID
  2
GENIUS_GENFIL_13
 70
     0
  0
APPID
  2
GENIUS_GENOBJ-N-CHA_13
 70
     0
  0
APPID
  2
GENIUS_GENDTOL_13
 70
     0
  0
APPID
  2
GENIUS_GENOBJ-N-FIL_13
 70
     0
  0
APPID
  2
AD_DRAW
 70
     0
  0
APPID
  2
DESIGNERASSEMBLIES
 70
     0
  0
APPID
  2
ASURF_PCURVE_APPNAME
 70
     0
  0
APPID
  2
GENIUS_GE3SECT_13
 70
     0
  0
APPID
  2
GENIUS_GENCFG_13
 70
     0
  0
APPID
  2
GENIUS_GE3CFG0_13
 70
     0
  0
APPID
  2
GENIUS_GENCFG0_13
 70
     0
  0
APPID
  2
GENIUS_GENCFG1_13
 70
     0
  0
APPID
  2
GENIUS_GENCFG2_13
 70
     0
  0
APPID
  2
GENIUS_GENCFG3_13
 70
     0
  0
APPID
  2
GENIUS_GENCFG4_13
 70
     0
  0
APPID
  2
GENIUS_GEVCFG0_13
 70
     0
  0
APPID
  2
GENIUS_GENHINW_13
 70
     0
  0
APPID
  2
GENIUS_FIRSTVISTXT_14
 70
     0
  0
APPID
  2
GENIUS_GENOBJ-N-LEADER_13
 70
     0
  0
APPID
  2
GEV_VCCNULL_SWITCH_OFF
 70
     0
  0
APPID
  2
GENIUS_GEFCFG0_13
 70
     0
  0
APPID
  2
GENIUS_GENZVEED_13
 70
     0
  0
APPID
  2
GENIUS_GENSCREG_13
 70
     0
  0
APPID
  2
GENIUS_DUMCFG0_13
 70
     0
  0
APPID
  2
GEVID936201362
 70
     0
  0
APPID
  2
GEVDC
 70
     0
  0
APPID
  2
GEVCON
 70
     0
  0
APPID
  2
VCC
 70
     0
  0
APPID
  2
GEVPT
 70
     0
  0
APPID
  2
GEVIT
 70
     0
  0
APPID
  2
GENBH
 70
     0
  0
APPID
  2
GEVMK
 70
     0
  0
APPID
  2
GENIUS_GENBH_13
 70
     0
  0
APPID
  2
GENIUS_GENOBJ-NBEHI-BHF_13
 70
     0
  0
APPID
  2
GENIUS_GENOBJ-NBEHI-BHB_13
 70
     0
  0
APPID
  2
GENIUS_GENOBJ-F-DESC_13
 70
     0
  0
APPID
  2
GENIUS_GEFDESC_14
 70
     0
  0
APPID
  2
GENIUS_GENOBJ-F-PART_13
 70
     0
  0
APPID
  2
GENIUS_GEFSTDP_13
 70
     0
  0
APPID
  2
GENIUS_GEFPARTINS_13
 70
     0
  0
APPID
  2
GENIUS_GENTRA_14
 70
     0
  0
APPID
  2
GENIUS_GENINF13_13
 70
     0
  0
APPID
  2
GENIUS_GENOBJ-N-INFOPT_13
 70
     0
  0
APPID
  2
GENIUS_GENOBJ-N-RSSYM_13
 70
     0
  0
APPID
  2
GENIUS_GENSYMENT_13
 70
     0
  0
APPID
  2
GENIUS_GENSCSYM_13
 70
     0
  0
APPID
  2
GENIUS_GEFINFNAM_13
 70
     0
  0
APPID
  2
GENIUS_GENOBJ-N-CEN_13
 70
     0
  0
APPID
  2
GENIUS_GENOBJ-N-CRS_13
 70
     0
  0
APPID
  2
GENIUS_GENOBJ-N-CRC_13
 70
     0
  0
APPID
  2
GENIUS_GENCRC_14
 70
     0
  0
APPID
  2
GEVID942827039
 70
     0
  0
APPID
  2
GEVID942827040
 70
     0
  0
APPID
  2
GEVID942827041
 70
     0
  0
APPID
  2
GENIUS_GENOBJ-F-SCPASSM_13
 70
     0
  0
APPID
  2
GENIUS_GENDIMSH_14
 70
     0
  0
APPID
  2
GEVID942827042
 70
     0
  0
APPID
  2
GEVID946020473
 70
     0
  0
APPID
  2
GEVID946020474
 70
     0
  0
APPID
  2
GEVID946020475
 70
     0
  0
APPID
  2
GENIUS_GENOBJ-N-HTC_13
 70
     0
  0
APPID
  2
GENIUS_GENHATCH_13
 70
     0
  0
APPID
  2
GEVID948854295
 70
     0
  0
APPID
  2
GEVID939402019
 70
     0
  0
APPID
  2
GEVID952919491
 70
     0
  0
APPID
  2
GEVID952919492
 70
     0
  0
APPID
  2
GENIUS_GEFWELD_13
 70
     0
  0
APPID
  2
GENIUS_GENOBJ-F-WELS_13
 70
     0
  0
APPID
  2
GEVID952919493
 70
     0
  0
APPID
  2
GENIUS_GENOBJ-N-RSBK_13
 70
     0
  0
APPID
  2
GENIUS_GENOBJ-N-LIB_13
 70
     0
  0
APPID
  2
GENIUS_GENSCALE_13
 70
     0
  0
APPID
  2
GEVID986376691
 70
     0
  0
APPID
  2
DCO15
 70
     0
  0
APPID
  2
ACAD_DSTYLE_DIMBREAK
 70
     0
  0
APPID
  2
ACAD_DSTYLE_DIMJAG
 70
     0
  0
APPID
  2
ACAD_NAV_VCDISPLAY
 70
     0
  0
APPID
  2
ACADANNOPO
 70
     0
  0
APPID
  2
ACAD_EXEMPT_FROM_CAD_STANDARDS
 70
     0
  0
APPID
  2
ACAD_MLEADERVER
 70
     0
  0
ENDTAB
  0
TABLE
  2
DIMSTYLE
 70
    22
  0
DIMSTYLE
  2
STANDARD
 70
     0
  3

  4

  5

  6

  7

 40
1.0
 41
0.18
 42
0.0625
 43
0.38
 44
0.18
 45
0.0
 46
0.0
 47
0.0
 48
0.0
140
0.18
141
0.09
142
0.0
143
25.399999999999999
144
1.0
145
0.0
146
1.0
147
0.09
 71
     0
 72
     0
 73
     1
 74
     1
 75
     0
 76
     0
 77
     0
 78
     0
170
     0
171
     2
172
     0
173
     0
174
     0
175
     0
176
     0
177
     0
178
     0
  0
DIMSTYLE
  2
ANNOTATIVE
 70
     0
  3

  4

  5

  6

  7

 40
1.0
 41
0.18
 42
0.0625
 43
0.38
 44
0.18
 45
0.0
 46
0.0
 47
0.0
 48
0.0
140
0.18
141
0.09
142
0.0
143
25.399999999999999
144
1.0
145
0.0
146
1.0
147
0.09
 71
     0
 72
     0
 73
     1
 74
     1
 75
     0
 76
     0
 77
     0
 78
     0
170
     0
171
     2
172
     0
173
     0
174
     0
175
     0
176
     0
177
     0
178
     0
  0
DIMSTYLE
  2
AM_ISO
 70
     0
  3

  4
"
  5

  6

  7

 40
1.0
 41
2.5
 42
1.0
 43
8.0
 44
0.6
 45
0.0
 46
0.0
 47
0.1
 48
0.1
140
2.5
141
0.0
142
0.0
143
0.0393701
144
1.0
145
0.0
146
0.71
147
0.8
 71
     0
 72
     0
 73
     0
 74
     0
 75
     0
 76
     0
 77
     1
 78
     8
170
     0
171
     2
172
     1
173
     0
174
     0
175
     0
176
   256
177
   256
178
     4
  0
DIMSTYLE
  2
AM_ISO$3
 70
     0
  3

  4
"
  5

  6

  7

 40
1.0
 41
2.5
 42
1.0
 43
8.0
 44
0.6
 45
0.0
 46
0.0
 47
0.1
 48
0.1
140
2.5
141
0.0
142
0.0
143
0.0393701
144
1.0
145
0.0
146
0.71
147
0.8
 71
     0
 72
     0
 73
     0
 74
     1
 75
     0
 76
     0
 77
     1
 78
     8
170
     0
171
     2
172
     0
173
     0
174
     0
175
     0
176
   256
177
   256
178
     4
  0
DIMSTYLE
  2
AM_ISO$4
 70
     0
  3

  4
"
  5

  6

  7

 40
1.0
 41
2.5
 42
1.0
 43
8.0
 44
0.6
 45
0.0
 46
0.0
 47
0.1
 48
0.1
140
2.5
141
0.0
142
0.0
143
0.0393701
144
1.0
145
0.0
146
0.71
147
0.8
 71
     0
 72
     0
 73
     0
 74
     1
 75
     0
 76
     0
 77
     1
 78
     8
170
     0
171
     2
172
     0
173
     0
174
     0
175
     0
176
   256
177
   256
178
     4
  0
DIMSTYLE
  2
AM_ISO$6
 70
     0
  3

  4
"
  5

  6

  7

 40
1.0
 41
2.5
 42
1.0
 43
8.0
 44
0.6
 45
0.0
 46
0.0
 47
0.1
 48
0.1
140
2.5
141
0.0
142
0.0
143
0.0393701
144
1.0
145
0.0
146
0.71
147
0.8
 71
     0
 72
     0
 73
     0
 74
     0
 75
     0
 76
     0
 77
     0
 78
     8
170
     0
171
     2
172
     1
173
     0
174
     0
175
     0
176
   256
177
   256
178
     4
  0
DIMSTYLE
  2
AM_ISO$7
 70
     0
  3

  4
"
  5

  6

  7

 40
1.0
 41
2.5
 42
1.0
 43
8.0
 44
0.6
 45
0.0
 46
0.0
 47
0.1
 48
0.1
140
2.5
141
0.0
142
0.0
143
0.0393701
144
1.0
145
0.0
146
0.71
147
0.8
 71
     0
 72
     0
 73
     0
 74
     0
 75
     0
 76
     0
 77
     1
 78
     8
170
     0
171
     2
172
     1
173
     0
174
     0
175
     0
176
   256
177
   256
178
     4
  0
DIMSTYLE
  2
AM_ISO$SF
 70
     0
  3

  4
"
  5

  6

  7

 40
1.0
 41
2.5
 42
1.0
 43
10.0
 44
1.0
 45
0.0
 46
0.0
 47
0.1
 48
0.1
140
3.5
141
0.0
142
0.0
143
0.0393701
144
1.0
145
0.0
146
0.71
147
1.5
 71
     0
 72
     0
 73
     0
 74
     0
 75
     1
 76
     1
 77
     1
 78
     8
170
     0
171
     2
172
     1
173
     0
174
     0
175
     0
176
   256
177
   256
178
     2
  0
DIMSTYLE
  2
AM_ISO$SH
 70
     0
  3

  4
"
  5

  6

  7

 40
1.0
 41
2.5
 42
1.0
 43
10.0
 44
1.0
 45
0.0
 46
0.0
 47
0.1
 48
0.1
140
3.5
141
0.0
142
0.0
143
0.0393701
144
2.0
145
0.0
146
0.71
147
1.5
 71
     0
 72
     0
 73
     0
 74
     0
 75
     1
 76
     1
 77
     1
 78
     8
170
     0
171
     2
172
     1
173
     1
174
     0
175
     0
176
   256
177
   256
178
     2
  0
DIMSTYLE
  2
AM_JIS
 70
     0
  3

  4
"
  5

  6

  7

 40
1.0
 41
2.5
 42
1.0
 43
7.0
 44
1.0
 45
0.0
 46
0.0
 47
0.1
 48
0.1000000001
140
2.5
141
0.0
142
0.0
143
0.0393701
144
1.0
145
0.0
146
0.71
147
1.0
 71
     0
 72
     0
 73
     0
 74
     0
 75
     0
 76
     0
 77
     3
 78
     8
170
     0
171
     2
172
     1
173
     0
174
     0
175
     0
176
   256
177
   256
178
     4
  0
DIMSTYLE
  2
AM_JIS$3
 70
     0
  3

  4
"
  5

  6

  7

 40
1.0
 41
2.5
 42
1.0
 43
7.0
 44
1.0
 45
0.0
 46
0.0
 47
0.1
 48
0.1000000001
140
2.5
141
0.0
142
0.0
143
0.0393701
144
1.0
145
0.0
146
0.71
147
1.0
 71
     0
 72
     0
 73
     0
 74
     1
 75
     0
 76
     0
 77
     3
 78
     8
170
     0
171
     2
172
     0
173
     0
174
     0
175
     0
176
   256
177
   256
178
     4
  0
DIMSTYLE
  2
AM_JIS$4
 70
     0
  3

  4
"
  5

  6

  7

 40
1.0
 41
2.5
 42
1.0
 43
7.0
 44
1.0
 45
0.0
 46
0.0
 47
0.1
 48
0.1000000001
140
2.5
141
0.0
142
0.0
143
0.0393701
144
1.0
145
0.0
146
0.71
147
1.0
 71
     0
 72
     0
 73
     0
 74
     0
 75
     0
 76
     0
 77
     3
 78
     8
170
     0
171
     2
172
     0
173
     0
174
     0
175
     0
176
   256
177
   256
178
     4
  0
DIMSTYLE
  2
AM_JIS$6
 70
     0
  3

  4
"
  5

  6

  7

 40
1.0
 41
2.5
 42
1.0
 43
7.0
 44
1.0
 45
0.0
 46
0.0
 47
0.1
 48
0.1000000001
140
2.5
141
0.0
142
0.0
143
0.0393701
144
1.0
145
0.0
146
0.71
147
1.0
 71
     0
 72
     0
 73
     0
 74
     0
 75
     0
 76
     0
 77
     0
 78
     8
170
     0
171
     2
172
     1
173
     0
174
     0
175
     0
176
   256
177
   256
178
     4
  0
DIMSTYLE
  2
AM_JIS$7
 70
     0
  3

  4
"
  5

  6

  7

 40
1.0
 41
2.5
 42
1.0
 43
7.0
 44
1.0
 45
0.0
 46
0.0
 47
0.1
 48
0.1000000001
140
2.5
141
0.0
142
0.0
143
0.0393701
144
1.0
145
0.0
146
0.71
147
1.0
 71
     0
 72
     0
 73
     0
 74
     0
 75
     0
 76
     0
 77
     3
 78
     8
170
     0
171
     2
172
     1
173
     0
174
     0
175
     0
176
   256
177
   256
178
     4
  0
DIMSTYLE
  2
AM_JIS$SF
 70
     0
  3

  4
"
  5

  6

  7

 40
1.0
 41
2.5
 42
1.0
 43
10.0
 44
1.0
 45
0.0
 46
0.0
 47
0.1
 48
0.1
140
3.5
141
0.0
142
0.0
143
0.0393701
144
1.0
145
0.0
146
0.71
147
1.5
 71
     0
 72
     0
 73
     0
 74
     0
 75
     1
 76
     1
 77
     3
 78
     8
170
     0
171
     2
172
     1
173
     0
174
     0
175
     0
176
   256
177
   256
178
     4
  0
DIMSTYLE
  2
AM_JIS$SH
 70
     0
  3

  4
"
  5

  6

  7

 40
1.0
 41
2.5
 42
1.0
 43
10.0
 44
1.0
 45
0.0
 46
0.0
 47
0.1
 48
0.1
140
3.5
141
0.0
142
0.0
143
0.0393701
144
1.0
145
0.0
146
0.71
147
1.5
 71
     0
 72
     0
 73
     0
 74
     0
 75
     1
 76
     0
 77
     3
 78
     8
170
     0
171
     2
172
     1
173
     1
174
     0
175
     0
176
   256
177
   256
178
     4
  0
DIMSTYLE
  2
AM_ANSI
 70
     0
  3

  4
mm
  5

  6

  7

 40
1.0
 41
0.1
 42
0.05
 43
0.5
 44
0.1
 45
0.0
 46
0.0
 47
0.1
 48
0.1
140
0.12
141
0.0
142
0.0
143
25.399999999999999
144
1.0
145
0.0
146
0.71
147
0.06
 71
     0
 72
     0
 73
     1
 74
     1
 75
     0
 76
     0
 77
     0
 78
     7
170
     0
171
     2
172
     0
173
     0
174
     0
175
     0
176
   256
177
   256
178
     2
  0
DIMSTYLE
  2
AM_ANSI$3
 70
     0
  3

  4
mm
  5

  6

  7

 40
1.0
 41
0.1
 42
0.05
 43
0.5
 44
0.1
 45
0.0
 46
0.0
 47
0.1
 48
0.1
140
0.12
141
0.0
142
0.0
143
25.399999999999999
144
1.0
145
0.0
146
0.71
147
0.06
 71
     0
 72
     0
 73
     1
 74
     1
 75
     0
 76
     0
 77
     0
 78
     7
170
     0
171
     2
172
     0
173
     0
174
     0
175
     0
176
   256
177
   256
178
     2
  0
DIMSTYLE
  2
AM_ANSI$4
 70
     0
  3

  4
mm
  5

  6

  7

 40
1.0
 41
0.1
 42
0.05
 43
0.5
 44
0.1
 45
0.0
 46
0.0
 47
0.1
 48
0.1
140
0.12
141
0.0
142
0.0
143
25.399999999999999
144
1.0
145
0.0
146
0.71
147
0.06
 71
     0
 72
     0
 73
     1
 74
     1
 75
     0
 76
     0
 77
     0
 78
     7
170
     0
171
     2
172
     0
173
     0
174
     0
175
     0
176
   256
177
   256
178
     2
  0
DIMSTYLE
  2
AM_ANSI$7
 70
     0
  3

  4
mm
  5

  6

  7

 40
1.0
 41
0.1
 42
0.05
 43
0.5
 44
0.1
 45
0.0
 46
0.0
 47
0.1
 48
0.1
140
0.24
141
0.0
142
0.0
143
25.399999999999999
144
1.0
145
0.0
146
0.71
147
0.06
 71
     0
 72
     0
 73
     1
 74
     1
 75
     0
 76
     0
 77
     0
 78
     7
170
     0
171
     2
172
     0
173
     0
174
     0
175
     0
176
   256
177
   256
178
     2
  0
DIMSTYLE
  2
AM_ANSI$SF
 70
     0
  3

  4
mm
  5

  6

  7

 40
1.0
 41
0.1
 42
0.05
 43
0.5
 44
0.1
 45
0.0
 46
0.0
 47
0.1
 48
0.1
140
0.12
141
0.0
142
0.0
143
25.399999999999999
144
1.0
145
0.0
146
0.71
147
0.06
 71
     0
 72
     0
 73
     1
 74
     1
 75
     1
 76
     1
 77
     0
 78
     7
170
     0
171
     2
172
     0
173
     0
174
     0
175
     0
176
   256
177
   256
178
     2
  0
DIMSTYLE
  2
AM_ANSI$SH
 70
     0
  3

  4
mm
  5

  6

  7

 40
1.0
 41
0.1
 42
0.05
 43
0.5
 44
0.1
 45
0.0
 46
0.0
 47
0.1
 48
0.1
140
0.12
141
0.0
142
0.0
143
25.399999999999999
144
1.0
145
0.0
146
0.71
147
0.06
 71
     0
 72
     0
 73
     1
 74
     1
 75
     1
 76
     1
 77
     0
 78
     7
170
     0
171
     2
172
     0
173
     1
174
     0
175
     0
176
   256
177
   256
178
     2
  0
ENDTAB
  0
ENDSEC
  0
SECTION
  2
BLOCKS
  0
BLOCK
  8
0
  2
$MODEL_SPACE
 70
     0
 10
0.0
 20
0.0
 30
0.0
  3
$MODEL_SPACE
  1

  0
ENDBLK
  5
3011
  8
0
  0
BLOCK
 67
     1
  8
0
  2
$PAPER_SPACE
 70
     0
 10
0.0
 20
0.0
 30
0.0
  3
$PAPER_SPACE
  1

  0
ENDBLK
  5
300D
 67
     1
  8
0
  0
BLOCK
  8
0
  2
GENAXEH
 70
     0
 10
0.0
 20
0.0
 30
0.0
  3
GENAXEH
  1

  0
LINE
  5
2D88
  8
0
 10
-1.0
 20
0.0
 30
0.0
 11
1.0
 21
0.0
 31
0.0
  0
ENDBLK
  5
2D89
  8
0
  0
BLOCK
  8
0
  2
_OPEN30
 70
     0
 10
0.0
 20
0.0
 30
0.0
  3
_OPEN30
  1

  0
LINE
  5
2D8C
  8
0
 62
     0
 10
-1.0
 20
0.26794919
 30
0.0
 11
0.0
 21
0.0
 31
0.0
  0
LINE
  5
2D8D
  8
0
 62
     0
 10
0.0
 20
0.0
 30
0.0
 11
-1.0
 21
-0.26794919
 31
0.0
  0
LINE
  5
2D8E
  8
0
 62
     0
 10
0.0
 20
0.0
 30
0.0
 11
-1.0
 21
0.0
 31
0.0
  0
ENDBLK
  5
2D8F
  8
0
  0
BLOCK
  8
0
  2
_NONE
 70
     0
 10
0.0
 20
0.0
 30
0.0
  3
_NONE
  1

  0
ENDBLK
  5
2D92
  8
0
  0
BLOCK
  8
0
  2
_ACMFILLEDHALF
 70
     0
 10
0.0
 20
0.0
 30
0.0
  3
_ACMFILLEDHALF
  1

  0
TRACE
  5
3109
  8
AM_0
 62
     0
 10
-0.8
 20
0.0
 30
0.0
 11
-1.0
 21
0.166666666
 31
0.0
 12
0.0
 22
0.0
 32
0.0
 13
0.0
 23
0.0
 33
0.0
  0
LINE
  5
310A
  8
AM_0
 62
     0
 10
-1.0
 20
0.0
 30
0.0
 11
-0.8
 21
0.0
 31
0.0
  0
ENDBLK
  5
3108
  8
0
  0
ENDSEC
  0
SECTION
  2
ENTITIES
  0
ARC
  5
2D93
  8
AM_0
 10
606.20731014356727
 20
865.33590644924107
 30
0.0
 40
6.000003999999997
 50
90.00000299999769
 51
270.0
  0
LINE
  5
2D94
  8
AM_0
 10
592.20731014356738
 20
844.33596644924103
 30
0.0
 11
662.20728014356735
 21
844.33596644924103
 31
0.0
  0
LINE
  5
2D95
  8
AM_0
 10
592.20731014356738
 20
886.33596644924103
 30
0.0
 11
662.20728014356735
 21
886.33596644924103
 31
0.0
  0
LINE
  5
2D96
  8
ﾁｭｳｼﾝｾﾝ
 10
295.0632798439388
 20
865.33596644924114
 30
0.0
 11
673.7212501435672
 21
865.33596644924114
 31
0.0
  0
ARC
  5
2D97
  8
AM_0
 10
454.20731014356721
 20
865.33596644924114
 30
0.0
 40
11.0
 50
201.32377999999761
 51
262.81880000000041
  0
ARC
  5
2D98
  8
AM_0
 10
452.2071801435672
 20
849.46145644924104
 30
0.0
 40
5.0
 50
0.0
 51
82.818802999995938
  0
LINE
  5
2D99
  8
AM_0
 10
409.70731014356733
 20
767.83596644924103
 30
0.0
 11
409.70731014356733
 21
962.83596644924103
 31
0.0
  0
LINE
  5
2D9A
  8
AM_0
 10
443.20731014356733
 20
751.19479644924104
 30
0.0
 11
443.20731014356733
 21
861.33590644924095
 31
0.0
  0
LINE
  5
2D9B
  8
AM_0
 10
485.20731014356733
 20
815.77139644924102
 30
0.0
 11
485.20731014356733
 21
914.90048644924082
 31
0.0
  0
LINE
  5
2D9C
  8
AM_0
 10
560.20731014356727
 20
774.33596644924103
 30
0.0
 11
560.20731014356727
 21
956.33596644924069
 31
0.0
  0
LINE
  5
2D9D
  8
AM_0
 10
588.20731014356738
 20
905.09329644924105
 30
0.0
 11
588.20731014356738
 21
831.57858644924113
 31
0.0
  0
LINE
  5
2D9E
  8
AM_0
 10
470.20731014356721
 20
725.59793644924105
 30
0.0
 11
470.20731014356721
 21
861.33590644924095
 31
0.0
  0
LINE
  5
2D9F
  8
AM_0
 10
582.20731014356716
 20
951.21652644924109
 30
0.0
 11
582.20731014356716
 21
779.45535644924121
 31
0.0
  0
LINE
  5
2DA0
  8
AM_0
 10
592.20731014356738
 20
842.83596644924091
 30
0.0
 11
592.20731014356738
 21
887.83596644924103
 31
0.0
  0
LINE
  5
2DA1
  8
AM_0
 10
457.2071801435672
 20
729.12612644924104
 30
0.0
 11
457.2071801435672
 21
855.79653644924122
 31
0.0
  0
ARC
  5
2DA2
  8
AM_0
 10
449.20731014356721
 20
739.62600644924123
 30
0.0
 40
5.0
 50
180.00001000000091
 51
277.13983000000007
  0
LINE
  5
2DA3
  8
AM_0
 10
445.68637014356722
 20
748.25692644924095
 30
0.0
 11
454.7281801435675
 21
746.66262644924075
 31
0.0
  0
LINE
  5
2DA4
  8
AM_0
 10
399.99789014356742
 20
729.27749644924097
 30
0.0
 11
475.20724014356728
 21
725.33596644924103
 31
0.0
  0
LINE
  5
2DA5
  8
AM_0
 10
444.20731014356721
 20
727.94070644924113
 30
0.0
 11
444.20731014356721
 21
735.78945644924113
 31
0.0
  0
LINE
  5
2DA6
  8
AM_0
 10
411.70731014356721
 20
808.56015644924105
 30
0.0
 11
411.70731014356721
 21
781.72317644924124
 31
0.0
  0
CIRCLE
  5
2DA7
  8
AM_0
 10
417.20731014356721
 20
750.33596644924103
 30
0.0
 40
9.5
  0
LINE
  5
2DA8
  8
AM_0
 10
396.20731014356733
 20
733.27200644924096
 30
0.0
 11
396.20731014356721
 21
767.48246145695089
 31
0.0
  0
ARC
  5
2DA9
  8
AM_0
 10
400.20731014356721
 20
733.27200644924096
 30
0.0
 40
4.0
 50
180.00001000000091
 51
266.99999000000008
  0
ARC
  5
2DAA
  8
AM_0
 10
446.20731014356721
 20
751.21133644924123
 30
0.0
 40
3.0
 50
179.68307000000101
 51
260.00000000000119
  0
LINE
  5
2DAB
  8
AM_0
 10
411.70731014356721
 20
781.72317644924124
 30
0.0
 11
443.20731014356733
 21
781.72317644924124
 31
0.0
  0
LINE
  5
2DAC
  8
AM_0
 10
409.70731014356733
 20
767.83590644924095
 30
0.0
 11
438.38168014356751
 21
766.83456644924104
 31
0.0
  0
ARC
  5
2DAD
  8
AM_0
 10
438.20731014356721
 20
761.83767644924103
 30
0.0
 40
5.0
 50
0.0
 51
87.999999999996248
  0
LINE
  5
2DAE
  8
AM_0
 10
411.70731014356721
 20
792.32974644924104
 30
0.0
 11
443.20731014356733
 21
792.32974644924104
 31
0.0
  0
LINE
  5
2DAF
  8
AM_0
 10
411.70731014356721
 20
808.56015644924105
 30
0.0
 11
443.20731014356733
 21
808.56015644924105
 31
0.0
  0
ARC
  5
2DB0
  8
AM_0
 10
460.2071801435672
 20
729.12612644924104
 30
0.0
 40
3.0
 50
180.00001000000091
 51
266.99999000000008
  0
ARC
  5
2DB1
  8
AM_0
 10
545.20731014356716
 20
732.78347644924122
 30
0.0
 40
5.0
 50
180.00001000000091
 51
271.99999000000139
  0
ARC
  5
2DB2
  8
AM_0
 10
490.76797014356731
 20
736.0539264492412
 30
0.0
 40
10.0
 50
272.00000000000369
 51
316.51703999999847
  0
LINE
  5
2DB3
  8
AM_0
 10
475.20724014356728
 20
725.33596644924103
 30
0.0
 11
584.34683014356756
 21
729.14718644924096
 31
0.0
  0
LINE
  5
2DB4
  8
AM_0
 10
514.29758014356753
 20
742.16183644924104
 30
0.0
 11
532.48642014356756
 21
742.79696644924104
 31
0.0
  0
POLYLINE
  5
2DB5
  8
AM_0
 66
     1
 10
0.0
 20
0.0
 30
0.0
  0
VERTEX
  5
2DB6
  8
AM_0
 10
490.13700014356721
 20
785.60441644924094
 30
0.0
  0
VERTEX
  5
2DB7
  8
AM_0
 10
493.74863514356753
 20
787.53176244924123
 30
0.0
  0
VERTEX
  5
2DB8
  8
AM_0
 10
497.12614914356732
 20
789.84497844924113
 30
0.0
  0
VERTEX
  5
2DB9
  8
AM_0
 10
500.22848714356752
 20
792.51594544924103
 30
0.0
  0
VERTEX
  5
2DBA
  8
AM_0
 10
503.0179401435675
 20
795.51219644924095
 30
0.0
  0
VERTEX
  5
2DBB
  8
AM_0
 10
504.1545011435673
 20
797.21726144924105
 30
0.0
  0
VERTEX
  5
2DBC
  8
AM_0
 10
504.92775414356743
 20
799.11491644924104
 30
0.0
  0
VERTEX
  5
2DBD
  8
AM_0
 10
505.30656214356731
 20
801.12874944924101
 30
0.0
  0
VERTEX
  5
2DBE
  8
AM_0
 10
505.2756701435672
 20
803.17766644924097
 30
0.0
  0
VERTEX
  5
2DBF
  8
AM_0
 10
490.50587014356751
 20
822.09281644924113
 30
0.0
  0
SEQEND
  5
2DC0
  8
AM_0
  0
LINE
  5
2DC1
  8
AM_0
 10
489.70731014356721
 20
787.77017644924103
 30
0.0
 11
489.70731014356721
 21
813.77139644924114
 31
0.0
  0
ARC
  5
2DC2
  8
AM_0
 10
487.20731014356721
 20
740.77774644924114
 30
0.0
 40
2.0
 50
91.999998000000545
 51
180.00001000000091
  0
LINE
  5
2DC3
  8
AM_0
 10
485.20731014356733
 20
738.66079644924105
 30
0.0
 11
485.20731014356733
 21
785.77017644924103
 31
0.0
  0
LINE
  5
2DC4
  8
AM_0
 10
459.1374801435673
 20
736.59213644924102
 30
0.0
 11
470.20731014356721
 21
736.20559644924106
 31
0.0
  0
ARC
  5
2DC5
  8
AM_0
 10
454.20731014356721
 20
743.70822644924112
 30
0.0
 40
3.0
 50
0.0
 51
79.999998000001099
  0
ARC
  5
2DC6
  8
AM_0
 10
459.20731014356721
 20
738.59097644924123
 30
0.0
 40
2.0
 50
179.9999899999988
 51
268.00000999999861
  0
LINE
  5
2DC7
  8
AM_0
 10
457.2072401435675
 20
735.58895644924121
 30
0.0
 11
449.82870014356752
 21
734.66470644924095
 31
0.0
  0
LINE
  5
2DC8
  8
AM_0
 10
470.2071801435672
 20
736.20559644924106
 30
0.0
 11
483.27707014356753
 21
736.66195644924107
 31
0.0
  0
ARC
  5
2DC9
  8
AM_0
 10
483.20731014356721
 20
738.66079644924105
 30
0.0
 40
2.0
 50
272.00000000000369
 51
0.0
  0
LINE
  5
2DCA
  8
AM_0
 10
457.2071801435672
 20
787.77017644924103
 30
0.0
 11
483.20731014356721
 21
787.77017644924103
 31
0.0
  0
ARC
  5
2DCB
  8
AM_0
 10
483.20731014356721
 20
785.77017644924103
 30
0.0
 40
2.0
 50
0.0
 51
90.00000299999769
  0
LINE
  5
2DCC
  8
AM_0
 10
487.1374801435673
 20
742.77651644924094
 30
0.0
 11
511.74051014356752
 21
743.63565644924108
 31
0.0
  0
LINE
  5
2DCD
  8
AM_0
 10
498.0237101435672
 20
729.17251644924113
 30
0.0
 11
507.39084014356717
 21
739.04934644924106
 31
0.0
  0
LINE
  5
2DCE
  8
AM_0
 10
489.70731014356721
 20
729.09878644924095
 30
0.0
 11
489.70731014356721
 21
741.13113644924113
 31
0.0
  0
ARC
  5
2DCF
  8
AM_0
 10
514.64664014356754
 20
732.16787644924113
 30
0.0
 40
10.0
 50
91.999998000000545
 51
136.5170399999985
  0
ARC
  5
2DD0
  8
AM_0
 10
489.23538014356751
 20
787.38967644924105
 30
0.0
 40
2.0
 50
270.0
 51
296.80019999999712
  0
LINE
  5
2DD1
  8
AM_0
 10
457.2071801435672
 20
813.77139644924114
 30
0.0
 11
483.20731014356721
 21
813.77139644924114
 31
0.0
  0
ARC
  5
2DD2
  8
AM_0
 10
483.20731014356721
 20
815.77139644924102
 30
0.0
 40
2.0
 50
270.0
 51
0.0
  0
ARC
  5
2DD3
  8
AM_0
 10
488.75687014356731
 20
819.65536644924123
 30
0.0
 40
3.0
 50
54.348324000004709
 51
90.00000299999769
  0
ARC
  5
2DD4
  8
AM_0
 10
567.81143014356769
 20
770.79910644924121
 30
0.0
 40
8.0
 50
91.999998000000545
 51
167.22924999999881
  0
CIRCLE
  5
2DD5
  8
AM_0
 10
567.20731014356738
 20
750.33596644924103
 30
0.0
 40
9.5
  0
LINE
  5
2DD6
  8
ﾁｭｳｼﾝｾﾝ1
 10
549.70731014356716
 20
750.33596644924103
 30
0.0
 11
584.70731014356738
 21
750.33596644924103
 31
0.0
  0
ARC
  5
2DD7
  8
AM_0
 10
550.20731014356738
 20
756.33596644924103
 30
0.0
 40
10.0
 50
90.00000299999769
 51
180.00001000000091
  0
ARC
  5
2DD8
  8
AM_0
 10
532.20731014356716
 20
750.79214644924105
 30
0.0
 40
8.0
 50
272.00000000000369
 51
0.0
  0
LINE
  5
2DD9
  8
AM_0
 10
540.20731014356716
 20
732.78347644924122
 30
0.0
 11
540.20731014356716
 21
750.79214644924105
 31
0.0
  0
LINE
  5
2DDA
  8
AM_0
 10
540.20731014356716
 20
756.33596644924103
 30
0.0
 11
540.20731014356716
 21
750.79214644924105
 31
0.0
  0
ARC
  5
2DDB
  8
AM_0
 10
552.20731014356716
 20
774.33596644924103
 30
0.0
 40
8.0
 50
270.0
 51
0.0
  0
LINE
  5
2DDC
  8
AM_0
 10
550.20731014356738
 20
766.33596644924103
 30
0.0
 11
552.20731014356716
 21
766.33596644924103
 31
0.0
  0
LINE
  5
2DDD
  8
ﾁｭｳｼﾝｾﾝ1
 10
567.20731014356738
 20
732.83596644924103
 30
0.0
 11
567.20731014356738
 21
767.83596644924103
 31
0.0
  0
LINE
  5
2DDE
  8
AM_0
 10
588.20731014356738
 20
733.14474644924121
 30
0.0
 11
588.20731014356738
 21
772.52713644924097
 31
0.0
  0
ARC
  5
2DDF
  8
AM_0
 10
584.20731014356738
 20
733.14474644924121
 30
0.0
 40
4.0
 50
272.00000000000369
 51
0.0
  0
ARC
  5
2DE0
  8
AM_0
 10
585.20731014356727
 20
779.45535644924121
 30
0.0
 40
3.0
 50
180.00001000000091
 51
261.78677999999701
  0
ARC
  5
2DE1
  8
AM_0
 10
577.20731014356716
 20
784.13516644924096
 30
0.0
 40
5.0
 50
272.00000000000369
 51
0.0
  0
LINE
  5
2DE2
  8
AM_0
 10
567.53226014356756
 20
778.79421644924105
 30
0.0
 11
577.3817401435673
 21
779.13821644924121
 31
0.0
  0
ARC
  5
2DE3
  8
AM_0
 10
584.20731014356738
 20
772.52713644924097
 30
0.0
 40
4.0
 50
0.0
 51
81.786789000000198
  0
ARC
  5
2DE4
  8
AM_0
 10
585.20731014356727
 20
823.09329644924105
 30
0.0
 40
3.0
 50
135.0
 51
180.00001000000091
  0
ARC
  5
2DE5
  8
AM_0
 10
585.20731014356727
 20
823.09329644924105
 30
0.0
 40
3.0
 50
135.0
 51
180.00001000000091
  0
ARC
  5
2DE6
  8
AM_0
 10
585.20731014356727
 20
831.57858644924113
 30
0.0
 40
3.0
 50
315.0
 51
0.0
  0
ARC
  5
2DE7
  8
AM_0
 10
585.20731014356727
 20
831.57858644924113
 30
0.0
 40
3.0
 50
315.0
 51
0.0
  0
LINE
  5
2DE8
  8
AM_0
 10
583.08609014356739
 20
825.21456644924103
 30
0.0
 11
587.3287001435674
 21
829.45724644924132
 31
0.0
  0
LINE
  5
2DE9
  8
AM_0
 10
588.20731014356738
 20
842.83596644924091
 30
0.0
 11
592.20731014356738
 21
842.83596644924091
 31
0.0
  0
ARC
  5
2DEA
  8
AM_0
 10
454.20731014356721
 20
865.33596644924114
 30
0.0
 40
11.0
 50
97.181195000004124
 51
158.67647999999841
  0
ARC
  5
2DEB
  8
AM_0
 10
454.20731014356721
 20
865.33596644924114
 30
0.0
 40
10.0
 50
203.5782699999985
 51
336.4217200000013
  0
ARC
  5
2DEC
  8
AM_0
 10
454.20731014356721
 20
865.33596644924114
 30
0.0
 40
10.0
 50
23.57803699999776
 51
156.42196000000081
  0
ARC
  5
2DED
  8
AM_0
 10
449.20731014356721
 20
991.04592644924105
 30
0.0
 40
5.0
 50
82.860167000000104
 51
180.00001000000091
  0
LINE
  5
2DEE
  8
AM_0
 10
445.68631014356731
 20
982.41488644924107
 30
0.0
 11
454.7281801435675
 21
984.00924644924123
 31
0.0
  0
LINE
  5
2DEF
  8
AM_0
 10
437.70731014356721
 20
869.33590644924095
 30
0.0
 11
470.70731014356721
 21
869.33590644924095
 31
0.0
  0
LINE
  5
2DF0
  8
AM_0
 10
437.70731014356721
 20
861.33590644924095
 30
0.0
 11
470.70731014356721
 21
861.33590644924095
 31
0.0
  0
LINE
  5
2DF1
  8
AM_0
 10
399.99789014356742
 20
1001.394376449241
 30
0.0
 11
475.20724014356728
 21
1005.33596644924
 31
0.0
  0
ARC
  5
2DF2
  8
AM_0
 10
446.20731014356721
 20
979.46047644924124
 30
0.0
 40
3.0
 50
99.999999999998593
 51
180.31692999999879
  0
CIRCLE
  5
2DF3
  8
AM_0
 10
417.20731014356721
 20
980.33596644924035
 30
0.0
 40
9.5
  0
LINE
  5
2DF4
  8
AM_0
 10
396.20731014356733
 20
997.39987644924099
 30
0.0
 11
396.20731014356721
 21
963.18948128295165
 31
0.0
  0
LINE
  5
2DF5
  8
AM_0
 10
443.20731014356733
 20
869.33590644924095
 30
0.0
 11
443.20731014356733
 21
979.47708644924035
 31
0.0
  0
ARC
  5
2DF6
  8
AM_0
 10
437.70731014356721
 20
865.33590644924107
 30
0.0
 40
3.999995999999999
 50
90.00000299999769
 51
270.0
  0
LINE
  5
2DF7
  8
AM_0
 10
411.70731014356721
 20
948.94869644924074
 30
0.0
 11
411.70731014356721
 21
922.11172644924113
 31
0.0
  0
LINE
  5
2DF8
  8
AM_0
 10
411.70731014356721
 20
922.11172644924113
 30
0.0
 11
443.20731014356733
 21
922.11172644924113
 31
0.0
  0
LINE
  5
2DF9
  8
AM_0
 10
411.70731014356721
 20
938.34207644924106
 30
0.0
 11
443.20731014356733
 21
938.34207644924106
 31
0.0
  0
LINE
  5
2DFA
  8
AM_0
 10
409.70731014356733
 20
962.83596644924103
 30
0.0
 11
438.38168014356751
 21
963.83731644924103
 31
0.0
  0
LINE
  5
2DFB
  8
AM_0
 10
411.70731014356721
 20
948.94869644924074
 30
0.0
 11
443.20731014356733
 21
948.94869644924074
 31
0.0
  0
ARC
  5
2DFC
  8
AM_0
 10
438.20731014356721
 20
968.83425644924102
 30
0.0
 40
5.0
 50
272.00000000000369
 51
0.0
  0
ARC
  5
2DFD
  8
AM_0
 10
400.20731014356721
 20
997.39987644924099
 30
0.0
 40
4.0
 50
92.999999000001679
 51
180.00001000000091
  0
LINE
  5
2DFE
  8
AM_0
 10
444.20731014356721
 20
1002.731176449241
 30
0.0
 11
444.20731014356721
 21
994.88241644924074
 31
0.0
  0
ARC
  5
2DFF
  8
AM_0
 10
532.20731014356716
 20
979.8797964492411
 30
0.0
 40
8.0
 50
0.0
 51
87.999999999996248
  0
CIRCLE
  5
2E00
  8
AM_0
 10
567.20731014356738
 20
980.33596644924035
 30
0.0
 40
9.5
  0
LINE
  5
2E01
  8
AM_0
 10
457.2071801435672
 20
874.87533644924122
 30
0.0
 11
457.2071801435672
 21
1001.545686449241
 31
0.0
  0
LINE
  5
2E02
  8
AM_0
 10
470.20731014356721
 20
869.33590644924095
 30
0.0
 11
470.20731014356721
 21
1005.07388644924
 31
0.0
  0
LINE
  5
2E03
  8
AM_0
 10
485.20731014356733
 20
992.01107644924105
 30
0.0
 11
485.20731014356733
 21
944.90170644924103
 31
0.0
  0
LINE
  5
2E04
  8
AM_0
 10
540.20731014356716
 20
997.88845644924072
 30
0.0
 11
540.20731014356716
 21
979.8797964492411
 31
0.0
  0
LINE
  5
2E05
  8
AM_0
 10
588.20731014356738
 20
997.52713644924074
 30
0.0
 11
588.20731014356738
 21
958.1447464492411
 31
0.0
  0
POLYLINE
  5
2E06
  8
AM_0
 66
     1
 10
0.0
 20
0.0
 30
0.0
  0
VERTEX
  5
2E07
  8
AM_0
 10
490.13700014356721
 20
945.06739644924107
 30
0.0
  0
VERTEX
  5
2E08
  8
AM_0
 10
493.74863914356729
 20
943.14006844924108
 30
0.0
  0
VERTEX
  5
2E09
  8
AM_0
 10
497.12615914356729
 20
940.82687044924103
 30
0.0
  0
VERTEX
  5
2E0A
  8
AM_0
 10
500.2285061435673
 20
938.15592144924074
 30
0.0
  0
VERTEX
  5
2E0B
  8
AM_0
 10
503.0179701435672
 20
935.15968644924101
 30
0.0
  0
VERTEX
  5
2E0C
  8
AM_0
 10
504.15452914356729
 20
933.45461944924114
 30
0.0
  0
VERTEX
  5
2E0D
  8
AM_0
 10
504.9277761435672
 20
931.55696044924082
 30
0.0
  0
VERTEX
  5
2E0E
  8
AM_0
 10
505.30657414356722
 20
929.54312444924074
 30
0.0
  0
VERTEX
  5
2E0F
  8
AM_0
 10
505.2756701435672
 20
927.49420644924101
 30
0.0
  0
VERTEX
  5
2E10
  8
AM_0
 10
490.50587014356751
 20
908.57906644924105
 30
0.0
  0
SEQEND
  5
2E11
  8
AM_0
  0
ARC
  5
2E12
  8
AM_0
 10
483.20731014356721
 20
914.90048644924082
 30
0.0
 40
2.0
 50
0.0
 51
90.00000299999769
  0
LINE
  5
2E13
  8
AM_0
 10
489.70731014356721
 20
942.90170644924115
 30
0.0
 11
489.70731014356721
 21
916.90048644924104
 31
0.0
  0
ARC
  5
2E14
  8
AM_0
 10
470.70731014356721
 20
865.33590644924107
 30
0.0
 40
3.999995999999999
 50
270.0
 51
90.00000299999769
  0
ARC
  5
2E15
  8
AM_0
 10
452.2071801435672
 20
881.21041644924105
 30
0.0
 40
5.0
 50
277.18119999999942
 51
0.0
  0
LINE
  5
2E16
  8
AM_0
 10
457.2071801435672
 20
916.90048644924104
 30
0.0
 11
483.20731014356721
 21
916.90048644924104
 31
0.0
  0
ARC
  5
2E17
  8
AM_0
 10
488.75687014356731
 20
911.01651644924107
 30
0.0
 40
3.0
 50
270.0
 51
305.65166999999718
  0
LINE
  5
2E18
  8
AM_0
 10
457.2071801435672
 20
942.90170644924115
 30
0.0
 11
483.20731014356721
 21
942.90170644924115
 31
0.0
  0
ARC
  5
2E19
  8
AM_0
 10
483.20731014356721
 20
944.90170644924103
 30
0.0
 40
2.0
 50
270.0
 51
0.0
  0
ARC
  5
2E1A
  8
AM_0
 10
489.23538014356751
 20
943.28213644924085
 30
0.0
 40
2.0
 50
63.199809000002318
 51
90.00000299999769
  0
ARC
  5
2E1B
  8
AM_0
 10
585.20731014356727
 20
913.57858644924124
 30
0.0
 40
3.0
 50
180.00001000000091
 51
225.0
  0
ARC
  5
2E1C
  8
AM_0
 10
585.20731014356727
 20
913.57858644924124
 30
0.0
 40
3.0
 50
179.9999899999988
 51
225.0
  0
LINE
  5
2E1D
  8
AM_0
 10
588.20731014356738
 20
887.83596644924103
 30
0.0
 11
592.20731014356738
 21
887.83596644924103
 31
0.0
  0
ARC
  5
2E1E
  8
AM_0
 10
585.20731014356727
 20
905.09329644924105
 30
0.0
 40
3.0
 50
0.0
 51
44.999998000001611
  0
ARC
  5
2E1F
  8
AM_0
 10
585.20731014356727
 20
905.09329644924105
 30
0.0
 40
3.0
 50
0.0
 51
45.000001000003799
  0
LINE
  5
2E20
  8
AM_0
 10
583.08603014356754
 20
911.45730644924106
 30
0.0
 11
587.3287001435674
 21
907.21456644924103
 31
0.0
  0
ARC
  5
2E21
  8
AM_0
 10
567.81143014356769
 20
959.87277644924075
 30
0.0
 40
8.0
 50
192.7707500000011
 51
267.99999999999631
  0
ARC
  5
2E22
  8
AM_0
 10
550.20731014356738
 20
974.33596644924114
 30
0.0
 40
10.0
 50
180.00001000000091
 51
270.0
  0
LINE
  5
2E23
  8
AM_0
 10
540.20731014356716
 20
974.33596644924114
 30
0.0
 11
540.20731014356716
 21
979.8797964492411
 31
0.0
  0
ARC
  5
2E24
  8
AM_0
 10
552.20731014356716
 20
956.33596644924069
 30
0.0
 40
8.0
 50
0.0
 51
90.00000299999769
  0
LINE
  5
2E25
  8
AM_0
 10
550.20731014356738
 20
964.33596644924035
 30
0.0
 11
552.20731014356716
 21
964.33596644924035
 31
0.0
  0
ARC
  5
2E26
  8
AM_0
 10
577.20731014356716
 20
946.53671644924134
 30
0.0
 40
5.0
 50
0.0
 51
87.999999999996248
  0
ARC
  5
2E27
  8
AM_0
 10
585.20731014356727
 20
951.21652644924109
 30
0.0
 40
3.0
 50
98.213209000002095
 51
180.00001000000091
  0
LINE
  5
2E28
  8
AM_0
 10
567.5323201435674
 20
951.87765644924104
 30
0.0
 11
577.3817401435673
 21
951.53366644924074
 31
0.0
  0
ARC
  5
2E29
  8
AM_0
 10
584.20731014356738
 20
958.1447464492411
 30
0.0
 40
4.0
 50
278.2132199999964
 51
0.0
  0
LINE
  5
2E2A
  8
AM_0
 10
514.29764014356738
 20
988.51004644924103
 30
0.0
 11
532.48648014356741
 21
987.87490644924105
 31
0.0
  0
LINE
  5
2E2B
  8
AM_0
 10
475.20724014356728
 20
1005.335906449241
 30
0.0
 11
584.34683014356756
 21
1001.524686449241
 31
0.0
  0
ARC
  5
2E2C
  8
AM_0
 10
487.20731014356721
 20
989.89413644924105
 30
0.0
 40
2.0
 50
180.00001000000091
 51
267.99999999999631
  0
LINE
  5
2E2D
  8
AM_0
 10
459.1374801435673
 20
994.07974644924104
 30
0.0
 11
470.2072401435675
 21
994.46627644924035
 31
0.0
  0
LINE
  5
2E2E
  8
AM_0
 10
457.2071801435672
 20
995.08291644924134
 30
0.0
 11
449.82870014356752
 21
996.00717644924111
 31
0.0
  0
ARC
  5
2E2F
  8
AM_0
 10
454.20731014356721
 20
986.96365644924083
 30
0.0
 40
3.0
 50
280.00001000000128
 51
0.0
  0
ARC
  5
2E30
  8
AM_0
 10
459.20731014356721
 20
992.08090644924107
 30
0.0
 40
2.0
 50
91.999998000000545
 51
180.00001000000091
  0
ARC
  5
2E31
  8
AM_0
 10
460.2071801435672
 20
1001.545686449241
 30
0.0
 40
3.0
 50
92.999999000001679
 51
180.00001000000091
  0
LINE
  5
2E32
  8
AM_0
 10
470.2072401435675
 20
994.46627644924035
 30
0.0
 11
483.27713014356732
 21
994.00991644924102
 31
0.0
  0
ARC
  5
2E33
  8
AM_0
 10
483.20731014356721
 20
992.01107644924105
 30
0.0
 40
2.0
 50
0.0
 51
87.999999999996248
  0
LINE
  5
2E34
  8
AM_0
 10
487.1374801435673
 20
987.89535644924115
 30
0.0
 11
511.74051014356752
 21
987.03622644924121
 31
0.0
  0
LINE
  5
2E35
  8
AM_0
 10
498.02377014356722
 20
1001.499296449241
 30
0.0
 11
507.39084014356717
 21
991.622586449241
 31
0.0
  0
LINE
  5
2E36
  8
AM_0
 10
489.70731014356721
 20
989.61581644924104
 30
0.0
 11
489.70731014356721
 21
1001.56924644924
 31
0.0
  0
ARC
  5
2E37
  8
AM_0
 10
490.76797014356731
 20
994.61795644924075
 30
0.0
 40
10.0
 50
43.482964999999631
 51
87.999999999996248
  0
ARC
  5
2E38
  8
AM_0
 10
514.64664014356754
 20
998.50393644924111
 30
0.0
 40
10.0
 50
223.48296000000141
 51
267.99999999999631
  0
ARC
  5
2E39
  8
AM_0
 10
545.20731014356716
 20
997.88845644924072
 30
0.0
 40
5.0
 50
87.999999999996248
 51
180.00001000000091
  0
ARC
  5
2E3A
  8
AM_0
 10
584.20731014356738
 20
997.52713644924074
 30
0.0
 40
4.0
 50
0.0
 51
87.999999999996248
  0
LINE
  5
2E3B
  8
AM_0
 10
662.20728014356735
 20
844.33596644924103
 30
0.0
 11
662.20728014356735
 21
886.33596644924103
 31
0.0
  0
LINE
  5
2E3C
  8
AM_0
 10
606.20731014356727
 20
871.33590644924095
 30
0.0
 11
662.20728014356735
 21
871.33590644924095
 31
0.0
  0
LINE
  5
2E3D
  8
AM_0
 10
606.20731014356727
 20
859.33590644924095
 30
0.0
 11
662.20728014356735
 21
859.33590644924095
 31
0.0
  0
LINE
  5
2E3E
  8
AM_0
 10
606.20731014356727
 20
871.33590644924095
 30
0.0
 11
606.20731014356727
 21
859.33590644924095
 31
0.0
  0
LINE
  5
2E40
  8
ﾁｭｳｼﾝｾﾝ1
 10
567.20731014356738
 20
962.83596644924103
 30
0.0
 11
567.20731014356738
 21
997.83596644924103
 31
0.0
  0
LINE
  5
2E41
  8
ﾁｭｳｼﾝｾﾝ1
 10
549.70731014356716
 20
980.33596644924035
 30
0.0
 11
584.70731014356738
 21
980.33596644924035
 31
0.0
  0
LINE
  5
2E42
  8
ﾁｭｳｼﾝｾﾝ1
 10
417.20731014356721
 20
962.83596644924103
 30
0.0
 11
417.20731014356721
 21
997.83596644924103
 31
0.0
  0
LINE
  5
2E43
  8
ﾁｭｳｼﾝｾﾝ1
 10
399.70731014356721
 20
980.33596644924035
 30
0.0
 11
434.70731014356733
 21
980.33596644924035
 31
0.0
  0
LINE
  5
2E44
  8
ﾁｭｳｼﾝｾﾝ1
 10
417.20731014356721
 20
732.83596644924103
 30
0.0
 11
417.20731014356721
 21
767.83596644924103
 31
0.0
  0
LINE
  5
2E45
  8
ﾁｭｳｼﾝｾﾝ1
 10
399.70731014356721
 20
750.33596644924103
 30
0.0
 11
434.70731014356733
 21
750.33596644924103
 31
0.0
  0
LINE
  5
2E46
  8
ﾁｭｳｼﾝｾﾝ
 10
428.48273014356721
 20
486.0542433026153
 30
0.0
 11
670.15168014356732
 21
486.0542433026153
 31
0.0
  0
LINE
  5
2E47
  8
AM_0
 10
396.20728014356729
 20
311.0542383026156
 30
0.0
 11
588.20733014356745
 21
311.0542383026156
 31
0.0
  0
LINE
  5
2E48
  8
AM_0
 10
548.20733014356745
 20
336.0542383026156
 30
0.0
 11
584.20728014356735
 21
336.0542383026156
 31
0.0
  0
LINE
  5
2E49
  8
AM_0
 10
568.20733014356745
 20
546.05423830261554
 30
0.0
 11
579.20728014356735
 21
546.05423830261554
 31
0.0
  0
LINE
  5
2E4A
  8
AM_0
 10
303.70728014356717
 20
323.05424330261559
 30
0.0
 11
303.70728014356717
 21
573.0542433026153
 31
0.0
  0
LINE
  5
2E4B
  8
AM_0
 10
319.70728014356717
 20
570.0542433026153
 30
0.0
 11
319.70728014356717
 21
448.05424330261559
 31
0.0
  0
ARC
  5
2E4C
  8
AM_0
 10
482.20728014356712
 20
466.06602330261552
 30
0.0
 40
3.0000000500000001
 50
270.0
 51
0.0
  0
LINE
  5
2E4D
  8
AM_0
 10
409.70728014356729
 20
350.55423830261537
 30
0.0
 11
409.70728014356729
 21
545.55423830261554
 31
0.0
  0
LINE
  5
2E4E
  8
AM_0
 10
457.20728014356712
 20
352.82843830261538
 30
0.0
 11
457.20728014356712
 21
575.66893830261563
 31
0.0
  0
LINE
  5
2E4F
  8
AM_0
 10
443.20733014356722
 20
336.6066683026155
 30
0.0
 11
443.20733014356722
 21
576.05423830261554
 31
0.0
  0
LINE
  5
2E50
  8
AM_0
 10
560.20728014356735
 20
389.65210830261537
 30
0.0
 11
560.20728014356735
 21
561.89963830261536
 31
0.0
  0
LINE
  5
2E51
  8
AM_0
 10
540.20728014356735
 20
520.22708830261524
 30
0.0
 11
540.20728014356735
 21
344.05426830261558
 31
0.0
  0
LINE
  5
2E52
  8
AM_0
 10
490.60393014356731
 20
468.54178830261532
 30
0.0
 11
502.74258014356752
 21
454.62839830261532
 31
0.0
  0
LINE
  5
2E53
  8
AM_0
 10
470.20728014356712
 20
369.60264330261538
 30
0.0
 11
470.20728014356712
 21
578.05423830261554
 31
0.0
  0
LINE
  5
2E54
  8
ﾁｭｳｼﾝｾﾝ
 10
295.0632798439388
 20
448.05424330261559
 30
0.0
 11
438.30474906221309
 21
448.05424330261559
 31
0.0
  0
LINE
  5
2E55
  8
AM_0
 10
409.70728014356729
 20
350.55424330261548
 30
0.0
 11
324.5763951435672
 21
348.32501230261528
 31
0.0
  0
LINE
  5
2E56
  8
AM_0
 10
404.9621401435673
 20
374.9172783026155
 30
0.0
 11
323.48377614356718
 21
372.07199130261552
 31
0.0
  0
LINE
  5
2E57
  8
AM_0
 10
405.81197814356727
 20
364.34035330261543
 30
0.0
 11
322.60258114356719
 21
361.43461730261538
 31
0.0
  0
LINE
  5
2E58
  8
AM_0
 10
322.70728014356717
 20
391.27845430261527
 30
0.0
 11
408.70728014356712
 21
391.27845430261527
 31
0.0
  0
ARC
  5
2E59
  8
AM_0
 10
322.70728014356717
 20
388.2784543026155
 30
0.0
 40
3.0
 50
90.0
 51
180.0
  0
LINE
  5
2E5A
  8
AM_0
 10
319.70728014356717
 20
326.05424330261548
 30
0.0
 11
319.70728014356717
 21
448.05424330261559
 31
0.0
  0
ARC
  5
2E5B
  8
AM_0
 10
324.70728014356717
 20
343.32672530261527
 30
0.0
 40
5.0
 50
91.499999999996206
 51
180.0
  0
LINE
  5
2E5C
  8
AM_0
 10
303.70728014356717
 20
323.05424330261559
 30
0.0
 11
316.70728014356717
 21
323.05424330261559
 31
0.0
  0
ARC
  5
2E5D
  8
AM_0
 10
316.70728014356717
 20
326.05424330261548
 30
0.0
 40
3.0
 50
270.0
 51
0.0
  0
ARC
  5
2E5E
  8
AM_0
 10
322.70728014356717
 20
358.4364453026156
 30
0.0
 40
3.0
 50
91.999999999997087
 51
180.0
  0
LINE
  5
2E5F
  8
ｶｸﾚｾﾝ2
 10
407.70728014356712
 20
336.0542383026156
 30
0.0
 11
407.70728014356712
 21
311.0542383026156
 31
0.0
  0
LINE
  5
2E60
  8
ﾁｭｳｼﾝｾﾝ1
 10
417.20728014356729
 20
338.01465830261537
 30
0.0
 11
417.20728014356729
 21
308.29651830261543
 31
0.0
  0
LINE
  5
2E61
  8
AM_0
 10
396.20728014356729
 20
332.05426830261553
 30
0.0
 11
396.20728014356729
 21
311.0542383026156
 31
0.0
  0
LINE
  5
2E62
  8
ｶｸﾚｾﾝ2
 10
557.70728014356735
 20
336.0542383026156
 30
0.0
 11
557.70728014356735
 21
311.0542383026156
 31
0.0
  0
LINE
  5
2E63
  8
ｶｸﾚｾﾝ2
 10
426.70728014356729
 20
336.0542383026156
 30
0.0
 11
426.70728014356729
 21
311.0542383026156
 31
0.0
  0
LINE
  5
2E64
  8
ﾁｭｳｼﾝｾﾝ1
 10
567.20728014356735
 20
338.01465830261537
 30
0.0
 11
567.20728014356735
 21
308.29651830261543
 31
0.0
  0
LINE
  5
2E65
  8
AM_0
 10
474.15933014356722
 20
374.7020683026156
 30
0.0
 11
446.60928014356728
 21
339.15366830261547
 31
0.0
  0
LINE
  5
2E66
  8
AM_0
 10
457.20728014356712
 20
431.44394830261558
 30
0.0
 11
482.20728014356712
 21
431.44394830261558
 31
0.0
  0
LINE
  5
2E67
  8
AM_0
 10
457.20728014356712
 20
463.06602330261552
 30
0.0
 11
470.20728014356712
 21
463.06602330261552
 31
0.0
  0
LINE
  5
2E68
  8
AM_0
 10
408.70728014356712
 20
367.33852630261561
 30
0.0
 11
408.70728014356712
 21
391.27845430261527
 31
0.0
  0
LINE
  5
2E69
  8
AM_0
 10
411.70728014356712
 20
391.2784533026155
 30
0.0
 11
411.70728014356712
 21
364.44144830261553
 31
0.0
  0
LINE
  5
2E6A
  8
AM_0
 10
400.20728014356712
 20
336.0542383026156
 30
0.0
 11
440.2859801435672
 21
336.0542383026156
 31
0.0
  0
ARC
  5
2E6B
  8
AM_0
 10
405.70728014356729
 20
367.33852630261561
 30
0.0
 40
3.0
 50
271.99999999999687
 51
0.0
  0
ARC
  5
2E6C
  8
AM_0
 10
400.20728014356712
 20
332.05426830261553
 30
0.0
 40
4.000000049999997
 50
90.00000299999769
 51
180.00001000000091
  0
LINE
  5
2E6D
  8
AM_0
 10
409.70733014356722
 20
350.55426830261558
 30
0.0
 11
438.38178014356731
 21
349.55292830261538
 31
0.0
  0
LINE
  5
2E6E
  8
AM_0
 10
406.78916614356712
 20
350.55424330261548
 30
0.0
 11
409.70728014356729
 21
350.55424330261548
 31
0.0
  0
ARC
  5
2E6F
  8
AM_0
 10
440.2859801435672
 20
344.05426830261558
 30
0.0
 40
8.0
 50
270.0
 51
322.22431999999588
  0
ARC
  5
2E70
  8
AM_0
 10
438.20733014356722
 20
344.55597830261547
 30
0.0
 40
5.0
 50
0.0
 51
88.000000000002899
  0
LINE
  5
2E71
  8
AM_0
 10
411.70728014356712
 20
364.44144830261553
 30
0.0
 11
443.20733014356722
 21
364.44144830261553
 31
0.0
  0
LINE
  5
2E72
  8
AM_0
 10
411.70728014356712
 20
375.04807830261552
 30
0.0
 11
443.20733014356722
 21
375.04807830261552
 31
0.0
  0
LINE
  5
2E73
  8
AM_0
 10
411.70728014356712
 20
391.2784533026155
 30
0.0
 11
443.20733014356722
 21
391.2784533026155
 31
0.0
  0
LINE
  5
2E74
  8
AM_0
 10
475.20728014356712
 20
421.86616330261552
 30
0.0
 11
475.20728014356712
 21
377.76493330261542
 31
0.0
  0
ARC
  5
2E75
  8
AM_0
 10
470.20728014356712
 20
377.76493330261542
 30
0.0
 40
5.0
 50
322.22431999999588
 51
0.0
  0
ARC
  5
2E76
  8
AM_0
 10
548.20733014356745
 20
344.05426830261558
 30
0.0
 40
8.0
 50
180.00001000000091
 51
270.0
  0
LINE
  5
2E77
  8
AM_0
 10
552.20728014356735
 20
381.6521083026156
 30
0.0
 11
543.69053014356734
 21
381.6521083026156
 31
0.0
  0
ARC
  5
2E78
  8
AM_0
 10
552.20728014356735
 20
389.65210830261537
 30
0.0
 40
8.0
 50
270.0
 51
0.0
  0
LINE
  5
2E79
  8
AM_0
 10
485.20728014356729
 20
428.44391830261537
 30
0.0
 11
485.20728014356729
 21
421.86616330261552
 31
0.0
  0
LINE
  5
2E7A
  8
AM_0
 10
475.20728014356712
 20
421.86616330261552
 30
0.0
 11
485.20728014356729
 21
421.86616330261552
 31
0.0
  0
LINE
  5
2E7B
  8
AM_0
 10
487.9649301435673
 20
430.13929330261527
 30
0.0
 11
501.20078014356727
 21
440.0492683026153
 31
0.0
  0
LINE
  5
2E7C
  8
AM_0
 10
489.70728014356729
 20
460.5420633026153
 30
0.0
 11
489.70728014356729
 21
433.42991330261538
 31
0.0
  0
ARC
  5
2E7D
  8
AM_0
 10
482.20728014356712
 20
428.44391830261537
 30
0.0
 40
3.0000000500000001
 50
0.0
 51
90.00000299999769
  0
LINE
  5
2E7E
  8
AM_0
 10
470.20728014356712
 20
463.06602330261552
 30
0.0
 11
482.20728014356712
 21
463.06602330261552
 31
0.0
  0
ARC
  5
2E7F
  8
AM_0
 10
495.20728014356712
 20
448.05424330261559
 30
0.0
 40
10.0
 50
306.82304000000198
 51
41.102821999997772
  0
LINE
  5
2E80
  8
AM_0
 10
322.70728014356717
 20
504.83003130261568
 30
0.0
 11
408.70728014356712
 21
504.83003130261568
 31
0.0
  0
LINE
  5
2E81
  8
AM_0
 10
405.81197814356727
 20
531.76813230261553
 30
0.0
 11
322.60258114356719
 21
534.67386830261535
 31
0.0
  0
LINE
  5
2E82
  8
AM_0
 10
404.9621401435673
 20
521.19120730261557
 30
0.0
 11
323.48377614356718
 21
524.03649430261567
 31
0.0
  0
LINE
  5
2E83
  8
AM_0
 10
409.70728014356729
 20
545.55424330261565
 30
0.0
 11
324.5763951435672
 21
547.78347330261545
 31
0.0
  0
ARC
  5
2E84
  8
AM_0
 10
322.70728014356717
 20
537.67204030261553
 30
0.0
 40
3.0
 50
180.0
 51
268.0000000000029
  0
ARC
  5
2E85
  8
AM_0
 10
322.70728014356717
 20
507.83003130261562
 30
0.0
 40
3.0
 50
180.0
 51
270.0
  0
ARC
  5
2E86
  8
AM_0
 10
316.70728014356717
 20
570.0542433026153
 30
0.0
 40
3.0
 50
0.0
 51
90.0
  0
ARC
  5
2E87
  8
AM_0
 10
324.70728014356717
 20
552.78176030261557
 30
0.0
 40
5.0
 50
180.0
 51
268.4999999999971
  0
LINE
  5
2E88
  8
AM_0
 10
303.70728014356717
 20
573.0542433026153
 30
0.0
 11
316.70728014356717
 21
573.0542433026153
 31
0.0
  0
ARC
  5
2E89
  8
AM_0
 10
454.20728014356712
 20
598.55423830261554
 30
0.0
 40
20.500000499999992
 50
304.61364000000401
 51
235.3863500000021
  0
CIRCLE
  5
2E8A
  8
AM_0
 10
454.20728014356712
 20
598.55423830261554
 30
0.0
 40
12.5
  0
LINE
  5
2E8B
  8
AM_0
 10
457.20728014356712
 20
552.37853830261554
 30
0.0
 11
470.20728014356712
 21
552.37853830261554
 31
0.0
  0
LINE
  5
2E8C
  8
AM_0
 10
457.20728014356712
 20
570.63753830261555
 30
0.0
 11
470.20728014356712
 21
570.63753830261555
 31
0.0
  0
LINE
  5
2E8D
  8
AM_0
 10
459.1374801435673
 20
577.66768830261572
 30
0.0
 11
470.20728014356712
 21
578.05423830261554
 31
0.0
  0
ARC
  5
2E8E
  8
AM_0
 10
461.52918014356732
 20
583.68548830261545
 30
0.0
 40
1.0
 50
15.000000000000741
 51
79.539281000002589
  0
ARC
  5
2E8F
  8
AM_0
 10
405.70728014356729
 20
528.76995930261558
 30
0.0
 40
3.0
 50
0.0
 51
88.000000000002899
  0
LINE
  5
2E90
  8
AM_0
 10
411.70728014356712
 20
504.83002830261552
 30
0.0
 11
443.20733014356722
 21
504.83002830261552
 31
0.0
  0
LINE
  5
2E91
  8
AM_0
 10
411.70728014356712
 20
521.06038830261548
 30
0.0
 11
443.20733014356722
 21
521.06038830261548
 31
0.0
  0
LINE
  5
2E92
  8
AM_0
 10
411.70728014356712
 20
531.66703830261554
 30
0.0
 11
443.20733014356722
 21
531.66703830261554
 31
0.0
  0
LINE
  5
2E93
  8
AM_0
 10
408.70728014356712
 20
528.76995930261558
 30
0.0
 11
408.70728014356712
 21
504.83003130261568
 31
0.0
  0
LINE
  5
2E94
  8
AM_0
 10
411.70728014356712
 20
531.66703830261554
 30
0.0
 11
411.70728014356712
 21
504.83002830261552
 31
0.0
  0
LINE
  5
2E95
  8
AM_0
 10
409.70728014356729
 20
545.55423830261554
 30
0.0
 11
438.38178014356731
 21
546.55558830261555
 31
0.0
  0
ARC
  5
2E96
  8
AM_0
 10
438.20733014356722
 20
551.55253830261563
 30
0.0
 40
5.0
 50
271.99999999999687
 51
0.0
  0
LINE
  5
2E97
  8
AM_0
 10
445.68628014356722
 20
565.13323830261527
 30
0.0
 11
454.72813014356723
 21
566.72758830261569
 31
0.0
  0
ARC
  5
2E98
  8
AM_0
 10
446.20728014356729
 20
562.17883830261553
 30
0.0
 40
3.0000000500000001
 50
99.999999999998593
 51
159.3455099999999
  0
ARC
  5
2E99
  8
AM_0
 10
454.20728014356712
 20
569.68198830261554
 30
0.0
 40
3.0000000500000001
 50
279.99999999999852
 51
0.0
  0
LINE
  5
2E9A
  8
AM_0
 10
446.70398014356738
 20
584.66893830261552
 30
0.0
 11
454.20738014356721
 21
586.05423830261554
 31
0.0
  0
LINE
  5
2E9B
  8
AM_0
 10
446.39013014356732
 20
584.55423830261554
 30
0.0
 11
462.02433014356728
 21
584.55423830261554
 31
0.0
  0
LINE
  5
2E9C
  8
AM_0
 10
443.88438014356723
 20
577.55423830261554
 30
0.0
 11
458.5398301435672
 21
577.55423830261554
 31
0.0
  0
ARC
  5
2E9D
  8
AM_0
 10
446.88543014356742
 20
583.68548830261545
 30
0.0
 40
1.0
 50
100.4607200000025
 51
164.99999000000179
  0
ARC
  5
2E9E
  8
AM_0
 10
440.2902801435672
 20
578.39073830261532
 30
0.0
 40
4.000000049999997
 50
347.9293300000017
 51
55.386359000001512
  0
ARC
  5
2E9F
  8
AM_0
 10
445.20728014356712
 20
576.05423830261554
 30
0.0
 40
2.0000000500000001
 50
131.4096200000032
 51
180.00001000000091
  0
LINE
  5
2EA0
  8
AM_0
 10
444.20728014356717
 20
577.55418830261533
 30
0.0
 11
445.91948014356751
 21
583.94433830261562
 31
0.0
  0
LINE
  5
2EA1
  8
AM_0
 10
454.20718014356743
 20
586.05423830261554
 30
0.0
 11
461.71063014356753
 21
584.66893830261552
 31
0.0
  0
ARC
  5
2EA2
  8
AM_0
 10
459.20728014356729
 20
575.66893830261563
 30
0.0
 40
2.0000000500000001
 50
91.999998000000545
 51
180.00001000000091
  0
LINE
  5
2EA3
  8
AM_0
 10
485.20728014356729
 20
466.06602330261552
 30
0.0
 11
485.20728014356729
 21
549.37853830261554
 31
0.0
  0
ARC
  5
2EA4
  8
AM_0
 10
488.3432801435672
 20
466.56953330261553
 30
0.0
 40
3.0000000500000001
 50
41.102821999997772
 51
90.00000299999769
  0
ARC
  5
2EA5
  8
AM_0
 10
550.20728014356735
 20
520.22708830261524
 30
0.0
 40
10.0
 50
90.00000299999769
 51
180.00001000000091
  0
LINE
  5
2EA6
  8
AM_0
 10
555.26553014356739
 20
530.2270883026157
 30
0.0
 11
550.20728014356735
 21
530.2270883026157
 31
0.0
  0
LINE
  5
2EA7
  8
AM_0
 10
487.13748014356759
 20
572.17678830261559
 30
0.0
 11
552.48643014356708
 21
569.89473830261556
 31
0.0
  0
LINE
  5
2EA8
  8
AM_0
 10
485.20728014356729
 20
570.63753830261555
 30
0.0
 11
485.20728014356729
 21
575.59903830261567
 31
0.0
  0
ARC
  5
2EA9
  8
AM_0
 10
489.21958014356721
 20
546.49453830261541
 30
0.0
 40
3.0000000500000001
 50
270.0
 51
288.46821999999901
  0
LINE
  5
2EAA
  8
AM_0
 10
486.57373014356727
 20
542.44803830261571
 30
0.0
 11
498.37508014356729
 21
546.38943830261564
 31
0.0
  0
ARC
  5
2EAB
  8
AM_0
 10
488.89873014356732
 20
567.63753830261555
 30
0.0
 40
3.0000000500000001
 50
59.83387800000353
 51
90.00000299999769
  0
LINE
  5
2EAC
  8
AM_0
 10
489.70728014356729
 20
547.52988830261529
 30
0.0
 11
489.70728014356729
 21
568.7030883026157
 31
0.0
  0
LINE
  5
2EAD
  8
AM_0
 10
470.20728014356712
 20
552.37853830261554
 30
0.0
 11
482.20728014356712
 21
552.37853830261554
 31
0.0
  0
ARC
  5
2EAE
  8
AM_0
 10
482.20728014356712
 20
549.37853830261554
 30
0.0
 40
3.0000000500000001
 50
0.0
 51
90.00000299999769
  0
LINE
  5
2EAF
  8
AM_0
 10
470.20728014356712
 20
570.63753830261555
 30
0.0
 11
488.89873014356732
 21
570.63753830261555
 31
0.0
  0
ARC
  5
2EB0
  8
AM_0
 10
495.20728014356712
 20
555.87443830261554
 30
0.0
 40
10.0
 50
288.46820999999818
 51
59.83387800000353
  0
LINE
  5
2EB1
  8
AM_0
 10
490.4062801435673
 20
570.23123830261545
 30
0.0
 11
500.23233014356731
 21
564.52013830261535
 31
0.0
  0
LINE
  5
2EB2
  8
AM_0
 10
470.20728014356712
 20
578.05423830261554
 30
0.0
 11
483.27708014356722
 21
577.59783830261551
 31
0.0
  0
ARC
  5
2EB3
  8
AM_0
 10
468.12418014356729
 20
578.39073830261532
 30
0.0
 40
4.000000049999997
 50
124.6136499999977
 51
187.8682199999983
  0
LINE
  5
2EB4
  8
AM_0
 10
464.13013014356733
 20
577.84193830261563
 30
0.0
 11
462.49503014356719
 21
583.94433830261562
 31
0.0
  0
ARC
  5
2EB5
  8
AM_0
 10
487.20728014356712
 20
574.17558830261555
 30
0.0
 40
2.0000000500000001
 50
179.9999899999988
 51
268.00000999999861
  0
ARC
  5
2EB6
  8
AM_0
 10
483.20733014356728
 20
575.59903830261567
 30
0.0
 40
2.0000000500000001
 50
0.0
 51
88.000000000002899
  0
ARC
  5
2EB7
  8
AM_0
 10
568.20733014356745
 20
554.05423830261554
 30
0.0
 40
8.0
 50
180.00001000000091
 51
270.0
  0
ARC
  5
2EB8
  8
AM_0
 10
552.20728014356735
 20
561.89963830261536
 30
0.0
 40
8.0
 50
0.0
 51
88.000000000002899
  0
LINE
  5
2EB9
  8
ﾁｭｳｼﾝｾﾝ
 10
956.20573536434642
 20
623.47211126441357
 30
0.0
 11
956.20573536434642
 21
310.08466330261552
 31
0.0
  0
LINE
  5
2EBA
  8
AM_0
 10
1093.2767953643461
 20
455.1253183026156
 30
0.0
 11
1079.936920364346
 21
468.4651933026156
 31
0.0
  0
LINE
  5
2EBB
  8
AM_0
 10
819.13467036434622
 20
455.12525830261552
 30
0.0
 11
832.4745703643456
 21
468.46516330261551
 31
0.0
  0
LINE
  5
2EBC
  8
AM_0
 10
832.66077036434569
 20
463.44584330261529
 30
0.0
 11
816.24407036434559
 21
331.67237330261543
 31
0.0
  0
LINE
  5
2EBD
  8
AM_0
 10
862.20573036434644
 20
529.68908830261535
 30
0.0
 11
862.20573036434644
 21
414.0443833026153
 31
0.0
  0
LINE
  5
2EBE
  8
AM_0
 10
1079.750670364346
 20
463.44584330261529
 30
0.0
 11
1096.1673903643459
 21
331.67240330261552
 31
0.0
  0
LINE
  5
2EBF
  8
AM_0
 10
1050.2057353643461
 20
529.68908830261535
 30
0.0
 11
1050.2057353643461
 21
410.4396183026156
 31
0.0
  0
CIRCLE
  5
2EC0
  8
AM_0
 10
956.20573536434642
 20
486.0542433026153
 30
0.0
 40
41.000000499999992
  0
ARC
  5
2EC1
  8
AM_0
 10
956.20573536434642
 20
458.0542433026153
 30
0.0
 40
88.0
 50
0.0
 51
186.5249800000004
  0
ARC
  5
2EC2
  8
AM_0
 10
1090.0887603643459
 20
465.38441330261531
 30
0.0
 40
5.0
 50
187.37550999999999
 51
225.0
  0
ARC
  5
2EC3
  8
AM_0
 10
822.3227203643462
 20
465.38441330261531
 30
0.0
 40
5.0
 50
315.0
 51
352.62448999999958
  0
LINE
  5
2EC4
  8
AM_0
 10
588.20733014356745
 20
486.0542433026153
 30
0.0
 11
588.20733014356745
 21
452.29688830261529
 31
0.0
  0
LINE
  5
2EC5
  8
AM_0
 10
582.20728014356735
 20
486.0542433026153
 30
0.0
 11
582.20728014356735
 21
339.80024330261551
 31
0.0
  0
LINE
  5
2EC6
  8
ﾁｭｳｼﾝｾﾝ
 10
811.94017036434582
 20
448.05424330261559
 30
0.0
 11
1100.060210364345
 21
448.05424330261559
 31
0.0
  0
LINE
  5
2EC7
  8
AM_0
 10
1041.2057353643461
 20
311.0542383026156
 30
0.0
 11
1096.205750364345
 21
311.0542383026156
 31
0.0
  0
LINE
  5
2EC8
  8
AM_0
 10
1052.2057353643461
 20
336.0542383026156
 30
0.0
 11
1091.205750364345
 21
336.0542383026156
 31
0.0
  0
LINE
  5
2EC9
  8
AM_0
 10
816.20572036434612
 20
311.0542383026156
 30
0.0
 11
871.20573036434632
 21
311.0542383026156
 31
0.0
  0
LINE
  5
2ECA
  8
AM_0
 10
821.20572036434635
 20
336.0542383026156
 30
0.0
 11
863.50575036434645
 21
336.0542383026156
 31
0.0
  0
LINE
  5
2ECB
  8
AM_0
 10
816.20572036434612
 20
331.05423830261549
 30
0.0
 11
816.20572036434612
 21
311.0542383026156
 31
0.0
  0
LINE
  5
2ECC
  8
ｶｸﾚｾﾝ2
 10
831.70572036434612
 20
336.0542383026156
 30
0.0
 11
831.70572036434612
 21
311.0542383026156
 31
0.0
  0
LINE
  5
2ECD
  8
ｶｸﾚｾﾝ2
 10
576.70728014356735
 20
336.0542383026156
 30
0.0
 11
576.70728014356735
 21
311.0542383026156
 31
0.0
  0
LINE
  5
2ECE
  8
AM_0
 10
588.20733014356745
 20
332.05426830261553
 30
0.0
 11
588.20733014356745
 21
311.0542383026156
 31
0.0
  0
ARC
  5
2ECF
  8
AM_0
 10
584.20728014356735
 20
332.05426830261553
 30
0.0
 40
4.000000049999997
 50
0.0
 51
90.00000299999769
  0
ARC
  5
2ED0
  8
AM_0
 10
586.20728014356735
 20
339.80024330261551
 30
0.0
 40
4.000000049999997
 50
179.9999899999988
 51
255.52248999999699
  0
ARC
  5
2ED1
  8
AM_0
 10
585.20728014356735
 20
443.81162830261559
 30
0.0
 40
3.0000000500000001
 50
135.0
 51
180.00001000000091
  0
LINE
  5
2ED2
  8
AM_0
 10
583.08603014356731
 20
445.93287330261569
 30
0.0
 11
587.32868014356734
 21
450.1755183026155
 31
0.0
  0
ARC
  5
2ED3
  8
AM_0
 10
585.20728014356735
 20
452.29688830261529
 30
0.0
 40
3.0000000500000001
 50
315.0
 51
0.0
  0
ARC
  5
2ED4
  8
AM_0
 10
821.20572036434635
 20
331.05423830261549
 30
0.0
 40
5.0
 50
90.00000299999769
 51
180.00001000000091
  0
ARC
  5
2ED5
  8
AM_0
 10
956.20573536434642
 20
448.05424330261559
 30
0.0
 40
130.0
 50
187.37550999999999
 51
189.62446000000111
  0
ARC
  5
2ED6
  8
AM_0
 10
826.20572036434612
 20
448.05424330261559
 30
0.0
 40
10.0
 50
135.0
 51
225.0
  0
LINE
  5
2ED7
  8
AM_0
 10
819.13467036434622
 20
440.98313330261527
 30
0.0
 11
826.94567036434626
 21
433.17216330261527
 31
0.0
  0
ARC
  5
2ED8
  8
AM_0
 10
823.41012036434574
 20
429.63666830261531
 30
0.0
 40
5.0
 50
352.89851999999883
 51
45.00000100000149
  0
ARC
  5
2ED9
  8
AM_0
 10
822.3227203643462
 20
430.72407330261552
 30
0.0
 40
5.0
 50
7.375508100000534
 51
45.00000100000149
  0
LINE
  5
2EDA
  8
ﾁｭｳｼﾝｾﾝ1
 10
841.2057303643461
 20
340.56214330261543
 30
0.0
 11
841.2057303643461
 21
306.16260830261552
 31
0.0
  0
LINE
  5
2EDB
  8
AM_0
 10
1044.905745364345
 20
332.05426830261553
 30
0.0
 11
1044.905745364345
 21
311.0542383026156
 31
0.0
  0
LINE
  5
2EDC
  8
AM_0
 10
867.50575036434611
 20
332.05426830261553
 30
0.0
 11
867.50575036434611
 21
311.0542383026156
 31
0.0
  0
ARC
  5
2EDD
  8
AM_0
 10
873.22758036434618
 20
323.89008330261538
 30
0.0
 40
8.0
 50
279.48829999999663
 51
357.00553999999892
  0
ARC
  5
2EDE
  8
AM_0
 10
1039.1839153643459
 20
323.89008330261538
 30
0.0
 40
8.0
 50
182.9944600000008
 51
260.5117000000032
  0
LINE
  5
2EDF
  8
ｶｸﾚｾﾝ2
 10
850.70576036434613
 20
336.0542383026156
 30
0.0
 11
850.70576036434613
 21
311.0542383026156
 31
0.0
  0
LINE
  5
2EE0
  8
ｶｸﾚｾﾝ2
 10
1061.7057353643449
 20
336.0542383026156
 30
0.0
 11
1061.7057353643449
 21
311.0542383026156
 31
0.0
  0
LINE
  5
2EE1
  8
AM_0
 10
875.20573036434632
 20
316.0542383026156
 30
0.0
 11
1037.571520364346
 21
316.0542383026156
 31
0.0
  0
LINE
  5
2EE2
  8
AM_0
 10
871.20573036434632
 20
312.05426830261553
 30
0.0
 11
871.20573036434632
 21
311.0542383026156
 31
0.0
  0
ARC
  5
2EE3
  8
AM_0
 10
875.20573036434632
 20
312.05426830261553
 30
0.0
 40
4.000000049999997
 50
99.488295999997277
 51
180.00001000000091
  0
LINE
  5
2EE4
  8
AM_0
 10
1041.2057353643461
 20
312.05426830261553
 30
0.0
 11
1041.2057353643461
 21
311.0542383026156
 31
0.0
  0
ARC
  5
2EE5
  8
AM_0
 10
1037.2057353643461
 20
312.05426830261553
 30
0.0
 40
4.000000049999997
 50
0.0
 51
80.511702000002984
  0
LINE
  5
2EE6
  8
AM_0
 10
889.2057303643461
 20
331.05423830261549
 30
0.0
 11
1023.205735364346
 21
331.05423830261549
 31
0.0
  0
LINE
  5
2EE7
  8
AM_0
 10
885.85127036434619
 20
325.78492330261548
 30
0.0
 11
1026.5601953643461
 21
325.78492330261548
 31
0.0
  0
LINE
  5
2EE8
  8
AM_0
 10
868.20576036434636
 20
448.05424330261559
 30
0.0
 11
868.20576036434636
 21
344.05426830261558
 31
0.0
  0
ARC
  5
2EE9
  8
AM_0
 10
956.20573536434642
 20
414.0443833026153
 30
0.0
 40
93.999994999999984
 50
179.9999899999988
 51
200.58196000000129
  0
ARC
  5
2EEA
  8
AM_0
 10
863.50575036434645
 20
332.05426830261553
 30
0.0
 40
4.000000049999997
 50
0.0
 51
90.00000299999769
  0
ARC
  5
2EEB
  8
AM_0
 10
860.20573036434621
 20
344.05426830261558
 30
0.0
 40
8.0
 50
270.0
 51
0.0
  0
ARC
  5
2EEC
  8
AM_0
 10
889.2057303643461
 20
323.05423830261549
 30
0.0
 40
8.0
 50
90.00000299999769
 51
177.00553999999889
  0
ARC
  5
2EED
  8
AM_0
 10
885.85127036434619
 20
320.7849233026156
 30
0.0
 40
5.0
 50
90.00000299999769
 51
166.1807799999996
  0
LINE
  5
2EEE
  8
AM_0
 10
1044.2057353643461
 20
458.0542433026153
 30
0.0
 11
1044.2057353643461
 21
344.05426830261558
 31
0.0
  0
ARC
  5
2EEF
  8
AM_0
 10
956.20573536434642
 20
414.0443833026153
 30
0.0
 40
93.999994999999984
 50
339.95001999999999
 51
20.049975999999841
  0
ARC
  5
2EF0
  8
AM_0
 10
1023.205735364346
 20
323.05423830261549
 30
0.0
 40
8.0
 50
2.9944644000003162
 51
90.00000299999769
  0
ARC
  5
2EF1
  8
AM_0
 10
1026.5601953643461
 20
320.7849233026156
 30
0.0
 40
5.0
 50
13.819217000001251
 51
90.00000299999769
  0
ARC
  5
2EF2
  8
AM_0
 10
1048.9057453643461
 20
332.05426830261553
 30
0.0
 40
4.000000049999997
 50
90.00000299999769
 51
180.00001000000091
  0
ARC
  5
2EF3
  8
AM_0
 10
1052.2057353643461
 20
344.05426830261558
 30
0.0
 40
8.0
 50
180.00001000000091
 51
270.0
  0
ARC
  5
2EF4
  8
AM_0
 10
1049.2057353643461
 20
380.10328330261552
 30
0.0
 40
5.0
 50
159.95003000000011
 51
180.00001000000091
  0
ARC
  5
2EF5
  8
AM_0
 10
1049.2057353643461
 20
447.98551830261528
 30
0.0
 40
5.0
 50
179.9999899999988
 51
200.04996999999969
  0
LINE
  5
2EF6
  8
ﾁｭｳｼﾝｾﾝ1
 10
1071.2057353643461
 20
339.90439830261522
 30
0.0
 11
1071.2057353643461
 21
304.07871330261543
 31
0.0
  0
LINE
  5
2EF7
  8
AM_0
 10
1096.205750364345
 20
331.05423830261549
 30
0.0
 11
1096.205750364345
 21
311.0542383026156
 31
0.0
  0
LINE
  5
2EF8
  8
ｶｸﾚｾﾝ2
 10
1080.7057353643461
 20
336.0542383026156
 30
0.0
 11
1080.7057353643461
 21
311.0542383026156
 31
0.0
  0
ARC
  5
2EF9
  8
AM_0
 10
1091.205750364345
 20
331.05423830261549
 30
0.0
 40
5.0
 50
0.0
 51
90.00000299999769
  0
ARC
  5
2EFA
  8
AM_0
 10
956.20573536434642
 20
448.05424330261559
 30
0.0
 40
130.0
 50
350.37554999999838
 51
352.62448999999958
  0
LINE
  5
2EFB
  8
AM_0
 10
1093.2767953643461
 20
440.98319830261551
 30
0.0
 11
1085.465820364346
 21
433.17222330261541
 31
0.0
  0
ARC
  5
2EFC
  8
AM_0
 10
1089.0013603643461
 20
429.63666830261531
 30
0.0
 40
5.0
 50
135.0
 51
187.10148999999859
  0
ARC
  5
2EFD
  8
AM_0
 10
1090.0887603643459
 20
430.72407330261552
 30
0.0
 40
5.0
 50
135.0
 51
172.6244899999997
  0
ARC
  5
2EFE
  8
AM_0
 10
1086.2057503643459
 20
448.05424330261559
 30
0.0
 40
10.0
 50
315.0
 51
45.00000100000149
  0
ARC
  5
2EFF
  8
AM_0
 10
956.20573536434642
 20
448.05424330261559
 30
0.0
 40
124.5
 50
7.1014839000006411
 51
172.89851999999871
  0
ARC
  5
2F00
  8
AM_0
 10
956.20573536434642
 20
448.05424330261559
 30
0.0
 40
130.0
 50
7.3755072000005972
 51
52.624493999996417
  0
ARC
  5
2F01
  8
AM_0
 10
956.20573536434642
 20
448.05424330261559
 30
0.0
 40
130.0
 50
127.3755000000037
 51
172.6244899999997
  0
LINE
  5
2F02
  8
AM_0
 10
582.20728014356735
 20
486.0542433026153
 30
0.0
 11
582.20728014356735
 21
543.05423830261554
 31
0.0
  0
LINE
  5
2F03
  8
AM_0
 10
592.20728014356735
 20
507.05427330261529
 30
0.0
 11
662.20728014356735
 21
507.05427330261529
 31
0.0
  0
LINE
  5
2F04
  8
AM_0
 10
592.20728014356735
 20
465.0542433026153
 30
0.0
 11
662.20728014356735
 21
465.0542433026153
 31
0.0
  0
LINE
  5
2F05
  8
AM_0
 10
606.20728014356735
 20
510.0542433026153
 30
0.0
 11
662.20728014356735
 21
510.0542433026153
 31
0.0
  0
LINE
  5
2F06
  8
AM_0
 10
588.20733014356745
 20
486.0542433026153
 30
0.0
 11
588.20733014356745
 21
525.81163830261551
 31
0.0
  0
LINE
  5
2F07
  8
AM_0
 10
592.20728014356735
 20
463.55424330261559
 30
0.0
 11
592.20728014356735
 21
508.5542433026153
 31
0.0
  0
LINE
  5
2F08
  8
AM_0
 10
588.20733014356745
 20
463.55424330261559
 30
0.0
 11
592.20728014356735
 21
463.55424330261559
 31
0.0
  0
LINE
  5
2F09
  8
AM_0
 10
588.20733014356745
 20
508.5542433026153
 30
0.0
 11
592.20728014356735
 21
508.5542433026153
 31
0.0
  0
LINE
  5
2F0A
  8
AM_0
 10
583.08598014356733
 20
532.17558830261555
 30
0.0
 11
587.32868014356734
 21
527.93288830261554
 31
0.0
  0
ARC
  5
2F0B
  8
AM_0
 10
585.20728014356735
 20
534.29683830261536
 30
0.0
 40
3.0000000500000001
 50
179.9999899999988
 51
225.0
  0
ARC
  5
2F0C
  8
AM_0
 10
585.20728014356735
 20
525.81163830261551
 30
0.0
 40
3.0000000500000001
 50
0.0
 51
45.00000100000149
  0
LINE
  5
2F0D
  8
AM_0
 10
606.20728014356735
 20
510.0542433026153
 30
0.0
 11
606.20728014356735
 21
507.05427330261529
 31
0.0
  0
LINE
  5
2F0E
  8
AM_0
 10
662.20728014356735
 20
465.0542433026153
 30
0.0
 11
662.20728014356735
 21
510.0542433026153
 31
0.0
  0
ARC
  5
2F0F
  8
AM_0
 10
579.20728014356735
 20
543.05423830261554
 30
0.0
 40
3.0000000500000001
 50
0.0
 51
90.00000299999769
  0
ARC
  5
2F10
  8
AM_0
 10
828.93902036434633
 20
472.0007433026156
 30
0.0
 40
5.0
 50
315.0
 51
349.34382000000022
  0
LINE
  5
2F11
  8
AM_0
 10
952.20573536434574
 20
615.05423830261554
 30
0.0
 11
952.20573536434574
 21
581.55423830261554
 31
0.0
  0
LINE
  5
2F12
  8
AM_0
 10
960.20573536434563
 20
615.05423830261554
 30
0.0
 11
960.20573536434563
 21
581.55423830261554
 31
0.0
  0
LINE
  5
2F13
  8
AM_0
 10
950.20573536434586
 20
510.0542433026153
 30
0.0
 11
962.2057353643462
 21
510.0542433026153
 31
0.0
  0
LINE
  5
2F14
  8
AM_0
 10
950.20573536434586
 20
502.05427330261551
 30
0.0
 11
962.2057353643462
 21
502.05427330261551
 31
0.0
  0
LINE
  5
2F15
  8
ﾁｭｳｼﾝｾﾝ
 10
888.33394812702875
 20
486.0542433026153
 30
0.0
 11
1024.9966102725341
 21
486.0542433026153
 31
0.0
  0
LINE
  5
2F16
  8
AM_0
 10
952.20573536434574
 20
585.3157383026155
 30
0.0
 11
948.70231536434574
 21
584.66893830261552
 31
0.0
  0
ARC
  5
2F17
  8
AM_0
 10
956.20573536434642
 20
486.0542433026153
 30
0.0
 40
20.9999985
 50
106.6015499999988
 51
73.398451999997818
  0
ARC
  5
2F18
  8
AM_0
 10
956.20573536434642
 20
448.05424330261559
 30
0.0
 40
130.0
 50
67.375506000002574
 51
112.62449000000299
  0
ARC
  5
2F19
  8
AM_0
 10
950.20573536434586
 20
581.55423830261554
 30
0.0
 40
2.0000000500000001
 50
270.0
 51
0.0
  0
LINE
  5
2F1A
  8
AM_0
 10
950.20573536434586
 20
510.0542433026153
 30
0.0
 11
950.20573536434586
 21
502.05427330261551
 31
0.0
  0
LINE
  5
2F1B
  8
AM_0
 10
893.79393036434635
 20
570.29678830261525
 30
0.0
 11
912.01655536434555
 21
565.41408830261571
 31
0.0
  0
ARC
  5
2F1C
  8
AM_0
 10
891.20573036434632
 20
560.63753830261555
 30
0.0
 40
10.0
 50
74.99999899999662
 51
164.99999000000179
  0
LINE
  5
2F1D
  8
AM_0
 10
881.54649036434637
 20
563.22573830261535
 30
0.0
 11
876.66374036434615
 21
545.00308830261565
 31
0.0
  0
ARC
  5
2F1E
  8
AM_0
 10
874.25587036434615
 20
555.33523830261538
 30
0.0
 40
5.0
 50
307.37551000000269
 51
344.99999999999909
  0
ARC
  5
2F1F
  8
AM_0
 10
871.83409036434625
 20
546.29713830261551
 30
0.0
 40
5.0
 50
310.6561800000004
 51
344.99999999999909
  0
ARC
  5
2F20
  8
AM_0
 10
904.2725953643461
 20
572.66543830261571
 30
0.0
 40
5.0
 50
254.99999999999821
 51
292.62449000000288
  0
ARC
  5
2F21
  8
AM_0
 10
913.3106503643462
 20
570.24368830261562
 30
0.0
 40
5.0
 50
254.99999999999821
 51
289.34381999999971
  0
LINE
  5
2F22
  8
AM_0
 10
946.23716536434631
 20
577.67148830261533
 30
0.0
 11
947.91795036434632
 21
583.94433830261562
 31
0.0
  0
ARC
  5
2F23
  8
AM_0
 10
948.88389536434636
 20
583.68548830261545
 30
0.0
 40
1.0
 50
100.4607200000025
 51
164.99999000000179
  0
CIRCLE
  5
2F24
  8
AM_5
 10
956.20573536434642
 20
486.0542433026153
 30
0.0
 40
5.0
  0
CIRCLE
  5
2F25
  8
AM_0
 10
956.20573536434642
 20
486.0542433026153
 30
0.0
 40
3.5000000500000001
  0
LINE
  5
2F26
  8
AM_0
 10
962.2057353643462
 20
510.0542433026153
 30
0.0
 11
962.2057353643462
 21
502.05427330261551
 31
0.0
  0
LINE
  5
2F27
  8
AM_0
 10
1018.617540364346
 20
570.29678830261525
 30
0.0
 11
1000.3949103643459
 21
565.41403830261561
 31
0.0
  0
ARC
  5
2F28
  8
AM_0
 10
1008.138870364346
 20
572.66543830261571
 30
0.0
 40
5.0
 50
247.37550999999681
 51
285.00000000000148
  0
ARC
  5
2F29
  8
AM_0
 10
999.10084536434636
 20
570.24368830261562
 30
0.0
 40
5.0
 50
250.65618000000021
 51
285.00000000000148
  0
LINE
  5
2F2A
  8
AM_0
 10
966.17433036434602
 20
577.67148830261533
 30
0.0
 11
964.49354536434635
 21
583.94433830261562
 31
0.0
  0
LINE
  5
2F2B
  8
AM_0
 10
960.20573536434563
 20
585.31578830261526
 30
0.0
 11
963.70915036434565
 21
584.66893830261552
 31
0.0
  0
ARC
  5
2F2C
  8
AM_0
 10
962.2057353643462
 20
581.55423830261554
 30
0.0
 40
2.0000000500000001
 50
179.9999899999988
 51
270.0
  0
ARC
  5
2F2D
  8
AM_0
 10
963.52760036434631
 20
583.68548830261545
 30
0.0
 40
1.0
 50
15.000000000000741
 51
79.539281000002589
  0
ARC
  5
2F2E
  8
AM_0
 10
1021.205735364346
 20
560.63753830261555
 30
0.0
 40
10.0
 50
15.000000000000741
 51
105.00000000000161
  0
LINE
  5
2F2F
  8
AM_0
 10
1030.8650053643451
 20
563.22568830261571
 30
0.0
 11
1035.747725364346
 21
545.00308830261565
 31
0.0
  0
ARC
  5
2F30
  8
AM_0
 10
1038.155625364346
 20
555.33523830261538
 30
0.0
 40
5.0
 50
195.0000099999981
 51
232.62449999999609
  0
ARC
  5
2F31
  8
AM_0
 10
1040.577375364345
 20
546.29713830261551
 30
0.0
 40
5.0
 50
195.0000099999981
 51
229.34381999999951
  0
ARC
  5
2F32
  8
AM_0
 10
956.20573536434642
 20
615.05423830261554
 30
0.0
 40
4.000000049999997
 50
359.999989999999
 51
179.9999899999988
  0
ARC
  5
2F33
  8
AM_0
 10
1083.4724603643449
 20
472.0007433026156
 30
0.0
 40
5.0
 50
190.65617999999949
 51
225.0
  0
LINE
  5
2F34
  8
AM_0
 10
319.70731014356733
 20
987.33597144924045
 30
0.0
 11
319.70731014356733
 21
865.33597144924101
 31
0.0
  0
LINE
  5
2F35
  8
AM_0
 10
303.70731014356733
 20
740.33597144924101
 30
0.0
 11
303.70731014356733
 21
990.33597144924101
 31
0.0
  0
ARC
  5
2F36
  8
AM_0
 10
324.70731014356733
 20
760.60845344924121
 30
0.0
 40
5.0
 50
91.499999999996206
 51
180.0
  0
LINE
  5
2F37
  8
AM_0
 10
319.70731014356733
 20
743.33597144924101
 30
0.0
 11
319.70731014356733
 21
865.33597144924101
 31
0.0
  0
LINE
  5
2F38
  8
AM_0
 10
322.70731014356733
 20
808.56018244924098
 30
0.0
 11
408.70731014356721
 21
808.56018244924098
 31
0.0
  0
LINE
  5
2F39
  8
AM_0
 10
405.81200814356731
 20
781.62208144924102
 30
0.0
 11
322.6026111435674
 21
778.7163454492412
 31
0.0
  0
LINE
  5
2F3A
  8
AM_0
 10
404.96217014356728
 20
792.19900644924121
 30
0.0
 11
323.48380614356739
 21
789.35371944924088
 31
0.0
  0
LINE
  5
2F3B
  8
AM_0
 10
409.70731014356733
 20
767.83597144924101
 30
0.0
 11
324.57642514356729
 21
765.60674044924122
 31
0.0
  0
ARC
  5
2F3C
  8
AM_0
 10
322.70731014356733
 20
775.71817344924102
 30
0.0
 40
3.0
 50
91.999999999997087
 51
180.0
  0
ARC
  5
2F3D
  8
AM_0
 10
322.70731014356733
 20
805.56018244924064
 30
0.0
 40
3.0
 50
90.0
 51
180.0
  0
LINE
  5
2F3E
  8
AM_0
 10
408.70731014356721
 20
784.62025444924109
 30
0.0
 11
408.70731014356721
 21
808.56018244924098
 31
0.0
  0
ARC
  5
2F3F
  8
AM_0
 10
405.70731014356733
 20
784.62025444924109
 30
0.0
 40
3.0
 50
271.99999999999687
 51
0.0
  0
LINE
  5
2F40
  8
AM_0
 10
406.78919614356732
 20
767.83597144924101
 30
0.0
 11
409.70731014356733
 21
767.83597144924101
 31
0.0
  0
LINE
  5
2F41
  8
AM_0
 10
409.70731014356733
 20
962.83597144924113
 30
0.0
 11
324.57642514356729
 21
965.06520144924059
 31
0.0
  0
LINE
  5
2F42
  8
AM_0
 10
404.96217014356728
 20
938.47293544924116
 30
0.0
 11
323.48380614356739
 21
941.31822244924115
 31
0.0
  0
LINE
  5
2F43
  8
AM_0
 10
405.81200814356731
 20
949.04986044924101
 30
0.0
 11
322.6026111435674
 21
951.95559644924083
 31
0.0
  0
LINE
  5
2F44
  8
AM_0
 10
322.70731014356733
 20
922.11175944924116
 30
0.0
 11
408.70731014356721
 21
922.11175944924116
 31
0.0
  0
ARC
  5
2F45
  8
AM_0
 10
324.70731014356733
 20
970.06348844924116
 30
0.0
 40
5.0
 50
180.0
 51
268.4999999999971
  0
ARC
  5
2F46
  8
AM_0
 10
322.70731014356733
 20
925.11175944924105
 30
0.0
 40
3.0
 50
180.0
 51
270.0
  0
ARC
  5
2F47
  8
AM_0
 10
322.70731014356733
 20
954.95376844924101
 30
0.0
 40
3.0
 50
180.0
 51
268.0000000000029
  0
LINE
  5
2F48
  8
AM_0
 10
303.70731014356733
 20
990.33597144924101
 30
0.0
 11
316.70731014356733
 21
990.33597144924101
 31
0.0
  0
ARC
  5
2F49
  8
AM_0
 10
316.70731014356733
 20
987.33597144924045
 30
0.0
 40
3.0
 50
0.0
 51
90.0
  0
LINE
  5
2F4A
  8
AM_0
 10
408.70731014356721
 20
946.05168744924106
 30
0.0
 11
408.70731014356721
 21
922.11175944924116
 31
0.0
  0
ARC
  5
2F4B
  8
AM_0
 10
405.70731014356733
 20
946.05168744924106
 30
0.0
 40
3.0
 50
0.0
 51
88.000000000002899
  0
ARC
  5
2F4C
  8
AM_0
 10
316.70731014356733
 20
743.33597144924101
 30
0.0
 40
3.0
 50
270.0
 51
0.0
  0
LINE
  5
2F4D
  8
AM_0
 10
303.70731014356733
 20
740.33597144924101
 30
0.0
 11
316.70731014356733
 21
740.33597144924101
 31
0.0
  0
TEXT
  5
312E
  8
AM_0
 10
799.44489321115543
 20
906.57274277682347
 30
0.0
 40
15.0
  1
VX37-003A~VX37-030A
  0
ENDSEC
  0
EOF
