  0
SECTION
  2
HEADER
  9
$ACADVER
  1
AC1009
  9
$INSBASE
 10
0.0
 20
0.0
 30
0.0
  9
$EXTMIN
 10
265.6334722491834
 20
274.71112406095381
 30
-0.0000000349181948
  9
$EXTMAX
 10
1204.9444992135329
 20
1080.4787556140909
 30
0.0000000814935747
  9
$LIMMIN
 10
0.0
 20
0.0
  9
$LIMMAX
 10
1422.5
 20
925.0
  9
$ORTHOMODE
 70
     0
  9
$REGENMODE
 70
     1
  9
$FILLMODE
 70
     1
  9
$QTEXTMODE
 70
     0
  9
$MIRRTEXT
 70
     1
  9
$DRAGMODE
 70
     2
  9
$LTSCALE
 40
5.0
  9
$OSMODE
 70
   551
  9
$ATTMODE
 70
     1
  9
$TEXTSIZE
 40
2.5
  9
$TRACEWID
 40
1.0
  9
$TEXTSTYLE
  7
STANDARD
  9
$CLAYER
  8
AM_0
  9
$CELTYPE
  6
BYLAYER
  9
$CECOLOR
 62
   256
  9
$DIMSCALE
 40
1.0
  9
$DIMASZ
 40
2.5
  9
$DIMEXO
 40
1.0
  9
$DIMDLI
 40
8.0
  9
$DIMRND
 40
0.0
  9
$DIMDLE
 40
0.0
  9
$DIMEXE
 40
0.6
  9
$DIMTP
 40
0.1
  9
$DIMTM
 40
0.1
  9
$DIMTXT
 40
2.5
  9
$DIMCEN
 40
0.0
  9
$DIMTSZ
 40
0.0
  9
$DIMTOL
 70
     0
  9
$DIMLIM
 70
     0
  9
$DIMTIH
 70
     0
  9
$DIMTOH
 70
     0
  9
$DIMSE1
 70
     0
  9
$DIMSE2
 70
     0
  9
$DIMTAD
 70
     1
  9
$DIMZIN
 70
     8
  9
$DIMBLK
  1

  9
$DIMASO
 70
     1
  9
$DIMSHO
 70
     1
  9
$DIMPOST
  1

  9
$DIMAPOST
  1
"
  9
$DIMALT
 70
     0
  9
$DIMALTD
 70
     2
  9
$DIMALTF
 40
0.0393701
  9
$DIMLFAC
 40
1.0
  9
$DIMTOFL
 70
     1
  9
$DIMTVP
 40
0.0
  9
$DIMTIX
 70
     0
  9
$DIMSOXD
 70
     0
  9
$DIMSAH
 70
     0
  9
$DIMBLK1
  1

  9
$DIMBLK2
  1

  9
$DIMSTYLE
  2
AM_ISO
  9
$DIMCLRD
 70
   256
  9
$DIMCLRE
 70
   256
  9
$DIMCLRT
 70
     4
  9
$DIMTFAC
 40
0.71
  9
$DIMGAP
 40
0.8
  9
$LUNITS
 70
     2
  9
$LUPREC
 70
     2
  9
$SKETCHINC
 40
1.0
  9
$FILLETRAD
 40
25.0
  9
$AUNITS
 70
     0
  9
$AUPREC
 70
     0
  9
$MENU
  1
.
  9
$ELEVATION
 40
0.0
  9
$PELEVATION
 40
0.0
  9
$THICKNESS
 40
0.0
  9
$LIMCHECK
 70
     0
  9
$BLIPMODE
 70
     0
  9
$CHAMFERA
 40
10.0
  9
$CHAMFERB
 40
5.0
  9
$SKPOLY
 70
     0
  9
$TDCREATE
 40
2452066.739922408
  9
$TDUPDATE
 40
2458541.4775038189
  9
$TDINDWG
 40
0.0837712731
  9
$TDUSRTIMER
 40
0.0837710648
  9
$USRTIMER
 70
     1
  9
$ANGBASE
 50
0.0
  9
$ANGDIR
 70
     0
  9
$PDMODE
 70
     0
  9
$PDSIZE
 40
0.0
  9
$PLINEWID
 40
0.0
  9
$COORDS
 70
     1
  9
$SPLFRAME
 70
     0
  9
$SPLINETYPE
 70
     6
  9
$SPLINESEGS
 70
     8
  9
$ATTDIA
 70
     1
  9
$ATTREQ
 70
     1
  9
$HANDLING
 70
     1
  9
$HANDSEED
  5
304A
  9
$SURFTAB1
 70
     6
  9
$SURFTAB2
 70
     6
  9
$SURFTYPE
 70
     6
  9
$SURFU
 70
     6
  9
$SURFV
 70
     6
  9
$UCSNAME
  2

  9
$UCSORG
 10
0.0
 20
0.0
 30
0.0
  9
$UCSXDIR
 10
1.0
 20
0.0
 30
0.0
  9
$UCSYDIR
 10
0.0
 20
1.0
 30
0.0
  9
$PUCSNAME
  2

  9
$PUCSORG
 10
0.0
 20
0.0
 30
0.0
  9
$PUCSXDIR
 10
1.0
 20
0.0
 30
0.0
  9
$PUCSYDIR
 10
0.0
 20
1.0
 30
0.0
  9
$USERI1
 70
     0
  9
$USERI2
 70
     0
  9
$USERI3
 70
     0
  9
$USERI4
 70
     0
  9
$USERI5
 70
     0
  9
$USERR1
 40
0.0
  9
$USERR2
 40
0.0
  9
$USERR3
 40
0.0
  9
$USERR4
 40
0.0
  9
$USERR5
 40
0.0
  9
$WORLDVIEW
 70
     1
  9
$SHADEDGE
 70
     3
  9
$SHADEDIF
 70
    70
  9
$TILEMODE
 70
     1
  9
$MAXACTVP
 70
    64
  9
$PLIMCHECK
 70
     0
  9
$PEXTMIN
 10
1.0000000000000000E+020
 20
1.0000000000000000E+020
 30
1.0000000000000000E+020
  9
$PEXTMAX
 10
-1.0000000000000000E+020
 20
-1.0000000000000000E+020
 30
-1.0000000000000000E+020
  9
$PLIMMIN
 10
0.0
 20
0.0
  9
$PLIMMAX
 10
420.0
 20
297.0
  9
$UNITMODE
 70
     0
  9
$VISRETAIN
 70
     1
  9
$PLINEGEN
 70
     0
  9
$PSLTSCALE
 70
     1
  0
ENDSEC
  0
SECTION
  2
TABLES
  0
TABLE
  2
VPORT
 70
     1
  0
VPORT
  2
*ACTIVE
 70
     0
 10
0.0
 20
0.0
 11
1.0
 21
1.0
 12
735.28898573135814
 22
677.59493983752247
 13
0.0
 23
0.0
 14
12.5
 24
12.5
 15
50.0
 25
50.0
 16
0.0
 26
0.0
 36
1.0
 17
0.0
 27
0.0
 37
0.0
 40
811.29921712444047
 41
1.7571592210767459
 42
50.0
 43
0.0
 44
0.0
 50
0.0
 51
0.0
 71
     0
 72
   100
 73
     1
 74
     3
 75
     0
 76
     0
 77
     0
 78
     0
  0
ENDTAB
  0
TABLE
  2
LTYPE
 70
    27
  0
LTYPE
  2
CONTINUOUS
 70
     0
  3
Solid line
 72
    65
 73
     0
 40
0.0
  0
LTYPE
  2
AM_ISO02W050
 70
     0
  3
__ __ __ __ __ __ __ __ __ __ __ __ __ __ __
 72
    65
 73
     2
 40
7.5
 49
6.0
 49
-1.5
  0
LTYPE
  2
AM_ISO08W050
 70
     0
  3
____ . ____ . ____ . ____ . ____ . ____ . ____
 72
    65
 73
     4
 40
18.0
 49
12.0
 49
-1.5
 49
3.0
 49
-1.5
  0
LTYPE
  2
AM_ISO09W050
 70
     0
  3
_____ . . _____ . . _____ . . ____ .. ____
 72
    65
 73
     6
 40
22.5
 49
12.0
 49
-1.5
 49
3.0
 49
-1.5
 49
3.0
 49
-1.5
  0
LTYPE
  2
AMCONSTR
 70
     0
  3
_______________________
 72
    65
 73
     2
 40
9999.0
 49
9999.0
 49
0.0
  0
LTYPE
  2
AM_ISO08W050X2
 70
     0
  3
__ . __ . __ . __ . __ . __
 72
    65
 73
     4
 40
9.0
 49
6.0
 49
-0.75
 49
1.5
 49
-0.75
  0
LTYPE
  2
AM_ISO02W050X2
 70
     0
  3
 _ _ _ _ _ _ _ _ _ _ _ _
 72
    65
 73
     2
 40
3.75
 49
3.0
 49
-0.75
  0
LTYPE
  2
AMZIGZAG
 70
     0
  3
/\/-/\/-/\/-/\/-/\/-/\/
 72
    65
 73
     2
 40
11.000099999999991
 49
0.0001
 49
-11.0
  0
LTYPE
  2
ACISOWELD
 70
     0
  3
_ _ _ _ _
 72
    65
 73
     2
 40
2.0
 49
2.0
 49
-1.0
  0
LTYPE
  2
ACISOTGB
 70
     0
  3
__ . . __ . .
 72
    65
 73
     6
 40
9.0
 49
4.0
 49
-1.0
 49
1.0
 49
-1.0
 49
1.0
 49
-1.0
  0
LTYPE
  2
ACISOTGL
 70
     0
  3
_ _ _ _ _
 72
    65
 73
     2
 40
3.0
 49
2.0
 49
-1.0
  0
LTYPE
  2
CENTER
 70
     0
  3
__ . __
 72
    65
 73
     4
 40
7.0
 49
4.0
 49
-1.0
 49
1.0
 49
-1.0
  0
LTYPE
  2
PHANTOM2
 70
     0
  3
Phantom (.5x) ___ _ _ ___ _ _ ___ _ _ ___ _ _
 72
    65
 73
     6
 40
31.75
 49
15.875
 49
-3.174999999999998
 49
3.174999999999998
 49
-3.174999999999998
 49
3.174999999999998
 49
-3.174999999999998
  0
LTYPE
  2
ACANSTGBM
 70
     0
  3
__ . . __ . .
 72
    65
 73
     6
 40
9.0
 49
4.0
 49
-1.0
 49
1.0
 49
-1.0
 49
1.0
 49
-1.0
  0
LTYPE
  2
ACANSTGLM
 70
     0
  3
_ _ _ _ _
 72
    65
 73
     2
 40
3.0
 49
2.0
 49
-1.0
  0
LTYPE
  2
GEN7
 70
     0
  3
____ . ____ . ____ . ____ . ____ . ____ . ____
 72
    65
 73
     4
 40
14.25
 49
9.75
 49
-1.5
 49
1.5
 49
-1.5
  0
LTYPE
  2
GEN3B
 70
     0
  3
 - - - - -
 72
    65
 73
     2
 40
1.0
 49
0.5
 49
-0.5
  0
LTYPE
  2
GEN7A
 70
     0
  3
__ . __ . __
 72
    65
 73
     4
 40
7.375
 49
4.75
 49
-0.875
 49
0.875
 49
-0.875
  0
LTYPE
  2
ACJISTGB
 70
     0
  3
__ . . __ . .
 72
    65
 73
     6
 40
9.0
 49
4.0
 49
-1.0
 49
1.0
 49
-1.0
 49
1.0
 49
-1.0
  0
LTYPE
  2
ACJISTGL
 70
     0
  3
_ _ _ _ _
 72
    65
 73
     2
 40
3.0
 49
2.0
 49
-1.0
  0
LTYPE
  2
HIDDEN
 70
     0
  3
Hidden __ __ __ __ __ __ __ __ __ __ __ __ __ _
 72
    65
 73
     2
 40
0.375
 49
0.25
 49
-0.125
  0
LTYPE
  2
CENTER2
 70
     0
  3
Center (.5x) ___ _ ___ _ ___ _ ___ _ ___ _ ___
 72
    65
 73
     4
 40
1.125
 49
0.75
 49
-0.125
 49
0.125
 49
-0.125
  0
LTYPE
  2
HIDDEN2
 70
     0
  3
Hidden (.5x) _ _ _ _ _ _ _ _ _ _ _ _ _ _ _ _ _
 72
    65
 73
     2
 40
0.1875
 49
0.125
 49
-0.0625
  0
LTYPE
  2
AMZIGZAG2
 70
     0
  3
/\/-/\/-/\/-/\/-/\/-/\/
 72
    65
 73
     2
 40
0.4401
 49
0.0001
 49
-0.4400000000000002
  0
LTYPE
  2
ACANSTGB
 70
     0
  3
__ . . __ . .
 72
    65
 73
     6
 40
0.35433070866
 49
0.15748031496
 49
-0.03937007874
 49
0.03937007874
 49
-0.03937007874
 49
0.03937007874
 49
-0.03937007874
  0
LTYPE
  2
ACANSTGL
 70
     0
  3
_ _ _ _ _
 72
    65
 73
     2
 40
0.11811023622
 49
0.07874015748
 49
-0.03937007874
  0
ENDTAB
  0
TABLE
  2
LAYER
 70
     7
  0
LAYER
  2
0
 70
     0
 62
     7
  6
CONTINUOUS
  0
LAYER
  2
AM_0
 70
     0
 62
     7
  6
CONTINUOUS
  0
LAYER
  2
AM_5
 70
     0
 62
     2
  6
CONTINUOUS
  0
LAYER
  2
DEFPOINTS
 70
     0
 62
     7
  6
CONTINUOUS
  0
LAYER
  2
ｶｸﾚｾﾝ2
 70
     0
 62
     3
  6
GEN3B
  0
LAYER
  2
ﾁｭｳｼﾝｾﾝ
 70
     0
 62
     1
  6
GEN7
  0
LAYER
  2
ﾁｭｳｼﾝｾﾝ1
 70
     0
 62
     1
  6
GEN7A
  0
ENDTAB
  0
TABLE
  2
STYLE
 70
     9
  0
STYLE
  2
STANDARD
 70
     0
 40
0.0
 41
0.8299999999999999
 50
0.0
 71
     0
 42
2.5
  3
txt.shx
  4
bigfont.shx
  0
STYLE
  2
ANNOTATIVE
 70
     0
 40
0.0
 41
1.0
 50
0.0
 71
     0
 42
0.2
  3
txt
  4

  0
STYLE
  2

 70
     1
 40
0.0
 41
1.0
 50
0.0
 71
     0
 42
2.5
  3
ltypeshp.shx
  4

  0
STYLE
  2
ACISOTS
 70
     0
 40
1.0
 41
1.0
 50
0.0
 71
     0
 42
2.5
  3
isocp.shx
  4
extfont.shx
  0
STYLE
  2
ACISOGDT
 70
     0
 40
0.0
 41
1.0
 50
0.0
 71
     0
 42
2.5
  3
amgdt.shx
  4

  0
STYLE
  2
ACANSTS
 70
     0
 40
1.0
 41
1.0
 50
0.0
 71
     0
 42
2.5
  3
romans.shx
  4
bigfont.shx
  0
STYLE
  2
ACANSGDT
 70
     0
 40
0.0
 41
1.0
 50
0.0
 71
     0
 42
2.5
  3
amgdt.shx
  4

  0
STYLE
  2
ACJISTS
 70
     0
 40
1.0
 41
1.0
 50
0.0
 71
     0
 42
2.5
  3
isocp.shx
  4
bigfont.shx
  0
STYLE
  2
ACJISGDT
 70
     0
 40
0.0
 41
1.0
 50
0.0
 71
     0
 42
2.5
  3
amgdt.shx
  4

  0
ENDTAB
  0
TABLE
  2
VIEW
 70
     6
  0
VIEW
  2
AM_VIEW1
 70
     0
 40
462.5
 10
416.07965009208078
 20
693.75
 41
832.15930018416213
 11
0.0
 21
0.0
 31
1.0
 12
0.0
 22
0.0
 32
0.0
 42
50.0
 43
0.0
 44
0.0
 50
0.0
 71
     0
  0
VIEW
  2
AM_VIEW2
 70
     0
 40
462.5
 10
1006.420349907918
 20
693.75
 41
832.15930018416213
 11
0.0
 21
0.0
 31
1.0
 12
0.0
 22
0.0
 32
0.0
 42
50.0
 43
0.0
 44
0.0
 50
0.0
 71
     0
  0
VIEW
  2
AM_VIEW3
 70
     0
 40
462.5
 10
416.07965009208078
 20
231.25
 41
832.15930018416213
 11
0.0
 21
0.0
 31
1.0
 12
0.0
 22
0.0
 32
0.0
 42
50.0
 43
0.0
 44
0.0
 50
0.0
 71
     0
  0
VIEW
  2
AM_VIEW4
 70
     0
 40
462.5
 10
1006.420349907918
 20
231.25
 41
832.15930018416213
 11
0.0
 21
0.0
 31
1.0
 12
0.0
 22
0.0
 32
0.0
 42
50.0
 43
0.0
 44
0.0
 50
0.0
 71
     0
  0
VIEW
  2
AM_VIEW5
 70
     0
 40
462.5
 10
711.24999999999966
 20
462.5
 41
832.15930018416179
 11
0.0
 21
0.0
 31
1.0
 12
0.0
 22
0.0
 32
0.0
 42
50.0
 43
0.0
 44
0.0
 50
0.0
 71
     0
  0
VIEW
  2
AM_VIEW6
 70
     0
 40
924.99075000000005
 10
711.24999999999966
 20
462.5
 41
1664.3019571823199
 11
0.0
 21
0.0
 31
1.0
 12
0.0
 22
0.0
 32
0.0
 42
50.0
 43
0.0
 44
0.0
 50
0.0
 71
     0
  0
ENDTAB
  0
TABLE
  2
UCS
 70
     0
  0
ENDTAB
  0
TABLE
  2
APPID
 70
    95
  0
APPID
  2
ACAD
 70
     0
  0
APPID
  2
ACADANNOTATIVE
 70
     0
  0
APPID
  2
MCAD_NO_VIS
 70
     0
  0
APPID
  2
ACAD_TEMP_GRAPHIC
 70
     0
  0
APPID
  2
ACATTRIBSERVICES
 70
     0
  0
APPID
  2
GENIUS_GENREC_14
 70
     0
  0
APPID
  2
GENIUS_GENOBJ-N-REC_13
 70
     0
  0
APPID
  2
GENIUS_GENODEF_13
 70
     0
  0
APPID
  2
GENIUS_GENOLIS_13
 70
     0
  0
APPID
  2
GENIUS_GENOBJ-N-TIT_13
 70
     0
  0
APPID
  2
GENIUS_GENOENT_13
 70
     0
  0
APPID
  2
GENIUS_GENTITLE_13
 70
     0
  0
APPID
  2
GENIUS_GENOREF_13
 70
     0
  0
APPID
  2
GENIUS_GENSCREG_15
 70
     0
  0
APPID
  2
GENIUS_GENOBJ-N-SDF_13
 70
     0
  0
APPID
  2
GENIUS_GENFIL_13
 70
     0
  0
APPID
  2
GENIUS_GENOBJ-N-CHA_13
 70
     0
  0
APPID
  2
GENIUS_GENDTOL_13
 70
     0
  0
APPID
  2
GENIUS_GENOBJ-N-FIL_13
 70
     0
  0
APPID
  2
AD_DRAW
 70
     0
  0
APPID
  2
DESIGNERASSEMBLIES
 70
     0
  0
APPID
  2
ASURF_PCURVE_APPNAME
 70
     0
  0
APPID
  2
GENIUS_GE3SECT_13
 70
     0
  0
APPID
  2
GENIUS_GENCFG_13
 70
     0
  0
APPID
  2
GENIUS_GE3CFG0_13
 70
     0
  0
APPID
  2
GENIUS_GENCFG0_13
 70
     0
  0
APPID
  2
GENIUS_GENCFG1_13
 70
     0
  0
APPID
  2
GENIUS_GENCFG2_13
 70
     0
  0
APPID
  2
GENIUS_GENCFG3_13
 70
     0
  0
APPID
  2
GENIUS_GENCFG4_13
 70
     0
  0
APPID
  2
GENIUS_GEVCFG0_13
 70
     0
  0
APPID
  2
GENIUS_GENHINW_13
 70
     0
  0
APPID
  2
GENIUS_FIRSTVISTXT_14
 70
     0
  0
APPID
  2
GENIUS_GENOBJ-N-LEADER_13
 70
     0
  0
APPID
  2
GEV_VCCNULL_SWITCH_OFF
 70
     0
  0
APPID
  2
GENIUS_GEFCFG0_13
 70
     0
  0
APPID
  2
GENIUS_GENZVEED_13
 70
     0
  0
APPID
  2
GENIUS_GENSCREG_13
 70
     0
  0
APPID
  2
GENIUS_DUMCFG0_13
 70
     0
  0
APPID
  2
GEVID936201362
 70
     0
  0
APPID
  2
GEVDC
 70
     0
  0
APPID
  2
GEVCON
 70
     0
  0
APPID
  2
VCC
 70
     0
  0
APPID
  2
GEVPT
 70
     0
  0
APPID
  2
GEVIT
 70
     0
  0
APPID
  2
GENBH
 70
     0
  0
APPID
  2
GEVMK
 70
     0
  0
APPID
  2
GENIUS_GENBH_13
 70
     0
  0
APPID
  2
GENIUS_GENOBJ-NBEHI-BHF_13
 70
     0
  0
APPID
  2
GENIUS_GENOBJ-NBEHI-BHB_13
 70
     0
  0
APPID
  2
GENIUS_GENOBJ-F-DESC_13
 70
     0
  0
APPID
  2
GENIUS_GEFDESC_14
 70
     0
  0
APPID
  2
GENIUS_GENOBJ-F-PART_13
 70
     0
  0
APPID
  2
GENIUS_GEFSTDP_13
 70
     0
  0
APPID
  2
GENIUS_GEFPARTINS_13
 70
     0
  0
APPID
  2
GENIUS_GENTRA_14
 70
     0
  0
APPID
  2
GENIUS_GENINF13_13
 70
     0
  0
APPID
  2
GENIUS_GENOBJ-N-INFOPT_13
 70
     0
  0
APPID
  2
GENIUS_GENOBJ-N-RSSYM_13
 70
     0
  0
APPID
  2
GENIUS_GENSYMENT_13
 70
     0
  0
APPID
  2
GENIUS_GENSCSYM_13
 70
     0
  0
APPID
  2
GENIUS_GEFINFNAM_13
 70
     0
  0
APPID
  2
GENIUS_GENOBJ-N-CEN_13
 70
     0
  0
APPID
  2
GENIUS_GENOBJ-N-CRS_13
 70
     0
  0
APPID
  2
GENIUS_GENOBJ-N-CRC_13
 70
     0
  0
APPID
  2
GENIUS_GENCRC_14
 70
     0
  0
APPID
  2
GEVID942827039
 70
     0
  0
APPID
  2
GEVID942827040
 70
     0
  0
APPID
  2
GEVID942827041
 70
     0
  0
APPID
  2
GENIUS_GENOBJ-F-SCPASSM_13
 70
     0
  0
APPID
  2
GENIUS_GENDIMSH_14
 70
     0
  0
APPID
  2
GEVID942827042
 70
     0
  0
APPID
  2
GEVID946020473
 70
     0
  0
APPID
  2
GEVID946020474
 70
     0
  0
APPID
  2
GEVID946020475
 70
     0
  0
APPID
  2
GENIUS_GENOBJ-N-HTC_13
 70
     0
  0
APPID
  2
GENIUS_GENHATCH_13
 70
     0
  0
APPID
  2
GEVID948854295
 70
     0
  0
APPID
  2
GEVID939402019
 70
     0
  0
APPID
  2
GEVID952919491
 70
     0
  0
APPID
  2
GEVID952919492
 70
     0
  0
APPID
  2
GENIUS_GEFWELD_13
 70
     0
  0
APPID
  2
GENIUS_GENOBJ-F-WELS_13
 70
     0
  0
APPID
  2
GEVID952919493
 70
     0
  0
APPID
  2
GENIUS_GENOBJ-N-RSBK_13
 70
     0
  0
APPID
  2
GENIUS_GENOBJ-N-LIB_13
 70
     0
  0
APPID
  2
GENIUS_GENSCALE_13
 70
     0
  0
APPID
  2
GEVID986376691
 70
     0
  0
APPID
  2
DCO15
 70
     0
  0
APPID
  2
ACAD_DSTYLE_DIMBREAK
 70
     0
  0
APPID
  2
ACAD_DSTYLE_DIMJAG
 70
     0
  0
APPID
  2
ACAD_NAV_VCDISPLAY
 70
     0
  0
APPID
  2
ACADANNOPO
 70
     0
  0
APPID
  2
ACAD_EXEMPT_FROM_CAD_STANDARDS
 70
     0
  0
APPID
  2
ACAD_MLEADERVER
 70
     0
  0
ENDTAB
  0
TABLE
  2
DIMSTYLE
 70
    22
  0
DIMSTYLE
  2
STANDARD
 70
     0
  3

  4

  5

  6

  7

 40
1.0
 41
0.18
 42
0.0625
 43
0.38
 44
0.18
 45
0.0
 46
0.0
 47
0.0
 48
0.0
140
0.18
141
0.09
142
0.0
143
25.399999999999999
144
1.0
145
0.0
146
1.0
147
0.09
 71
     0
 72
     0
 73
     1
 74
     1
 75
     0
 76
     0
 77
     0
 78
     0
170
     0
171
     2
172
     0
173
     0
174
     0
175
     0
176
     0
177
     0
178
     0
  0
DIMSTYLE
  2
ANNOTATIVE
 70
     0
  3

  4

  5

  6

  7

 40
1.0
 41
0.18
 42
0.0625
 43
0.38
 44
0.18
 45
0.0
 46
0.0
 47
0.0
 48
0.0
140
0.18
141
0.09
142
0.0
143
25.399999999999999
144
1.0
145
0.0
146
1.0
147
0.09
 71
     0
 72
     0
 73
     1
 74
     1
 75
     0
 76
     0
 77
     0
 78
     0
170
     0
171
     2
172
     0
173
     0
174
     0
175
     0
176
     0
177
     0
178
     0
  0
DIMSTYLE
  2
AM_ISO
 70
     0
  3

  4
"
  5

  6

  7

 40
1.0
 41
2.5
 42
1.0
 43
8.0
 44
0.6
 45
0.0
 46
0.0
 47
0.1
 48
0.1
140
2.5
141
0.0
142
0.0
143
0.0393701
144
1.0
145
0.0
146
0.71
147
0.8
 71
     0
 72
     0
 73
     0
 74
     0
 75
     0
 76
     0
 77
     1
 78
     8
170
     0
171
     2
172
     1
173
     0
174
     0
175
     0
176
   256
177
   256
178
     4
  0
DIMSTYLE
  2
AM_ISO$3
 70
     0
  3

  4
"
  5

  6

  7

 40
1.0
 41
2.5
 42
1.0
 43
8.0
 44
0.6
 45
0.0
 46
0.0
 47
0.1
 48
0.1
140
2.5
141
0.0
142
0.0
143
0.0393701
144
1.0
145
0.0
146
0.71
147
0.8
 71
     0
 72
     0
 73
     0
 74
     1
 75
     0
 76
     0
 77
     1
 78
     8
170
     0
171
     2
172
     0
173
     0
174
     0
175
     0
176
   256
177
   256
178
     4
  0
DIMSTYLE
  2
AM_ISO$4
 70
     0
  3

  4
"
  5

  6

  7

 40
1.0
 41
2.5
 42
1.0
 43
8.0
 44
0.6
 45
0.0
 46
0.0
 47
0.1
 48
0.1
140
2.5
141
0.0
142
0.0
143
0.0393701
144
1.0
145
0.0
146
0.71
147
0.8
 71
     0
 72
     0
 73
     0
 74
     1
 75
     0
 76
     0
 77
     1
 78
     8
170
     0
171
     2
172
     0
173
     0
174
     0
175
     0
176
   256
177
   256
178
     4
  0
DIMSTYLE
  2
AM_ISO$6
 70
     0
  3

  4
"
  5

  6

  7

 40
1.0
 41
2.5
 42
1.0
 43
8.0
 44
0.6
 45
0.0
 46
0.0
 47
0.1
 48
0.1
140
2.5
141
0.0
142
0.0
143
0.0393701
144
1.0
145
0.0
146
0.71
147
0.8
 71
     0
 72
     0
 73
     0
 74
     0
 75
     0
 76
     0
 77
     0
 78
     8
170
     0
171
     2
172
     1
173
     0
174
     0
175
     0
176
   256
177
   256
178
     4
  0
DIMSTYLE
  2
AM_ISO$7
 70
     0
  3

  4
"
  5

  6

  7

 40
1.0
 41
2.5
 42
1.0
 43
8.0
 44
0.6
 45
0.0
 46
0.0
 47
0.1
 48
0.1
140
2.5
141
0.0
142
0.0
143
0.0393701
144
1.0
145
0.0
146
0.71
147
0.8
 71
     0
 72
     0
 73
     0
 74
     0
 75
     0
 76
     0
 77
     1
 78
     8
170
     0
171
     2
172
     1
173
     0
174
     0
175
     0
176
   256
177
   256
178
     4
  0
DIMSTYLE
  2
AM_ISO$SF
 70
     0
  3

  4
"
  5

  6

  7

 40
1.0
 41
2.5
 42
1.0
 43
10.0
 44
1.0
 45
0.0
 46
0.0
 47
0.1
 48
0.1
140
3.5
141
0.0
142
0.0
143
0.0393701
144
1.0
145
0.0
146
0.71
147
1.5
 71
     0
 72
     0
 73
     0
 74
     0
 75
     1
 76
     1
 77
     1
 78
     8
170
     0
171
     2
172
     1
173
     0
174
     0
175
     0
176
   256
177
   256
178
     2
  0
DIMSTYLE
  2
AM_ISO$SH
 70
     0
  3

  4
"
  5

  6

  7

 40
1.0
 41
2.5
 42
1.0
 43
10.0
 44
1.0
 45
0.0
 46
0.0
 47
0.1
 48
0.1
140
3.5
141
0.0
142
0.0
143
0.0393701
144
2.0
145
0.0
146
0.71
147
1.5
 71
     0
 72
     0
 73
     0
 74
     0
 75
     1
 76
     1
 77
     1
 78
     8
170
     0
171
     2
172
     1
173
     1
174
     0
175
     0
176
   256
177
   256
178
     2
  0
DIMSTYLE
  2
AM_JIS
 70
     0
  3

  4
"
  5

  6

  7

 40
1.0
 41
2.5
 42
1.0
 43
7.0
 44
1.0
 45
0.0
 46
0.0
 47
0.1
 48
0.1000000001
140
2.5
141
0.0
142
0.0
143
0.0393701
144
1.0
145
0.0
146
0.71
147
1.0
 71
     0
 72
     0
 73
     0
 74
     0
 75
     0
 76
     0
 77
     3
 78
     8
170
     0
171
     2
172
     1
173
     0
174
     0
175
     0
176
   256
177
   256
178
     4
  0
DIMSTYLE
  2
AM_JIS$3
 70
     0
  3

  4
"
  5

  6

  7

 40
1.0
 41
2.5
 42
1.0
 43
7.0
 44
1.0
 45
0.0
 46
0.0
 47
0.1
 48
0.1000000001
140
2.5
141
0.0
142
0.0
143
0.0393701
144
1.0
145
0.0
146
0.71
147
1.0
 71
     0
 72
     0
 73
     0
 74
     1
 75
     0
 76
     0
 77
     3
 78
     8
170
     0
171
     2
172
     0
173
     0
174
     0
175
     0
176
   256
177
   256
178
     4
  0
DIMSTYLE
  2
AM_JIS$4
 70
     0
  3

  4
"
  5

  6

  7

 40
1.0
 41
2.5
 42
1.0
 43
7.0
 44
1.0
 45
0.0
 46
0.0
 47
0.1
 48
0.1000000001
140
2.5
141
0.0
142
0.0
143
0.0393701
144
1.0
145
0.0
146
0.71
147
1.0
 71
     0
 72
     0
 73
     0
 74
     0
 75
     0
 76
     0
 77
     3
 78
     8
170
     0
171
     2
172
     0
173
     0
174
     0
175
     0
176
   256
177
   256
178
     4
  0
DIMSTYLE
  2
AM_JIS$6
 70
     0
  3

  4
"
  5

  6

  7

 40
1.0
 41
2.5
 42
1.0
 43
7.0
 44
1.0
 45
0.0
 46
0.0
 47
0.1
 48
0.1000000001
140
2.5
141
0.0
142
0.0
143
0.0393701
144
1.0
145
0.0
146
0.71
147
1.0
 71
     0
 72
     0
 73
     0
 74
     0
 75
     0
 76
     0
 77
     0
 78
     8
170
     0
171
     2
172
     1
173
     0
174
     0
175
     0
176
   256
177
   256
178
     4
  0
DIMSTYLE
  2
AM_JIS$7
 70
     0
  3

  4
"
  5

  6

  7

 40
1.0
 41
2.5
 42
1.0
 43
7.0
 44
1.0
 45
0.0
 46
0.0
 47
0.1
 48
0.1000000001
140
2.5
141
0.0
142
0.0
143
0.0393701
144
1.0
145
0.0
146
0.71
147
1.0
 71
     0
 72
     0
 73
     0
 74
     0
 75
     0
 76
     0
 77
     3
 78
     8
170
     0
171
     2
172
     1
173
     0
174
     0
175
     0
176
   256
177
   256
178
     4
  0
DIMSTYLE
  2
AM_JIS$SF
 70
     0
  3

  4
"
  5

  6

  7

 40
1.0
 41
2.5
 42
1.0
 43
10.0
 44
1.0
 45
0.0
 46
0.0
 47
0.1
 48
0.1
140
3.5
141
0.0
142
0.0
143
0.0393701
144
1.0
145
0.0
146
0.71
147
1.5
 71
     0
 72
     0
 73
     0
 74
     0
 75
     1
 76
     1
 77
     3
 78
     8
170
     0
171
     2
172
     1
173
     0
174
     0
175
     0
176
   256
177
   256
178
     4
  0
DIMSTYLE
  2
AM_JIS$SH
 70
     0
  3

  4
"
  5

  6

  7

 40
1.0
 41
2.5
 42
1.0
 43
10.0
 44
1.0
 45
0.0
 46
0.0
 47
0.1
 48
0.1
140
3.5
141
0.0
142
0.0
143
0.0393701
144
1.0
145
0.0
146
0.71
147
1.5
 71
     0
 72
     0
 73
     0
 74
     0
 75
     1
 76
     0
 77
     3
 78
     8
170
     0
171
     2
172
     1
173
     1
174
     0
175
     0
176
   256
177
   256
178
     4
  0
DIMSTYLE
  2
AM_ANSI
 70
     0
  3

  4
mm
  5

  6

  7

 40
1.0
 41
0.1
 42
0.05
 43
0.5
 44
0.1
 45
0.0
 46
0.0
 47
0.1
 48
0.1
140
0.12
141
0.0
142
0.0
143
25.399999999999999
144
1.0
145
0.0
146
0.71
147
0.06
 71
     0
 72
     0
 73
     1
 74
     1
 75
     0
 76
     0
 77
     0
 78
     7
170
     0
171
     2
172
     0
173
     0
174
     0
175
     0
176
   256
177
   256
178
     2
  0
DIMSTYLE
  2
AM_ANSI$3
 70
     0
  3

  4
mm
  5

  6

  7

 40
1.0
 41
0.1
 42
0.05
 43
0.5
 44
0.1
 45
0.0
 46
0.0
 47
0.1
 48
0.1
140
0.12
141
0.0
142
0.0
143
25.399999999999999
144
1.0
145
0.0
146
0.71
147
0.06
 71
     0
 72
     0
 73
     1
 74
     1
 75
     0
 76
     0
 77
     0
 78
     7
170
     0
171
     2
172
     0
173
     0
174
     0
175
     0
176
   256
177
   256
178
     2
  0
DIMSTYLE
  2
AM_ANSI$4
 70
     0
  3

  4
mm
  5

  6

  7

 40
1.0
 41
0.1
 42
0.05
 43
0.5
 44
0.1
 45
0.0
 46
0.0
 47
0.1
 48
0.1
140
0.12
141
0.0
142
0.0
143
25.399999999999999
144
1.0
145
0.0
146
0.71
147
0.06
 71
     0
 72
     0
 73
     1
 74
     1
 75
     0
 76
     0
 77
     0
 78
     7
170
     0
171
     2
172
     0
173
     0
174
     0
175
     0
176
   256
177
   256
178
     2
  0
DIMSTYLE
  2
AM_ANSI$7
 70
     0
  3

  4
mm
  5

  6

  7

 40
1.0
 41
0.1
 42
0.05
 43
0.5
 44
0.1
 45
0.0
 46
0.0
 47
0.1
 48
0.1
140
0.24
141
0.0
142
0.0
143
25.399999999999999
144
1.0
145
0.0
146
0.71
147
0.06
 71
     0
 72
     0
 73
     1
 74
     1
 75
     0
 76
     0
 77
     0
 78
     7
170
     0
171
     2
172
     0
173
     0
174
     0
175
     0
176
   256
177
   256
178
     2
  0
DIMSTYLE
  2
AM_ANSI$SF
 70
     0
  3

  4
mm
  5

  6

  7

 40
1.0
 41
0.1
 42
0.05
 43
0.5
 44
0.1
 45
0.0
 46
0.0
 47
0.1
 48
0.1
140
0.12
141
0.0
142
0.0
143
25.399999999999999
144
1.0
145
0.0
146
0.71
147
0.06
 71
     0
 72
     0
 73
     1
 74
     1
 75
     1
 76
     1
 77
     0
 78
     7
170
     0
171
     2
172
     0
173
     0
174
     0
175
     0
176
   256
177
   256
178
     2
  0
DIMSTYLE
  2
AM_ANSI$SH
 70
     0
  3

  4
mm
  5

  6

  7

 40
1.0
 41
0.1
 42
0.05
 43
0.5
 44
0.1
 45
0.0
 46
0.0
 47
0.1
 48
0.1
140
0.12
141
0.0
142
0.0
143
25.399999999999999
144
1.0
145
0.0
146
0.71
147
0.06
 71
     0
 72
     0
 73
     1
 74
     1
 75
     1
 76
     1
 77
     0
 78
     7
170
     0
171
     2
172
     0
173
     1
174
     0
175
     0
176
   256
177
   256
178
     2
  0
ENDTAB
  0
ENDSEC
  0
SECTION
  2
BLOCKS
  0
BLOCK
  8
0
  2
$MODEL_SPACE
 70
     0
 10
0.0
 20
0.0
 30
0.0
  3
$MODEL_SPACE
  1

  0
ENDBLK
  5
2EBC
  8
0
  0
BLOCK
 67
     1
  8
0
  2
$PAPER_SPACE
 70
     0
 10
0.0
 20
0.0
 30
0.0
  3
$PAPER_SPACE
  1

  0
ENDBLK
  5
2EB8
 67
     1
  8
0
  0
BLOCK
  8
0
  2
GENAXEH
 70
     0
 10
0.0
 20
0.0
 30
0.0
  3
GENAXEH
  1

  0
LINE
  5
2C8D
  8
0
 10
-1.0
 20
0.0
 30
0.0
 11
1.0
 21
0.0
 31
0.0
  0
ENDBLK
  5
2C8E
  8
0
  0
BLOCK
  8
0
  2
_OPEN30
 70
     0
 10
0.0
 20
0.0
 30
0.0
  3
_OPEN30
  1

  0
LINE
  5
2C91
  8
0
 62
     0
 10
-1.0
 20
0.26794919
 30
0.0
 11
0.0
 21
0.0
 31
0.0
  0
LINE
  5
2C92
  8
0
 62
     0
 10
0.0
 20
0.0
 30
0.0
 11
-1.0
 21
-0.26794919
 31
0.0
  0
LINE
  5
2C93
  8
0
 62
     0
 10
0.0
 20
0.0
 30
0.0
 11
-1.0
 21
0.0
 31
0.0
  0
ENDBLK
  5
2C94
  8
0
  0
BLOCK
  8
0
  2
_NONE
 70
     0
 10
0.0
 20
0.0
 30
0.0
  3
_NONE
  1

  0
ENDBLK
  5
2C97
  8
0
  0
BLOCK
  8
0
  2
_ACMFILLEDHALF
 70
     0
 10
0.0
 20
0.0
 30
0.0
  3
_ACMFILLEDHALF
  1

  0
TRACE
  5
2FB4
  8
AM_0
 62
     0
 10
-0.8
 20
0.0
 30
0.0
 11
-1.0
 21
0.166666666
 31
0.0
 12
0.0
 22
0.0
 32
0.0
 13
0.0
 23
0.0
 33
0.0
  0
LINE
  5
2FB5
  8
AM_0
 62
     0
 10
-1.0
 20
0.0
 30
0.0
 11
-0.8
 21
0.0
 31
0.0
  0
ENDBLK
  5
2FB3
  8
0
  0
ENDSEC
  0
SECTION
  2
ENTITIES
  0
LINE
  5
2C99
  8
ﾁｭｳｼﾝｾﾝ
 10
265.7399363561679
 20
915.41280641213154
 30
0.0
 11
708.0894833741429
 21
915.41280641213154
 31
0.0
  0
LINE
  5
2C9A
  8
AM_0
 10
615.47223337414255
 20
887.91280641213154
 30
0.0
 11
697.47223337414289
 21
887.91280641213154
 31
0.0
  0
LINE
  5
2C9B
  8
AM_0
 10
615.47223337414255
 20
942.91280641213132
 30
0.0
 11
697.47223337414289
 21
942.91280641213132
 31
0.0
  0
LINE
  5
2C9C
  8
AM_0
 10
615.47223337414255
 20
945.41280641213154
 30
0.0
 11
615.47223337414255
 21
885.41280641213154
 31
0.0
  0
LINE
  5
2C9D
  8
AM_0
 10
609.47229337414285
 20
973.48140641213183
 30
0.0
 11
609.47229337414285
 21
857.34419641213151
 31
0.0
  0
LINE
  5
2C9E
  8
AM_0
 10
604.47229337414285
 20
1012.783776412131
 30
0.0
 11
604.47229337414285
 21
818.04183641213149
 31
0.0
  0
LINE
  5
2C9F
  8
AM_0
 10
577.47229337414285
 20
807.29067641213169
 30
0.0
 11
577.47229337414285
 21
1023.534876412131
 31
0.0
  0
LINE
  5
2CA0
  8
AM_0
 10
487.47223337414277
 20
783.28578641213153
 30
0.0
 11
487.47223337414277
 21
1047.5397564121311
 31
0.0
  0
LINE
  5
2CA1
  8
AM_0
 10
406.47223337414272
 20
808.95711641213154
 30
0.0
 11
406.47223337414272
 21
1021.868496412131
 31
0.0
  0
LINE
  5
2CA2
  8
AM_0
 10
462.47229337414279
 20
910.41280641213154
 30
0.0
 11
462.47229337414279
 21
782.41280641213154
 31
0.0
  0
LINE
  5
2CA3
  8
AM_0
 10
383.47235337414281
 20
1012.912806412131
 30
0.0
 11
383.47235337414281
 21
817.91280641213132
 31
0.0
  0
ARC
  5
2CA4
  8
AM_0
 10
444.47229337414279
 20
915.41280641213154
 30
0.0
 40
12.5
 50
203.5781799999973
 51
336.42183000000068
  0
ARC
  5
2CA5
  8
AM_0
 10
427.47223337414277
 20
904.8772164121317
 30
0.0
 40
5.0
 50
0.0
 51
31.78801800000311
  0
LINE
  5
2CA6
  8
AM_0
 10
467.47229337414279
 20
750.41280641213154
 30
0.0
 11
384.29773337414281
 21
753.31728641213169
 31
0.0
  0
LINE
  5
2CA7
  8
AM_0
 10
435.00854337414279
 20
751.75478641213169
 30
0.0
 11
465.47229337414279
 21
762.5258364121313
 31
0.0
  0
LINE
  5
2CA8
  8
AM_0
 10
438.47229337414279
 20
763.58608641213152
 30
0.0
 11
465.47235337414281
 21
773.13246641213152
 31
0.0
  0
LINE
  5
2CA9
  8
AM_0
 10
462.47229337414279
 20
782.41280641213154
 30
0.0
 11
437.29779337414283
 21
783.29189641213134
 31
0.0
  0
LINE
  5
2CAA
  8
AM_0
 10
379.47229337414291
 20
758.3142964121314
 30
0.0
 11
379.47229337414291
 21
800.70052641213135
 31
0.0
  0
ARC
  5
2CAB
  8
AM_0
 10
384.47229337414291
 20
758.3142964121314
 30
0.0
 40
5.0
 50
180.00001000000091
 51
268.00000000000261
  0
LINE
  5
2CAC
  8
AM_0
 10
432.47223337414277
 20
788.28890641213138
 30
0.0
 11
432.47223337414277
 21
904.8772164121317
 31
0.0
  0
LINE
  5
2CAD
  8
AM_0
 10
385.47223337414277
 20
858.63698641213171
 30
0.0
 11
385.47223337414277
 21
832.21761641213141
 31
0.0
  0
LINE
  5
2CAE
  8
AM_0
 10
427.6467333741428
 20
803.38918641213149
 30
0.0
 11
411.29773337414292
 21
803.96010641213149
 31
0.0
  0
CIRCLE
  5
2CAF
  8
AM_0
 10
409.47229337414279
 20
782.91280641213154
 30
0.0
 40
9.5
  0
LINE
  5
2CB0
  8
AM_0
 10
383.60400337414279
 20
805.62453641213131
 30
0.0
 11
406.47223337414272
 21
809.65682641213141
 31
0.0
  0
LINE
  5
2CB1
  8
AM_0
 10
385.47223337414277
 20
832.21761641213141
 30
0.0
 11
406.47223337414272
 21
832.21761641213141
 31
0.0
  0
LINE
  5
2CB2
  8
AM_0
 10
383.47223337414277
 20
817.91274641213136
 30
0.0
 11
401.64679337414282
 21
817.2780964121315
 31
0.0
  0
ARC
  5
2CB3
  8
AM_0
 10
384.47229337414291
 20
800.70052641213135
 30
0.0
 40
5.0
 50
99.999999999998593
 51
180.00001000000091
  0
ARC
  5
2CB4
  8
AM_0
 10
401.47229337414279
 20
812.28114641213165
 30
0.0
 40
5.0
 50
0.0
 51
88.000000000002785
  0
ARC
  5
2CB5
  8
AM_0
 10
411.47223337414277
 20
808.95711641213154
 30
0.0
 40
5.0
 50
180.00001000000091
 51
268.00000000000261
  0
ARC
  5
2CB6
  8
AM_0
 10
437.47229337414279
 20
766.41451641213155
 30
0.0
 40
3.0
 50
180.00001000000091
 51
289.47202999999712
  0
ARC
  5
2CB7
  8
AM_0
 10
437.47223337414277
 20
788.28890641213138
 30
0.0
 40
5.0
 50
180.00001000000091
 51
268.00000000000261
  0
ARC
  5
2CB8
  8
AM_0
 10
427.47223337414277
 20
798.39229641213137
 30
0.0
 40
5.0
 50
0.0
 51
88.000000000002785
  0
LINE
  5
2CB9
  8
AM_0
 10
385.47223337414277
 20
842.4065764121317
 30
0.0
 11
406.47223337414272
 21
842.4065764121317
 31
0.0
  0
LINE
  5
2CBA
  8
AM_0
 10
385.47223337414277
 20
858.63698641213171
 30
0.0
 11
406.47223337414272
 21
858.63698641213171
 31
0.0
  0
LINE
  5
2CBB
  8
AM_0
 10
609.47229337414285
 20
760.1999764121316
 30
0.0
 11
609.47229337414285
 21
810.62557641213141
 31
0.0
  0
LINE
  5
2CBC
  8
AM_0
 10
544.47229337414285
 20
758.27931641213149
 30
0.0
 11
544.47229337414285
 21
786.82454641213155
 31
0.0
  0
LINE
  5
2CBD
  8
AM_0
 10
467.47229337414279
 20
750.41280641213154
 30
0.0
 11
604.6467933741427
 21
755.20302641213152
 31
0.0
  0
ARC
  5
2CBE
  8
AM_0
 10
549.47229337414285
 20
758.27931641213149
 30
0.0
 40
5.0
 50
180.00001000000091
 51
271.99999000000139
  0
ARC
  5
2CBF
  8
AM_0
 10
604.47229337414285
 20
760.1999764121316
 30
0.0
 40
5.0
 50
271.9999999999971
 51
0.0
  0
LINE
  5
2CC0
  8
AM_0
 10
491.61700337414283
 20
787.43050641213154
 30
0.0
 11
541.31225337414276
 21
789.16591641213154
 31
0.0
  0
LINE
  5
2CC1
  8
AM_0
 10
462.47223337414277
 20
782.41274641213181
 30
0.0
 11
487.47229337414279
 21
783.28578641213153
 31
0.0
  0
LINE
  5
2CC2
  8
AM_0
 10
467.47229337414279
 20
765.35420641213159
 30
0.0
 11
467.47229337414279
 21
782.58736641213181
 31
0.0
  0
ARC
  5
2CC3
  8
AM_0
 10
464.47229337414279
 20
765.35420641213159
 30
0.0
 40
3.0
 50
289.47202000000181
 51
0.0
  0
ARC
  5
2CC4
  8
AM_0
 10
464.47229337414279
 20
775.96089641213155
 30
0.0
 40
3.0
 50
289.47202000000181
 51
0.0
  0
LINE
  5
2CC5
  8
AM_0
 10
487.47223337414277
 20
783.28578641213153
 30
0.0
 11
491.61700337414283
 21
787.43056641213138
 31
0.0
  0
LINE
  5
2CC6
  8
ﾁｭｳｼﾝｾﾝ1
 10
559.97229337414285
 20
782.91280641213154
 30
0.0
 11
598.97229337414285
 21
782.91280641213154
 31
0.0
  0
CIRCLE
  5
2CC7
  8
AM_0
 10
579.47229337414285
 20
782.91280641213154
 30
0.0
 40
9.5
  0
ARC
  5
2CC8
  8
AM_0
 10
585.47229337414285
 20
807.6872764121315
 30
0.0
 40
8.0
 50
91.999998000000545
 51
180.00001000000091
  0
LINE
  5
2CC9
  8
ﾁｭｳｼﾝｾﾝ1
 10
579.47229337414285
 20
763.41280641213154
 30
0.0
 11
579.47229337414285
 21
802.41280641213154
 31
0.0
  0
ARC
  5
2CCA
  8
AM_0
 10
556.47229337414285
 20
786.82454641213155
 30
0.0
 40
12.0
 50
91.999998000000545
 51
180.00001000000091
  0
ARC
  5
2CCB
  8
AM_0
 10
541.13769337414283
 20
794.16292641213181
 30
0.0
 40
5.0
 50
271.9999999999971
 51
334.42648000000293
  0
LINE
  5
2CCC
  8
AM_0
 10
556.05346337414278
 20
798.8172264121315
 30
0.0
 11
569.75152337414272
 21
799.29555641213153
 31
0.0
  0
ARC
  5
2CCD
  8
AM_0
 10
569.47229337414285
 20
807.29067641213169
 30
0.0
 40
8.0
 50
271.9999999999971
 51
0.0
  0
ARC
  5
2CCE
  8
AM_0
 10
596.47229337414285
 20
824.08113641213151
 30
0.0
 40
8.0
 50
271.9999999999971
 51
0.0
  0
LINE
  5
2CCF
  8
AM_0
 10
585.19311337414285
 20
815.68239641213154
 30
0.0
 11
596.75146337414265
 21
816.08601641213124
 31
0.0
  0
ARC
  5
2CD0
  8
AM_0
 10
604.47229337414285
 20
810.62557641213141
 30
0.0
 40
5.0
 50
0.0
 51
67.975688999996393
  0
ARC
  5
2CD1
  8
AM_0
 10
607.47229337414285
 20
818.04183641213149
 30
0.0
 40
3.0
 50
180.00001000000091
 51
247.97569000000061
  0
LINE
  5
2CD2
  8
AM_0
 10
606.40246337414271
 20
855.30556641213138
 30
0.0
 11
607.54211337414279
 21
855.34535641213165
 31
0.0
  0
ARC
  5
2CD3
  8
AM_0
 10
606.47229337414285
 20
853.30684641213134
 30
0.0
 40
2.0
 50
91.999998000000545
 51
180.00001000000091
  0
ARC
  5
2CD4
  8
AM_0
 10
607.47229337414285
 20
857.34419641213151
 30
0.0
 40
2.0
 50
271.9999999999971
 51
0.0
  0
LINE
  5
2CD5
  8
AM_0
 10
609.47229337414285
 20
885.41280641213154
 30
0.0
 11
615.47223337414255
 21
885.41280641213154
 31
0.0
  0
LINE
  5
2CD6
  8
AM_0
 10
467.47229337414279
 20
1080.4128064121301
 30
0.0
 11
384.29773337414281
 21
1077.508266412131
 31
0.0
  0
LINE
  5
2CD7
  8
AM_0
 10
438.47235337414281
 20
1067.23946641213
 30
0.0
 11
465.47235337414281
 21
1057.69307641213
 31
0.0
  0
LINE
  5
2CD8
  8
AM_0
 10
435.00854337414279
 20
1079.070766412131
 30
0.0
 11
465.47235337414281
 21
1068.29970641213
 31
0.0
  0
LINE
  5
2CD9
  8
AM_0
 10
462.47223337414277
 20
1048.4128064121301
 30
0.0
 11
437.29773337414252
 21
1047.5337164121311
 31
0.0
  0
LINE
  5
2CDA
  8
AM_0
 10
424.47229337414279
 20
910.41280641213154
 30
0.0
 11
464.47229337414279
 21
910.41280641213154
 31
0.0
  0
LINE
  5
2CDB
  8
AM_0
 10
424.47229337414279
 20
920.41280641213154
 30
0.0
 11
464.47229337414279
 21
920.41280641213154
 31
0.0
  0
ARC
  5
2CDC
  8
AM_0
 10
444.47229337414279
 20
915.41280641213154
 30
0.0
 40
12.5
 50
23.578179999997531
 51
156.42182000000241
  0
LINE
  5
2CDD
  8
AM_0
 10
379.47229337414291
 20
1072.511316412131
 30
0.0
 11
379.47229337414291
 21
1030.12508641213
 31
0.0
  0
CIRCLE
  5
2CDE
  8
AM_0
 10
409.47229337414279
 20
1047.912806412131
 30
0.0
 40
9.5
  0
LINE
  5
2CDF
  8
AM_0
 10
432.47223337414277
 20
925.94832641213122
 30
0.0
 11
432.47223337414277
 21
1042.536706412131
 31
0.0
  0
LINE
  5
2CE0
  8
AM_0
 10
385.47223337414277
 20
998.60793641213183
 30
0.0
 11
385.47223337414277
 21
972.18855641213133
 31
0.0
  0
LINE
  5
2CE1
  8
AM_0
 10
385.47223337414277
 20
972.18855641213133
 30
0.0
 11
406.47223337414272
 21
972.18855641213133
 31
0.0
  0
ARC
  5
2CE2
  8
AM_0
 10
427.47223337414277
 20
925.94832641213122
 30
0.0
 40
5.0
 50
328.21198000000078
 51
0.0
  0
ARC
  5
2CE3
  8
AM_0
 10
424.47229337414279
 20
915.41280641213154
 30
0.0
 40
5.0
 50
90.00000299999769
 51
270.0
  0
ARC
  5
2CE4
  8
AM_0
 10
444.47229337414279
 20
915.41280641213154
 30
0.0
 40
15.0
 50
148.21198000000049
 51
160.52876999999901
  0
ARC
  5
2CE5
  8
AM_0
 10
444.47229337414279
 20
915.41280641213154
 30
0.0
 40
15.0
 50
199.4712300000005
 51
211.78801999999919
  0
LINE
  5
2CE6
  8
AM_0
 10
427.6467333741428
 20
1027.4363664121311
 30
0.0
 11
411.29773337414292
 21
1026.865436412131
 31
0.0
  0
ARC
  5
2CE7
  8
AM_0
 10
401.47229337414279
 20
1018.5443964121311
 30
0.0
 40
5.0
 50
271.9999999999971
 51
0.0
  0
LINE
  5
2CE8
  8
AM_0
 10
385.47223337414277
 20
998.60793641213183
 30
0.0
 11
406.47223337414272
 21
998.60793641213183
 31
0.0
  0
LINE
  5
2CE9
  8
AM_0
 10
385.47223337414277
 20
988.41896641213145
 30
0.0
 11
406.47223337414272
 21
988.41896641213145
 31
0.0
  0
LINE
  5
2CEA
  8
AM_0
 10
383.47235337414281
 20
1012.912746412131
 30
0.0
 11
401.64685337414278
 21
1013.547446412131
 31
0.0
  0
LINE
  5
2CEB
  8
AM_0
 10
383.60406337414281
 20
1025.20100641213
 30
0.0
 11
406.47223337414272
 21
1021.168786412131
 31
0.0
  0
ARC
  5
2CEC
  8
AM_0
 10
384.47229337414291
 20
1030.12508641213
 30
0.0
 40
5.0
 50
180.00001000000091
 51
259.99998999999872
  0
ARC
  5
2CED
  8
AM_0
 10
411.47223337414277
 20
1021.868496412131
 30
0.0
 40
5.0
 50
91.999998000000545
 51
180.00001000000091
  0
ARC
  5
2CEE
  8
AM_0
 10
437.47223337414277
 20
1042.536706412131
 30
0.0
 40
5.0
 50
91.999998000000545
 51
180.00001000000091
  0
ARC
  5
2CEF
  8
AM_0
 10
427.47223337414277
 20
1032.4333064121311
 30
0.0
 40
5.0
 50
271.9999999999971
 51
0.0
  0
ARC
  5
2CF0
  8
AM_0
 10
384.47229337414291
 20
1072.511316412131
 30
0.0
 40
5.0
 50
91.999998000000545
 51
180.00001000000091
  0
ARC
  5
2CF1
  8
AM_0
 10
437.47229337414279
 20
1064.41103641213
 30
0.0
 40
3.0
 50
70.527972999999633
 51
180.00001000000091
  0
LINE
  5
2CF2
  8
AM_0
 10
544.47229337414285
 20
1072.5462264121311
 30
0.0
 11
544.47229337414285
 21
1044.001056412131
 31
0.0
  0
LINE
  5
2CF3
  8
AM_0
 10
467.47229337414279
 20
1065.471336412131
 30
0.0
 11
467.47229337414279
 21
1048.238186412131
 31
0.0
  0
LINE
  5
2CF4
  8
AM_0
 10
609.47229337414285
 20
1070.6255764121311
 30
0.0
 11
609.47229337414285
 21
1020.199976412131
 31
0.0
  0
CIRCLE
  5
2CF5
  8
AM_0
 10
579.47229337414285
 20
1047.912806412131
 30
0.0
 40
9.5
  0
LINE
  5
2CF6
  8
AM_0
 10
491.61700337414283
 20
1043.395046412131
 30
0.0
 11
541.31225337414276
 21
1041.6596264121299
 31
0.0
  0
LINE
  5
2CF7
  8
AM_0
 10
462.47229337414279
 20
1048.4128064121301
 30
0.0
 11
462.47229337414279
 21
920.41280641213154
 31
0.0
  0
ARC
  5
2CF8
  8
AM_0
 10
464.47229337414279
 20
915.41280641213154
 30
0.0
 40
5.0
 50
270.0
 51
90.00000299999769
  0
LINE
  5
2CF9
  8
AM_0
 10
462.47229337414279
 20
1048.4128064121301
 30
0.0
 11
487.47229337414279
 21
1047.5397564121311
 31
0.0
  0
LINE
  5
2CFA
  8
AM_0
 10
487.47229337414279
 20
1047.5397564121311
 30
0.0
 11
491.61694337414281
 21
1043.395046412131
 31
0.0
  0
LINE
  5
2CFB
  8
AM_0
 10
609.47229337414285
 20
945.41280641213154
 30
0.0
 11
615.47223337414255
 21
945.41280641213154
 31
0.0
  0
LINE
  5
2CFC
  8
AM_0
 10
606.40246337414271
 20
975.51997641213131
 30
0.0
 11
607.54211337414279
 21
975.48018641213173
 31
0.0
  0
ARC
  5
2CFD
  8
AM_0
 10
607.47229337414285
 20
973.48140641213183
 30
0.0
 40
2.0
 50
0.0
 51
88.000000000002785
  0
ARC
  5
2CFE
  8
AM_0
 10
606.47229337414285
 20
977.51875641213155
 30
0.0
 40
2.0
 50
180.00001000000091
 51
268.00000000000261
  0
ARC
  5
2CFF
  8
AM_0
 10
585.47229337414285
 20
1023.138266412131
 30
0.0
 40
8.0
 50
180.00001000000091
 51
268.00000000000261
  0
LINE
  5
2D00
  8
AM_0
 10
556.05346337414278
 20
1032.00838641213
 30
0.0
 11
569.75152337414272
 21
1031.530056412131
 31
0.0
  0
ARC
  5
2D01
  8
AM_0
 10
556.47229337414285
 20
1044.001056412131
 30
0.0
 40
12.0
 50
180.00001000000091
 51
268.00000000000261
  0
ARC
  5
2D02
  8
AM_0
 10
541.13769337414283
 20
1036.6626764121311
 30
0.0
 40
5.0
 50
25.5735169999985
 51
88.000000000002785
  0
ARC
  5
2D03
  8
AM_0
 10
569.47229337414285
 20
1023.534876412131
 30
0.0
 40
8.0
 50
0.0
 51
88.000000000002785
  0
LINE
  5
2D04
  8
AM_0
 10
585.19311337414285
 20
1015.143146412131
 30
0.0
 11
596.75146337414265
 21
1014.739526412131
 31
0.0
  0
ARC
  5
2D05
  8
AM_0
 10
596.47229337414285
 20
1006.744406412131
 30
0.0
 40
8.0
 50
0.0
 51
88.000000000002785
  0
ARC
  5
2D06
  8
AM_0
 10
604.47229337414285
 20
1020.199976412131
 30
0.0
 40
5.0
 50
292.02430999999922
 51
0.0
  0
ARC
  5
2D07
  8
AM_0
 10
607.47229337414285
 20
1012.783776412131
 30
0.0
 40
3.0
 50
112.0243099999992
 51
180.00001000000091
  0
LINE
  5
2D08
  8
AM_0
 10
467.47229337414279
 20
1080.41274641213
 30
0.0
 11
604.6467933741427
 21
1075.6225164121311
 31
0.0
  0
ARC
  5
2D09
  8
AM_0
 10
464.47229337414279
 20
1054.86464641213
 30
0.0
 40
3.0
 50
0.0
 51
70.527972999999633
  0
ARC
  5
2D0A
  8
AM_0
 10
464.47229337414279
 20
1065.471336412131
 30
0.0
 40
3.0
 50
0.0
 51
70.527972999999633
  0
ARC
  5
2D0B
  8
AM_0
 10
549.47229337414285
 20
1072.5462264121311
 30
0.0
 40
5.0
 50
88.000000000002785
 51
180.00001000000091
  0
ARC
  5
2D0C
  8
AM_0
 10
604.47229337414285
 20
1070.6255764121311
 30
0.0
 40
5.0
 50
0.0
 51
88.000000000002785
  0
LINE
  5
2D0D
  8
AM_0
 10
697.47223337414289
 20
942.91280641213132
 30
0.0
 11
697.47223337414289
 21
887.91280641213154
 31
0.0
  0
LINE
  5
2D0E
  8
AM_0
 10
635.47229337414285
 20
907.41274641213124
 30
0.0
 11
697.47223337414289
 21
907.41274641213124
 31
0.0
  0
LINE
  5
2D0F
  8
AM_0
 10
635.47229337414285
 20
923.41280641213154
 30
0.0
 11
697.47223337414289
 21
923.41280641213154
 31
0.0
  0
ARC
  5
2D10
  8
AM_0
 10
635.47229337414285
 20
915.41274641213124
 30
0.0
 40
8.0000110000000006
 50
90.00000299999769
 51
270.0
  0
LINE
  5
2D11
  8
AM_0
 10
635.47223337414277
 20
923.41280641213154
 30
0.0
 11
635.47223337414277
 21
907.41274641213124
 31
0.0
  0
LINE
  5
2D12
  8
ﾁｭｳｼﾝｾﾝ1
 10
409.47229337414279
 20
763.41280641213154
 30
0.0
 11
409.47229337414279
 21
802.41280641213154
 31
0.0
  0
LINE
  5
2D13
  8
ﾁｭｳｼﾝｾﾝ1
 10
389.97229337414291
 20
782.91280641213154
 30
0.0
 11
428.97229337414279
 21
782.91280641213154
 31
0.0
  0
LINE
  5
2D14
  8
ﾁｭｳｼﾝｾﾝ1
 10
409.47229337414279
 20
1028.4128064121301
 30
0.0
 11
409.47229337414279
 21
1067.412806412131
 31
0.0
  0
LINE
  5
2D15
  8
ﾁｭｳｼﾝｾﾝ1
 10
389.97229337414291
 20
1047.912806412131
 30
0.0
 11
428.97229337414279
 21
1047.912806412131
 31
0.0
  0
LINE
  5
2D16
  8
ﾁｭｳｼﾝｾﾝ1
 10
579.47229337414285
 20
1028.4128064121301
 30
0.0
 11
579.47229337414285
 21
1067.412806412131
 31
0.0
  0
LINE
  5
2D17
  8
ﾁｭｳｼﾝｾﾝ1
 10
559.97229337414285
 20
1047.912806412131
 30
0.0
 11
598.97229337414285
 21
1047.912806412131
 31
0.0
  0
LINE
  5
2D18
  8
ﾁｭｳｼﾝｾﾝ
 10
413.2195290698628
 20
477.72114233521518
 30
0.0
 11
702.90108337414233
 21
477.72114233521518
 31
0.0
  0
LINE
  5
2D19
  8
AM_0
 10
615.47223337414243
 20
450.22114233521518
 30
0.0
 11
697.47223337414277
 21
450.22114233521518
 31
0.0
  0
LINE
  5
2D1A
  8
AM_0
 10
615.47223337414243
 20
505.22114233521518
 30
0.0
 11
697.47223337414277
 21
505.22114233521518
 31
0.0
  0
LINE
  5
2D1B
  8
AM_0
 10
406.47223337414232
 20
545.70512733521525
 30
0.0
 11
406.47223337414232
 21
320.27863233521521
 31
0.0
  0
LINE
  5
2D1C
  8
AM_0
 10
432.4722333741426
 20
596.74217733521516
 30
0.0
 11
432.4722333741426
 21
307.86011733521519
 31
0.0
  0
LINE
  5
2D1D
  8
AM_0
 10
462.47223337414249
 20
599.72112733521521
 30
0.0
 11
462.47223337414249
 21
367.11505733521523
 31
0.0
  0
LINE
  5
2D1E
  8
AM_0
 10
544.47223337414232
 20
514.67878233521537
 30
0.0
 11
544.47223337414232
 21
317.72113733521519
 31
0.0
  0
LINE
  5
2D1F
  8
AM_0
 10
577.47223337414266
 20
582.04832733521505
 30
0.0
 11
577.47223337414266
 21
334.02814733521512
 31
0.0
  0
LINE
  5
2D20
  8
AM_0
 10
467.47223337414249
 20
469.82712733521521
 30
0.0
 11
467.47223337414249
 21
379.96012233521509
 31
0.0
  0
LINE
  5
2D21
  8
AM_0
 10
609.47223337414221
 20
535.78977733521515
 30
0.0
 11
609.47223337414221
 21
419.65253733521519
 31
0.0
  0
LINE
  5
2D22
  8
AM_0
 10
604.47223337414243
 20
558.13942733521515
 30
0.0
 11
604.47223337414243
 21
311.38138733521521
 31
0.0
  0
LINE
  5
2D23
  8
AM_0
 10
383.47228337414231
 20
530.22117733521509
 30
0.0
 11
383.47228337414231
 21
335.2211373352153
 31
0.0
  0
LINE
  5
2D24
  8
AM_0
 10
277.47228337414242
 20
307.72113733521519
 30
0.0
 11
277.47228337414242
 21
557.72113733521519
 31
0.0
  0
LINE
  5
2D25
  8
AM_0
 10
293.47228337414231
 20
554.72113733521508
 30
0.0
 11
293.47228337414231
 21
432.72113733521519
 31
0.0
  0
LINE
  5
2D26
  8
AM_0
 10
615.47223337414243
 20
507.72114233521518
 30
0.0
 11
615.47223337414243
 21
447.72114233521518
 31
0.0
  0
LINE
  5
2D27
  8
AM_0
 10
385.47223337414232
 20
359.71494233521508
 30
0.0
 11
406.47223337414232
 21
359.71494233521508
 31
0.0
  0
LINE
  5
2D28
  8
AM_0
 10
385.47223337414232
 20
375.94532233521522
 30
0.0
 11
406.47223337414232
 21
375.94532233521522
 31
0.0
  0
LINE
  5
2D29
  8
AM_0
 10
385.47223337414232
 20
349.52594733521522
 30
0.0
 11
406.47223337414232
 21
349.52594733521522
 31
0.0
  0
LINE
  5
2D2A
  8
AM_0
 10
384.47223337414232
 20
307.72113733521519
 30
0.0
 11
431.3016333741424
 21
307.72113733521519
 31
0.0
  0
LINE
  5
2D2B
  8
ﾁｭｳｼﾝｾﾝ
 10
265.7399363561679
 20
432.72113733521519
 30
0.0
 11
454.16168519924162
 21
432.72113733521519
 31
0.0
  0
LINE
  5
2D2C
  8
AM_0
 10
379.47223337414232
 20
277.72113733521508
 30
0.0
 11
609.47223337414221
 21
277.72113733521508
 31
0.0
  0
ARC
  5
2D2D
  8
AM_0
 10
401.47223337414209
 20
329.58951733521508
 30
0.0
 40
5.0
 50
0.0
 51
88.000000000002899
  0
LINE
  5
2D2E
  8
AM_0
 10
293.47228337414231
 20
310.7211373352153
 30
0.0
 11
293.47228337414231
 21
432.72113733521519
 31
0.0
  0
ARC
  5
2D2F
  8
AM_0
 10
290.47228337414231
 20
310.7211373352153
 30
0.0
 40
3.0
 50
270.0
 51
0.0
  0
LINE
  5
2D30
  8
AM_0
 10
277.47228337414242
 20
307.72113733521519
 30
0.0
 11
290.47228337414231
 21
307.72113733521519
 31
0.0
  0
LINE
  5
2D31
  8
AM_0
 10
379.47223337414232
 20
302.7211373352153
 30
0.0
 11
379.47223337414232
 21
277.72113733521508
 31
0.0
  0
LINE
  5
2D32
  8
ｶｸﾚｾﾝ2
 10
399.97223337414249
 20
307.72113733521519
 30
0.0
 11
399.97223337414249
 21
277.72113733521508
 31
0.0
  0
ARC
  5
2D33
  8
AM_0
 10
384.47223337414232
 20
302.7211373352153
 30
0.0
 40
5.0
 50
90.00000299999769
 51
180.00001000000091
  0
ARC
  5
2D34
  8
AM_0
 10
298.47228337414231
 20
327.99361933521521
 30
0.0
 40
5.0
 50
91.499999999996206
 51
180.0
  0
ARC
  5
2D35
  8
AM_0
 10
296.47228337414231
 20
343.1033393352152
 30
0.0
 40
3.0
 50
91.999999999997087
 51
180.0
  0
ARC
  5
2D36
  8
AM_0
 10
296.47228337414231
 20
372.94534833521521
 30
0.0
 40
3.0
 50
90.0
 51
180.0
  0
LINE
  5
2D37
  8
AM_0
 10
383.47228337414231
 20
335.2211373352153
 30
0.0
 11
298.34139837414227
 21
332.99190633521511
 31
0.0
  0
LINE
  5
2D38
  8
AM_0
 10
378.72714337414232
 20
359.58417233521521
 30
0.0
 11
297.24877937414232
 21
356.73888533521517
 31
0.0
  0
LINE
  5
2D39
  8
AM_0
 10
379.57698137414252
 20
349.0072473352152
 30
0.0
 11
296.36758437414238
 21
346.10151133521521
 31
0.0
  0
LINE
  5
2D3A
  8
AM_0
 10
296.47228337414231
 20
375.94534833521521
 30
0.0
 11
382.47228337414231
 21
375.94534833521521
 31
0.0
  0
LINE
  5
2D3B
  8
AM_0
 10
385.47223337414232
 20
375.94532233521522
 30
0.0
 11
385.47223337414232
 21
349.52594733521522
 31
0.0
  0
ARC
  5
2D3C
  8
AM_0
 10
379.47228337414231
 20
352.00542033521521
 30
0.0
 40
3.0
 50
271.99999999999687
 51
0.0
  0
LINE
  5
2D3D
  8
AM_0
 10
383.47223337414232
 20
335.2211373352153
 30
0.0
 11
401.6467333741424
 21
334.58646233521512
 31
0.0
  0
LINE
  5
2D3E
  8
AM_0
 10
380.5541693741423
 20
335.2211373352153
 30
0.0
 11
383.47228337414231
 21
335.2211373352153
 31
0.0
  0
LINE
  5
2D3F
  8
AM_0
 10
382.47228337414231
 20
352.00542033521521
 30
0.0
 11
382.47228337414231
 21
375.94534833521521
 31
0.0
  0
ARC
  5
2D40
  8
AM_0
 10
554.47223337414232
 20
317.72113733521519
 30
0.0
 40
10.0
 50
179.9999899999988
 51
270.0
  0
LINE
  5
2D41
  8
AM_0
 10
435.82418337414248
 20
310.5890573352151
 30
0.0
 11
466.51748337414227
 21
375.6959623352152
 31
0.0
  0
LINE
  5
2D42
  8
AM_0
 10
420.32723337414228
 20
307.72113733521519
 30
0.0
 11
408.54598337414222
 21
316.22440233521519
 31
0.0
  0
ARC
  5
2D43
  8
AM_0
 10
431.3016333741424
 20
312.7211373352153
 30
0.0
 40
5.0
 50
270.0
 51
334.75946999999809
  0
LINE
  5
2D44
  8
ｶｸﾚｾﾝ2
 10
418.97223337414232
 20
307.72113733521519
 30
0.0
 11
418.97223337414232
 21
277.72113733521508
 31
0.0
  0
LINE
  5
2D45
  8
AM_0
 10
554.47223337414232
 20
307.72113733521519
 30
0.0
 11
604.47223337414243
 21
307.72113733521519
 31
0.0
  0
LINE
  5
2D46
  8
ｶｸﾚｾﾝ2
 10
569.97223337414255
 20
307.72113733521519
 30
0.0
 11
569.97223337414255
 21
277.72113733521508
 31
0.0
  0
LINE
  5
2D47
  8
ｶｸﾚｾﾝ2
 10
588.97223337414243
 20
307.72113733521519
 30
0.0
 11
588.97223337414243
 21
277.72113733521508
 31
0.0
  0
LINE
  5
2D48
  8
AM_0
 10
609.47223337414221
 20
302.7211373352153
 30
0.0
 11
609.47223337414221
 21
277.72113733521508
 31
0.0
  0
ARC
  5
2D49
  8
AM_0
 10
609.47223337414221
 20
311.38138733521521
 30
0.0
 40
5.0
 50
179.9999899999988
 51
240.00000999999969
  0
ARC
  5
2D4A
  8
AM_0
 10
604.47223337414243
 20
302.7211373352153
 30
0.0
 40
5.0
 50
0.0
 51
90.00000299999769
  0
ARC
  5
2D4B
  8
AM_0
 10
411.47223337414232
 20
320.27863233521521
 30
0.0
 40
5.0
 50
179.9999899999988
 51
234.17957000000149
  0
ARC
  5
2D4C
  8
AM_0
 10
457.4722333741426
 20
379.96012233521509
 30
0.0
 40
10.0
 50
334.75946999999809
 51
0.0
  0
ARC
  5
2D4D
  8
AM_0
 10
567.47223337414255
 20
334.02814733521512
 30
0.0
 40
10.0
 50
270.0
 51
0.0
  0
LINE
  5
2D4E
  8
AM_0
 10
544.47223337414232
 20
324.02814733521512
 30
0.0
 11
567.47223337414255
 21
324.02814733521512
 31
0.0
  0
ARC
  5
2D4F
  8
AM_0
 10
607.47223337414255
 20
419.65253733521519
 30
0.0
 40
2.0000000500000001
 50
271.99999999999687
 51
0.0
  0
ARC
  5
2D50
  8
AM_0
 10
606.47223337414243
 20
415.6151823352152
 30
0.0
 40
2.0000000500000001
 50
91.999998000000545
 51
180.00001000000091
  0
LINE
  5
2D51
  8
AM_0
 10
606.40243337414245
 20
417.61393233521522
 30
0.0
 11
607.54198337414243
 21
417.65372733521519
 31
0.0
  0
LINE
  5
2D52
  8
AM_0
 10
609.47223337414221
 20
447.72114233521518
 30
0.0
 11
615.47223337414243
 21
447.72114233521518
 31
0.0
  0
LINE
  5
2D53
  8
AM_0
 10
385.47223337414232
 20
505.72733733521522
 30
0.0
 11
406.47223337414232
 21
505.72733733521522
 31
0.0
  0
LINE
  5
2D54
  8
AM_0
 10
385.47223337414232
 20
515.91630233521516
 30
0.0
 11
406.47223337414232
 21
515.91630233521516
 31
0.0
  0
LINE
  5
2D55
  8
AM_0
 10
385.47223337414232
 20
489.49692733521522
 30
0.0
 11
406.47223337414232
 21
489.49692733521522
 31
0.0
  0
ARC
  5
2D56
  8
AM_0
 10
401.47223337414209
 20
535.85277733521525
 30
0.0
 40
5.0
 50
271.99999999999687
 51
0.0
  0
ARC
  5
2D57
  8
AM_0
 10
296.47228337414231
 20
492.49692533521522
 30
0.0
 40
3.0
 50
180.0
 51
270.0
  0
ARC
  5
2D58
  8
AM_0
 10
296.47228337414231
 20
522.33893433521519
 30
0.0
 40
3.0
 50
180.0
 51
268.0000000000029
  0
ARC
  5
2D59
  8
AM_0
 10
298.47228337414231
 20
537.44865433521545
 30
0.0
 40
5.0
 50
180.0
 51
268.4999999999971
  0
ARC
  5
2D5A
  8
AM_0
 10
290.47228337414231
 20
554.72113733521508
 30
0.0
 40
3.0
 50
0.0
 51
90.0
  0
LINE
  5
2D5B
  8
AM_0
 10
277.47228337414242
 20
557.72113733521519
 30
0.0
 11
290.47228337414231
 21
557.72113733521519
 31
0.0
  0
LINE
  5
2D5C
  8
AM_0
 10
383.47223337414232
 20
530.22112733521521
 30
0.0
 11
401.6467333741424
 21
530.85582733521528
 31
0.0
  0
LINE
  5
2D5D
  8
AM_0
 10
383.47228337414231
 20
530.22113733521542
 30
0.0
 11
298.34139837414227
 21
532.45036733521522
 31
0.0
  0
LINE
  5
2D5E
  8
AM_0
 10
296.47228337414231
 20
489.49692533521522
 30
0.0
 11
382.47228337414231
 21
489.49692533521522
 31
0.0
  0
LINE
  5
2D5F
  8
AM_0
 10
379.57698137414252
 20
516.4350263352153
 30
0.0
 11
296.36758437414238
 21
519.34076233521523
 31
0.0
  0
LINE
  5
2D60
  8
AM_0
 10
378.72714337414232
 20
505.85810133521539
 30
0.0
 11
297.24877937414232
 21
508.70338833521521
 31
0.0
  0
LINE
  5
2D61
  8
AM_0
 10
385.47223337414232
 20
515.91630233521516
 30
0.0
 11
385.47223337414232
 21
489.49692733521522
 31
0.0
  0
LINE
  5
2D62
  8
AM_0
 10
382.47228337414231
 20
513.43685333521535
 30
0.0
 11
382.47228337414231
 21
489.49692533521522
 31
0.0
  0
ARC
  5
2D63
  8
AM_0
 10
379.47228337414231
 20
513.43685333521535
 30
0.0
 40
3.0
 50
0.0
 51
88.000000000002899
  0
ARC
  5
2D64
  8
AM_0
 10
444.47223337414232
 20
625.72112733521521
 30
0.0
 40
25.000000499999999
 50
306.46672000000012
 51
233.53329000000139
  0
ARC
  5
2D65
  8
AM_0
 10
426.04718337414249
 20
600.79082733521523
 30
0.0
 40
6.0
 50
349.72994999999878
 51
53.533291000002919
  0
LINE
  5
2D66
  8
AM_0
 10
431.97228337414231
 20
599.72112733521521
 30
0.0
 11
434.22278337414252
 21
608.12002733521513
 31
0.0
  0
ARC
  5
2D67
  8
AM_0
 10
462.89723337414227
 20
600.79082733521523
 30
0.0
 40
6.0
 50
126.46669999999671
 51
190.27005999999909
  0
LINE
  5
2D68
  8
AM_0
 10
456.97223337414232
 20
599.72112733521521
 30
0.0
 11
454.72173337414227
 21
608.12002733521513
 31
0.0
  0
LINE
  5
2D69
  8
AM_0
 10
490.50053337414232
 20
594.74232733521535
 30
0.0
 11
567.82123337414237
 21
592.0422773352152
 31
0.0
  0
LINE
  5
2D6A
  8
AM_0
 10
487.47223337414249
 20
594.01967733521519
 30
0.0
 11
487.47223337414249
 21
469.82712733521521
 31
0.0
  0
LINE
  5
2D6B
  8
AM_0
 10
467.47223337414249
 20
469.82712733521521
 30
0.0
 11
487.47223337414249
 21
469.82712733521521
 31
0.0
  0
LINE
  5
2D6C
  8
AM_0
 10
434.40248337414232
 20
598.74087733521515
 30
0.0
 11
462.47228337414219
 21
599.72112733521521
 31
0.0
  0
LINE
  5
2D6D
  8
AM_0
 10
431.47223337414232
 20
599.72112733521521
 30
0.0
 11
462.47223337414249
 21
599.72112733521521
 31
0.0
  0
LINE
  5
2D6E
  8
AM_0
 10
407.8706333741423
 20
549.17332733521505
 30
0.0
 11
428.07378337414218
 21
570.15352733521513
 31
0.0
  0
ARC
  5
2D6F
  8
AM_0
 10
411.47223337414232
 20
545.70512733521525
 30
0.0
 40
5.0
 50
136.08091999999979
 51
180.00001000000091
  0
ARC
  5
2D70
  8
AM_0
 10
427.47223337414249
 20
576.73717733521505
 30
0.0
 40
5.0
 50
316.08091999999982
 51
0.0
  0
ARC
  5
2D71
  8
AM_0
 10
434.47223337414221
 20
596.74217733521516
 30
0.0
 40
2.0000000500000001
 50
91.999998000000545
 51
180.00001000000091
  0
LINE
  5
2D72
  8
AM_0
 10
429.47223337414232
 20
597.7211773352152
 30
0.0
 11
429.47223337414232
 21
573.62172733521538
 31
0.0
  0
LINE
  5
2D73
  8
AM_0
 10
428.07378337414218
 20
570.15352733521513
 30
0.0
 11
431.07378337414252
 21
573.26887733521505
 31
0.0
  0
ARC
  5
2D74
  8
AM_0
 10
424.47223337414232
 20
573.62172733521538
 30
0.0
 40
5.0
 50
316.08091999999982
 51
0.0
  0
ARC
  5
2D75
  8
AM_0
 10
431.47223337414232
 20
597.7211773352152
 30
0.0
 40
2.0000000500000001
 50
90.00000299999769
 51
180.00001000000091
  0
ARC
  5
2D76
  8
AM_0
 10
490.67503337414212
 20
599.73937733521507
 30
0.0
 40
5.0
 50
214.88733999999911
 51
268.0000000000029
  0
LINE
  5
2D77
  8
AM_0
 10
462.47223337414249
 20
599.72112733521521
 30
0.0
 11
482.64673337414229
 21
599.01657733521517
 31
0.0
  0
ARC
  5
2D78
  8
AM_0
 10
482.4722333741426
 20
594.01967733521519
 30
0.0
 40
5.0
 50
34.887349999997149
 51
88.000000000002899
  0
ARC
  5
2D79
  8
AM_0
 10
559.47223337414221
 20
514.67878233521537
 30
0.0
 40
15.0
 50
90.00000299999769
 51
180.00001000000091
  0
LINE
  5
2D7A
  8
AM_0
 10
559.47223337414221
 20
529.67877733521527
 30
0.0
 11
577.47223337414266
 21
529.67877733521527
 31
0.0
  0
LINE
  5
2D7B
  8
AM_0
 10
609.47223337414221
 20
507.72114233521518
 30
0.0
 11
615.47223337414243
 21
507.72114233521518
 31
0.0
  0
ARC
  5
2D7C
  8
AM_0
 10
567.47223337414255
 20
582.04832733521505
 30
0.0
 40
10.0
 50
0.0
 51
88.000000000002899
  0
ARC
  5
2D7D
  8
AM_0
 10
587.47223337414255
 20
574.24662733521507
 30
0.0
 40
10.0
 50
179.9999899999988
 51
265.00000000000028
  0
LINE
  5
2D7E
  8
AM_0
 10
586.60063337414226
 20
564.28472733521528
 30
0.0
 11
599.90798337414242
 21
563.12047733521536
 31
0.0
  0
ARC
  5
2D7F
  8
AM_0
 10
607.47223337414255
 20
535.78977733521515
 30
0.0
 40
2.0000000500000001
 50
0.0
 51
88.000000000002899
  0
ARC
  5
2D80
  8
AM_0
 10
606.47223337414243
 20
539.82712733521487
 30
0.0
 40
2.0000000500000001
 50
179.9999899999988
 51
268.00000999999861
  0
LINE
  5
2D81
  8
AM_0
 10
606.40248337414221
 20
537.82832733521525
 30
0.0
 11
607.54208337414252
 21
537.78857733521522
 31
0.0
  0
ARC
  5
2D82
  8
AM_0
 10
599.47223337414243
 20
558.13942733521515
 30
0.0
 40
5.0
 50
0.0
 51
84.999996999998572
  0
CIRCLE
  5
2D83
  8
AM_0
 10
444.47223337414232
 20
625.72112733521521
 30
0.0
 40
15.0
  0
LINE
  5
2D84
  8
AM_0
 10
434.67818337414252
 20
608.72112733521521
 30
0.0
 11
454.26623337414247
 21
608.72112733521521
 31
0.0
  0
LINE
  5
2D85
  8
AM_0
 10
444.47223337414232
 20
610.7211273352151
 30
0.0
 11
453.95033337414247
 21
608.84212733521508
 31
0.0
  0
LINE
  5
2D86
  8
AM_0
 10
434.99418337414249
 20
608.84212733521508
 30
0.0
 11
444.47223337414232
 21
610.7211773352152
 31
0.0
  0
ARC
  5
2D87
  8
AM_0
 10
435.1886833741425
 20
607.86122733521518
 30
0.0
 40
1.0
 50
101.213289999998
 51
164.99998999999869
  0
ARC
  5
2D88
  8
AM_0
 10
453.7558833741424
 20
607.86122733521518
 30
0.0
 40
1.0
 50
15.000000000000741
 51
78.786710000001847
  0
ARC
  5
2D89
  8
AM_0
 10
993.64255474682875
 20
477.72114233521518
 30
0.0
 40
60.0
 50
270.0
 51
90.00000299999769
  0
ARC
  5
2D8A
  8
AM_0
 10
993.64255474682875
 20
477.72114233521518
 30
0.0
 40
60.0
 50
90.00000299999769
 51
270.0
  0
ARC
  5
2D8B
  8
AM_0
 10
993.64255474682875
 20
477.72114233521518
 30
0.0
 40
27.500000499999999
 50
106.9123899999975
 51
73.087596999998908
  0
LINE
  5
2D8C
  8
AM_0
 10
1158.642544746828
 20
307.72113733521519
 30
0.0
 11
1120.445184746829
 21
504.22947233521518
 31
0.0
  0
LINE
  5
2D8D
  8
AM_0
 10
1110.642524746828
 20
384.68503733521521
 30
0.0
 11
1110.642524746828
 21
528.65492733521523
 31
0.0
  0
LINE
  5
2D8E
  8
AM_0
 10
1093.642524746828
 20
319.72110733521521
 30
0.0
 11
1093.642524746828
 21
462.72114233521518
 31
0.0
  0
LINE
  5
2D8F
  8
AM_0
 10
828.64258474682879
 20
307.72113733521519
 30
0.0
 11
866.83990974682843
 21
504.2294423352152
 31
0.0
  0
LINE
  5
2D90
  8
AM_0
 10
876.64252474682849
 20
384.68503733521521
 30
0.0
 11
876.64252474682849
 21
528.65492733521523
 31
0.0
  0
LINE
  5
2D91
  8
ﾁｭｳｼﾝｾﾝ
 10
993.64255474682875
 20
278.99416196104892
 30
0.0
 11
993.64255474682875
 21
653.72042733521505
 31
0.0
  0
LINE
  5
2D92
  8
AM_0
 10
893.64255474682875
 20
319.72110733521521
 30
0.0
 11
893.64255474682875
 21
462.72114233521518
 31
0.0
  0
LINE
  5
2D93
  8
AM_0
 10
697.47223337414277
 20
509.22114233521518
 30
0.0
 11
697.47223337414277
 21
450.22114233521518
 31
0.0
  0
ARC
  5
2D94
  8
AM_0
 10
993.64255474682875
 20
384.72110733521521
 30
0.0
 40
117.0
 50
328.72670000000397
 51
0.0
  0
LINE
  5
2D95
  8
AM_0
 10
1093.642524746828
 20
307.72113733521519
 30
0.0
 11
1153.6425297468279
 21
307.72113733521519
 31
0.0
  0
LINE
  5
2D96
  8
AM_0
 10
1088.642524746828
 20
277.72113733521508
 30
0.0
 11
1158.642529746827
 21
277.72113733521508
 31
0.0
  0
LINE
  5
2D97
  8
ﾁｭｳｼﾝｾﾝ
 10
861.45244559881075
 20
432.72113733521519
 30
0.0
 11
1125.825090723979
 21
432.72113733521519
 31
0.0
  0
LINE
  5
2D98
  8
AM_0
 10
898.64255474682864
 20
277.72113733521508
 30
0.0
 11
828.6425347468288
 21
277.72113733521508
 31
0.0
  0
LINE
  5
2D99
  8
AM_0
 10
893.64255474682875
 20
307.72113733521519
 30
0.0
 11
833.64253474682835
 21
307.72113733521519
 31
0.0
  0
ARC
  5
2D9A
  8
AM_0
 10
881.6425247468286
 20
319.72110733521521
 30
0.0
 40
12.0
 50
270.0
 51
0.0
  0
ARC
  5
2D9B
  8
AM_0
 10
993.64255474682875
 20
384.72110733521521
 30
0.0
 40
117.0
 50
179.9999899999988
 51
211.27329999999591
  0
ARC
  5
2D9C
  8
AM_0
 10
833.64253474682835
 20
302.7211373352153
 30
0.0
 40
5.0
 50
90.00000299999769
 51
180.00001000000091
  0
LINE
  5
2D9D
  8
AM_0
 10
828.6425347468288
 20
307.72113733521519
 30
0.0
 11
828.6425347468288
 21
277.72113733521508
 31
0.0
  0
LINE
  5
2D9E
  8
ﾁｭｳｼﾝｾﾝ1
 10
861.14255474682864
 20
312.38239233521512
 30
0.0
 11
861.14255474682864
 21
274.72113733521508
 31
0.0
  0
LINE
  5
2D9F
  8
ｶｸﾚｾﾝ2
 10
851.64252474682849
 20
307.72113733521519
 30
0.0
 11
851.64252474682849
 21
277.72113733521508
 31
0.0
  0
LINE
  5
2DA0
  8
ｶｸﾚｾﾝ2
 10
870.64252474682871
 20
307.72113733521519
 30
0.0
 11
870.64252474682871
 21
277.72113733521508
 31
0.0
  0
ARC
  5
2DA1
  8
AM_0
 10
1105.642524746828
 20
319.72110733521521
 30
0.0
 40
12.0
 50
180.00001000000091
 51
270.0
  0
LINE
  5
2DA2
  8
AM_0
 10
993.64255474682875
 20
293.72113733521508
 30
0.0
 11
1052.6518647468281
 21
293.72113733521508
 31
0.0
  0
LINE
  5
2DA3
  8
AM_0
 10
993.64255474682875
 20
284.72110733521521
 30
0.0
 11
1083.642524746828
 21
284.72110733521521
 31
0.0
  0
LINE
  5
2DA4
  8
AM_0
 10
993.64255474682875
 20
293.72113733521508
 30
0.0
 11
934.63321474682846
 21
293.72113733521508
 31
0.0
  0
LINE
  5
2DA5
  8
AM_0
 10
993.64255474682875
 20
284.72110733521521
 30
0.0
 11
903.64255474682875
 21
284.72110733521521
 31
0.0
  0
ARC
  5
2DA6
  8
AM_0
 10
916.83301474682833
 20
291.7694473352152
 30
0.0
 40
10.0
 50
54.999999000001559
 51
135.0
  0
LINE
  5
2DA7
  8
AM_0
 10
898.64255474682864
 20
302.7211373352153
 30
0.0
 11
898.64255474682864
 21
277.72113733521508
 31
0.0
  0
LINE
  5
2DA8
  8
AM_0
 10
901.57147974682869
 20
290.65006233521518
 30
0.0
 11
909.76193974682872
 21
298.84055233521519
 31
0.0
  0
ARC
  5
2DA9
  8
AM_0
 10
903.64255474682875
 20
279.72110733521521
 30
0.0
 40
5.0
 50
90.00000299999769
 51
180.00001000000091
  0
ARC
  5
2DAA
  8
AM_0
 10
908.64255474682875
 20
283.57898733521529
 30
0.0
 40
10.0
 50
135.0
 51
180.00001000000091
  0
ARC
  5
2DAB
  8
AM_0
 10
893.64255474682875
 20
302.7211373352153
 30
0.0
 40
5.0
 50
0.0
 51
90.00000299999769
  0
ARC
  5
2DAC
  8
AM_0
 10
934.63321474682846
 20
303.72113733521508
 30
0.0
 40
10.0
 50
235.0000000000025
 51
270.0
  0
LINE
  5
2DAD
  8
AM_0
 10
928.89740474682844
 20
295.52964233521521
 30
0.0
 11
922.56876474682849
 21
299.96100733521507
 31
0.0
  0
ARC
  5
2DAE
  8
AM_0
 10
1052.6518647468281
 20
303.72113733521508
 30
0.0
 40
10.0
 50
270.0
 51
304.99999999999739
  0
LINE
  5
2DAF
  8
AM_0
 10
1085.713634746827
 20
290.65006233521518
 30
0.0
 11
1077.5231397468281
 21
298.84055233521519
 31
0.0
  0
ARC
  5
2DB0
  8
AM_0
 10
1070.4520347468281
 20
291.7694473352152
 30
0.0
 40
10.0
 50
45.000001000003799
 51
124.9999999999972
  0
LINE
  5
2DB1
  8
AM_0
 10
1058.3876147468279
 20
295.52960733521508
 30
0.0
 11
1064.716289746827
 21
299.96100733521507
 31
0.0
  0
LINE
  5
2DB2
  8
AM_0
 10
1088.642524746828
 20
302.7211373352153
 30
0.0
 11
1088.642524746828
 21
277.72113733521508
 31
0.0
  0
ARC
  5
2DB3
  8
AM_0
 10
1078.642524746828
 20
283.57898733521529
 30
0.0
 40
10.0
 50
0.0
 51
45.000001000003799
  0
ARC
  5
2DB4
  8
AM_0
 10
1083.642524746828
 20
279.72110733521521
 30
0.0
 40
5.0
 50
0.0
 51
90.00000299999769
  0
ARC
  5
2DB5
  8
AM_0
 10
1093.642524746828
 20
302.7211373352153
 30
0.0
 40
5.0
 50
90.00000299999769
 51
180.00001000000091
  0
LINE
  5
2DB6
  8
ﾁｭｳｼﾝｾﾝ1
 10
1126.142529746827
 20
312.38239233521512
 30
0.0
 11
1126.142529746827
 21
274.72113733521508
 31
0.0
  0
LINE
  5
2DB7
  8
ｶｸﾚｾﾝ2
 10
1116.642544746828
 20
307.72113733521519
 30
0.0
 11
1116.642544746828
 21
277.72113733521508
 31
0.0
  0
LINE
  5
2DB8
  8
ｶｸﾚｾﾝ2
 10
1135.6425297468279
 20
307.72113733521519
 30
0.0
 11
1135.6425297468279
 21
277.72113733521508
 31
0.0
  0
LINE
  5
2DB9
  8
AM_0
 10
1158.642529746827
 20
307.72113733521519
 30
0.0
 11
1158.642529746827
 21
277.72113733521508
 31
0.0
  0
ARC
  5
2DBA
  8
AM_0
 10
1153.6425297468279
 20
302.7211373352153
 30
0.0
 40
5.0
 50
0.0
 51
90.00000299999769
  0
ARC
  5
2DBB
  8
AM_0
 10
993.64255474682875
 20
462.72114233521518
 30
0.0
 40
100.0
 50
0.0
 51
90.00000299999769
  0
ARC
  5
2DBC
  8
AM_0
 10
1026.642524746828
 20
486.18754233521508
 30
0.0
 40
100.0
 50
0.0
 51
45.402042999998848
  0
ARC
  5
2DBD
  8
AM_0
 10
1029.1538497468271
 20
486.48423233521521
 30
0.0
 40
93.0
 50
10.999999999998691
 51
43.554364000000241
  0
ARC
  5
2DBE
  8
AM_0
 10
1100.642524746828
 20
528.65492733521523
 30
0.0
 40
10.0
 50
0.0
 51
30.536084999998732
  0
ARC
  5
2DBF
  8
AM_0
 10
960.64252474682849
 20
486.18754233521508
 30
0.0
 40
100.0
 50
134.59796000000111
 51
180.00001000000091
  0
ARC
  5
2DC0
  8
AM_0
 10
958.13123474682868
 20
486.48423233521521
 30
0.0
 40
93.0
 50
136.4456399999961
 51
169.00000000000131
  0
ARC
  5
2DC1
  8
AM_0
 10
993.64255474682875
 20
452.72114233521518
 30
0.0
 40
142.0
 50
90.00000299999769
 51
136.4456399999961
  0
ARC
  5
2DC2
  8
AM_0
 10
993.64255474682875
 20
452.72114233521518
 30
0.0
 40
147.0
 50
90.00000299999769
 51
134.59796000000111
  0
ARC
  5
2DC3
  8
AM_0
 10
993.64255474682875
 20
462.72114233521518
 30
0.0
 40
100.0
 50
90.00000299999769
 51
180.00001000000091
  0
LINE
  5
2DC4
  8
AM_0
 10
635.47223337414243
 20
509.22114233521518
 30
0.0
 11
697.47223337414277
 21
509.22114233521518
 31
0.0
  0
LINE
  5
2DC5
  8
AM_0
 10
635.47223337414243
 20
509.22114233521518
 30
0.0
 11
635.47223337414243
 21
505.22114233521518
 31
0.0
  0
ARC
  5
2DC6
  8
AM_0
 10
886.64252474682849
 20
528.65492733521523
 30
0.0
 40
10.0
 50
149.46391999999909
 51
180.00001000000091
  0
LINE
  5
2DC7
  8
AM_0
 10
860.64252474682849
 20
486.18754233521508
 30
0.0
 11
860.64252474682849
 21
472.34684233521517
 31
0.0
  0
ARC
  5
2DC8
  8
AM_0
 10
993.64255474682875
 20
452.72114233521518
 30
0.0
 40
142.0
 50
43.554364000000241
 51
90.00000299999769
  0
ARC
  5
2DC9
  8
AM_0
 10
993.64255474682875
 20
452.72114233521518
 30
0.0
 40
147.0
 50
45.402042999998848
 51
90.00000299999769
  0
ARC
  5
2DCA
  8
AM_0
 10
1000.642524746828
 20
603.72112733521521
 30
0.0
 40
2.0000000500000001
 50
179.9999899999988
 51
270.0
  0
ARC
  5
2DCB
  8
AM_0
 10
986.64252474682849
 20
603.72112733521521
 30
0.0
 40
2.0000000500000001
 50
270.0
 51
0.0
  0
LINE
  5
2DCC
  8
AM_0
 10
1006.288549746828
 20
599.17617733521524
 30
0.0
 11
1003.892034746828
 21
608.12007733521523
 31
0.0
  0
LINE
  5
2DCD
  8
AM_0
 10
980.99649974682859
 20
599.17617733521524
 30
0.0
 11
983.39301474682861
 21
608.12002733521513
 31
0.0
  0
LINE
  5
2DCE
  8
ﾁｭｳｼﾝｾﾝ
 10
1081.9623608393581
 20
477.72114233521518
 30
0.0
 11
905.71392930926731
 21
477.72114233521518
 31
0.0
  0
CIRCLE
  5
2DCF
  8
AM_5
 10
993.64255474682875
 20
477.72114233521518
 30
0.0
 40
6.0
  0
LINE
  5
2DD0
  8
AM_0
 10
985.64252474682849
 20
509.22114233521518
 30
0.0
 11
1001.642524746828
 21
509.22114233521518
 31
0.0
  0
LINE
  5
2DD1
  8
AM_0
 10
985.64252474682849
 20
499.22114233521518
 30
0.0
 11
1001.642524746828
 21
499.22114233521518
 31
0.0
  0
CIRCLE
  5
2DD2
  8
AM_0
 10
993.64255474682875
 20
477.72114233521518
 30
0.0
 40
4.500000049999997
  0
LINE
  5
2DD3
  8
AM_0
 10
985.64252474682849
 20
499.22114233521518
 30
0.0
 11
985.64252474682849
 21
509.22114233521518
 31
0.0
  0
LINE
  5
2DD4
  8
AM_0
 10
1001.642524746828
 20
499.22114233521518
 30
0.0
 11
1001.642524746828
 21
509.22114233521518
 31
0.0
  0
LINE
  5
2DD5
  8
AM_0
 10
998.6425247468286
 20
609.72987733521506
 30
0.0
 11
1003.1205847468279
 21
608.84212733521508
 31
0.0
  0
LINE
  5
2DD6
  8
AM_0
 10
998.64255474682875
 20
645.72112733521521
 30
0.0
 11
998.64255474682875
 21
603.72112733521521
 31
0.0
  0
LINE
  5
2DD7
  8
AM_0
 10
988.64255474682875
 20
645.72112733521521
 30
0.0
 11
988.64255474682875
 21
603.72112733521521
 31
0.0
  0
LINE
  5
2DD8
  8
AM_0
 10
984.16446974682844
 20
608.84222733521517
 30
0.0
 11
988.6425247468286
 21
609.72997733521538
 31
0.0
  0
ARC
  5
2DD9
  8
AM_0
 10
984.35895474682832
 20
607.86122733521518
 30
0.0
 40
1.0
 50
101.213289999998
 51
164.99998999999869
  0
ARC
  5
2DDA
  8
AM_0
 10
993.64255474682875
 20
645.72112733521521
 30
0.0
 40
5.0
 50
359.999989999999
 51
179.9999899999988
  0
ARC
  5
2DDB
  8
AM_0
 10
1002.926094746828
 20
607.86122733521518
 30
0.0
 40
1.0
 50
15.000000000000741
 51
78.786710000001847
  0
LINE
  5
2DDC
  8
AM_0
 10
1126.642544746828
 20
486.18754233521508
 30
0.0
 11
1126.642544746828
 21
472.34684233521517
 31
0.0
  0
LINE
  5
2DDD
  8
AM_0
 10
293.47235337414281
 20
1037.412786412131
 30
0.0
 11
293.47235337414281
 21
915.41278641213148
 31
0.0
  0
LINE
  5
2DDE
  8
AM_0
 10
277.47235337414281
 20
790.41278641213171
 30
0.0
 11
277.47235337414281
 21
1040.412786412131
 31
0.0
  0
LINE
  5
2DDF
  8
AM_0
 10
382.47235337414281
 20
834.69706941213155
 30
0.0
 11
382.47235337414281
 21
858.63699741213122
 31
0.0
  0
LINE
  5
2DE0
  8
AM_0
 10
293.47235337414281
 20
793.4127864121316
 30
0.0
 11
293.47235337414281
 21
915.41278641213148
 31
0.0
  0
LINE
  5
2DE1
  8
AM_0
 10
379.57705137414291
 20
831.69889641213183
 30
0.0
 11
296.36765437414277
 21
828.79316041213178
 31
0.0
  0
LINE
  5
2DE2
  8
AM_0
 10
378.72721337414282
 20
842.27582141213122
 30
0.0
 11
297.24884937414282
 21
839.43053441213169
 31
0.0
  0
LINE
  5
2DE3
  8
AM_0
 10
383.47235337414281
 20
817.91278641213171
 30
0.0
 11
298.34146837414278
 21
815.68355541213134
 31
0.0
  0
ARC
  5
2DE4
  8
AM_0
 10
298.47235337414281
 20
810.68526841213145
 30
0.0
 40
5.0
 50
91.499999999996206
 51
180.0
  0
ARC
  5
2DE5
  8
AM_0
 10
296.47235337414281
 20
825.7949884121316
 30
0.0
 40
3.0
 50
91.999999999997087
 51
180.0
  0
ARC
  5
2DE6
  8
AM_0
 10
379.47235337414281
 20
834.69706941213155
 30
0.0
 40
3.0
 50
271.99999999999687
 51
0.0
  0
LINE
  5
2DE7
  8
AM_0
 10
380.55423937414253
 20
817.91278641213171
 30
0.0
 11
383.47235337414281
 21
817.91278641213171
 31
0.0
  0
LINE
  5
2DE8
  8
AM_0
 10
378.72721337414282
 20
988.54975041213163
 30
0.0
 11
297.24884937414282
 21
991.39503741213184
 31
0.0
  0
LINE
  5
2DE9
  8
AM_0
 10
379.57705137414291
 20
999.1266754121317
 30
0.0
 11
296.36765437414277
 21
1002.032411412131
 31
0.0
  0
LINE
  5
2DEA
  8
AM_0
 10
296.47235337414281
 20
972.18857441213186
 30
0.0
 11
382.47235337414281
 21
972.18857441213186
 31
0.0
  0
LINE
  5
2DEB
  8
AM_0
 10
383.47235337414281
 20
1012.912786412131
 30
0.0
 11
298.34146837414278
 21
1015.1420164121311
 31
0.0
  0
LINE
  5
2DEC
  8
AM_0
 10
296.47235337414281
 20
858.63699741213122
 30
0.0
 11
382.47235337414281
 21
858.63699741213122
 31
0.0
  0
ARC
  5
2DED
  8
AM_0
 10
296.47235337414281
 20
855.63699741213134
 30
0.0
 40
3.0
 50
90.0
 51
180.0
  0
ARC
  5
2DEE
  8
AM_0
 10
296.47235337414281
 20
975.18857441213186
 30
0.0
 40
3.0
 50
180.0
 51
270.0
  0
ARC
  5
2DEF
  8
AM_0
 10
298.47235337414281
 20
1020.140303412132
 30
0.0
 40
5.0
 50
180.0
 51
268.4999999999971
  0
ARC
  5
2DF0
  8
AM_0
 10
296.47235337414281
 20
1005.030583412131
 30
0.0
 40
3.0
 50
180.0
 51
268.0000000000029
  0
LINE
  5
2DF1
  8
AM_0
 10
382.47235337414281
 20
996.1285024121313
 30
0.0
 11
382.47235337414281
 21
972.18857441213186
 31
0.0
  0
ARC
  5
2DF2
  8
AM_0
 10
379.47235337414281
 20
996.1285024121313
 30
0.0
 40
3.0
 50
0.0
 51
88.000000000002899
  0
LINE
  5
2DF3
  8
AM_0
 10
277.47235337414281
 20
1040.412786412131
 30
0.0
 11
290.47235337414281
 21
1040.412786412131
 31
0.0
  0
ARC
  5
2DF4
  8
AM_0
 10
290.47235337414281
 20
1037.412786412131
 30
0.0
 40
3.0
 50
0.0
 51
90.0
  0
ARC
  5
2DF5
  8
AM_0
 10
290.47235337414281
 20
793.4127864121316
 30
0.0
 40
3.0
 50
270.0
 51
0.0
  0
LINE
  5
2DF6
  8
AM_0
 10
277.47235337414281
 20
790.41278641213171
 30
0.0
 11
290.47235337414281
 21
790.41278641213171
 31
0.0
  0
LINE
  5
2DF7
  8
ﾁｭｳｼﾝｾﾝ1
 10
579.47226337414281
 20
312.38239233521512
 30
0.0
 11
579.47226337414281
 21
274.72113733521508
 31
0.0
  0
LINE
  5
2DF8
  8
ﾁｭｳｼﾝｾﾝ1
 10
409.4722633741427
 20
312.38239233521512
 30
0.0
 11
409.4722633741427
 21
274.72113733521508
 31
0.0
  0
TEXT
  5
2FD9
  8
AM_0
 10
831.58500958242701
 20
975.38893478423938
 30
0.0
 40
20.0
  1
VX37-040A~VX37-060A
  0
ENDSEC
  0
EOF
