  0
SECTION
  2
HEADER
  9
$ACADVER
  1
AC1009
  9
$INSBASE
 10
0.0
 20
0.0
 30
0.0
  9
$EXTMIN
 10
250.22247674784421
 20
257.62653768758992
 30
-0.0000000349181948
  9
$EXTMAX
 10
1273.9683945575589
 20
1131.8090812390569
 30
0.0000000814935747
  9
$LIMMIN
 10
0.0
 20
0.0
  9
$LIMMAX
 10
1422.5
 20
925.0
  9
$ORTHOMODE
 70
     0
  9
$REGENMODE
 70
     1
  9
$FILLMODE
 70
     1
  9
$QTEXTMODE
 70
     0
  9
$MIRRTEXT
 70
     1
  9
$DRAGMODE
 70
     2
  9
$LTSCALE
 40
5.0
  9
$OSMODE
 70
   551
  9
$ATTMODE
 70
     1
  9
$TEXTSIZE
 40
2.5
  9
$TRACEWID
 40
1.0
  9
$TEXTSTYLE
  7
STANDARD
  9
$CLAYER
  8
AM_0
  9
$CELTYPE
  6
BYLAYER
  9
$CECOLOR
 62
   256
  9
$DIMSCALE
 40
1.0
  9
$DIMASZ
 40
2.5
  9
$DIMEXO
 40
1.0
  9
$DIMDLI
 40
8.0
  9
$DIMRND
 40
0.0
  9
$DIMDLE
 40
0.0
  9
$DIMEXE
 40
0.6
  9
$DIMTP
 40
0.1
  9
$DIMTM
 40
0.1
  9
$DIMTXT
 40
2.5
  9
$DIMCEN
 40
0.0
  9
$DIMTSZ
 40
0.0
  9
$DIMTOL
 70
     0
  9
$DIMLIM
 70
     0
  9
$DIMTIH
 70
     0
  9
$DIMTOH
 70
     0
  9
$DIMSE1
 70
     0
  9
$DIMSE2
 70
     0
  9
$DIMTAD
 70
     1
  9
$DIMZIN
 70
     8
  9
$DIMBLK
  1

  9
$DIMASO
 70
     1
  9
$DIMSHO
 70
     1
  9
$DIMPOST
  1

  9
$DIMAPOST
  1
"
  9
$DIMALT
 70
     0
  9
$DIMALTD
 70
     2
  9
$DIMALTF
 40
0.0393701
  9
$DIMLFAC
 40
1.0
  9
$DIMTOFL
 70
     1
  9
$DIMTVP
 40
0.0
  9
$DIMTIX
 70
     0
  9
$DIMSOXD
 70
     0
  9
$DIMSAH
 70
     0
  9
$DIMBLK1
  1

  9
$DIMBLK2
  1

  9
$DIMSTYLE
  2
AM_ISO
  9
$DIMCLRD
 70
   256
  9
$DIMCLRE
 70
   256
  9
$DIMCLRT
 70
     4
  9
$DIMTFAC
 40
0.71
  9
$DIMGAP
 40
0.8
  9
$LUNITS
 70
     2
  9
$LUPREC
 70
     2
  9
$SKETCHINC
 40
1.0
  9
$FILLETRAD
 40
25.0
  9
$AUNITS
 70
     0
  9
$AUPREC
 70
     0
  9
$MENU
  1
.
  9
$ELEVATION
 40
0.0
  9
$PELEVATION
 40
0.0
  9
$THICKNESS
 40
0.0
  9
$LIMCHECK
 70
     0
  9
$BLIPMODE
 70
     0
  9
$CHAMFERA
 40
10.0
  9
$CHAMFERB
 40
5.0
  9
$SKPOLY
 70
     0
  9
$TDCREATE
 40
2452066.7513107639
  9
$TDUPDATE
 40
2458541.4778931248
  9
$TDINDWG
 40
0.1041715741
  9
$TDUSRTIMER
 40
0.1041715509
  9
$USRTIMER
 70
     1
  9
$ANGBASE
 50
0.0
  9
$ANGDIR
 70
     0
  9
$PDMODE
 70
     0
  9
$PDSIZE
 40
0.0
  9
$PLINEWID
 40
0.0
  9
$COORDS
 70
     1
  9
$SPLFRAME
 70
     0
  9
$SPLINETYPE
 70
     6
  9
$SPLINESEGS
 70
     8
  9
$ATTDIA
 70
     1
  9
$ATTREQ
 70
     1
  9
$HANDLING
 70
     1
  9
$HANDSEED
  5
3097
  9
$SURFTAB1
 70
     6
  9
$SURFTAB2
 70
     6
  9
$SURFTYPE
 70
     6
  9
$SURFU
 70
     6
  9
$SURFV
 70
     6
  9
$UCSNAME
  2

  9
$UCSORG
 10
0.0
 20
0.0
 30
0.0
  9
$UCSXDIR
 10
1.0
 20
0.0
 30
0.0
  9
$UCSYDIR
 10
0.0
 20
1.0
 30
0.0
  9
$PUCSNAME
  2

  9
$PUCSORG
 10
0.0
 20
0.0
 30
0.0
  9
$PUCSXDIR
 10
1.0
 20
0.0
 30
0.0
  9
$PUCSYDIR
 10
0.0
 20
1.0
 30
0.0
  9
$USERI1
 70
     0
  9
$USERI2
 70
     0
  9
$USERI3
 70
     0
  9
$USERI4
 70
     0
  9
$USERI5
 70
     0
  9
$USERR1
 40
0.0
  9
$USERR2
 40
0.0
  9
$USERR3
 40
0.0
  9
$USERR4
 40
0.0
  9
$USERR5
 40
0.0
  9
$WORLDVIEW
 70
     1
  9
$SHADEDGE
 70
     3
  9
$SHADEDIF
 70
    70
  9
$TILEMODE
 70
     1
  9
$MAXACTVP
 70
    64
  9
$PLIMCHECK
 70
     0
  9
$PEXTMIN
 10
1.0000000000000000E+020
 20
1.0000000000000000E+020
 30
1.0000000000000000E+020
  9
$PEXTMAX
 10
-1.0000000000000000E+020
 20
-1.0000000000000000E+020
 30
-1.0000000000000000E+020
  9
$PLIMMIN
 10
0.0
 20
0.0
  9
$PLIMMAX
 10
420.0
 20
297.0
  9
$UNITMODE
 70
     0
  9
$VISRETAIN
 70
     1
  9
$PLINEGEN
 70
     0
  9
$PSLTSCALE
 70
     1
  0
ENDSEC
  0
SECTION
  2
TABLES
  0
TABLE
  2
VPORT
 70
     1
  0
VPORT
  2
*ACTIVE
 70
     0
 10
0.0
 20
0.0
 11
1.0
 21
1.0
 12
762.09543565270144
 22
694.71780946332342
 13
0.0
 23
0.0
 14
12.5
 24
12.5
 15
50.0
 25
50.0
 16
0.0
 26
0.0
 36
1.0
 17
0.0
 27
0.0
 37
0.0
 40
880.18379671085916
 41
1.7571592210767459
 42
50.0
 43
0.0
 44
0.0
 50
0.0
 51
0.0
 71
     0
 72
   100
 73
     1
 74
     3
 75
     0
 76
     0
 77
     0
 78
     0
  0
ENDTAB
  0
TABLE
  2
LTYPE
 70
    27
  0
LTYPE
  2
CONTINUOUS
 70
     0
  3
Solid line
 72
    65
 73
     0
 40
0.0
  0
LTYPE
  2
AM_ISO02W050
 70
     0
  3
__ __ __ __ __ __ __ __ __ __ __ __ __ __ __
 72
    65
 73
     2
 40
7.5
 49
6.0
 49
-1.5
  0
LTYPE
  2
AM_ISO08W050
 70
     0
  3
____ . ____ . ____ . ____ . ____ . ____ . ____
 72
    65
 73
     4
 40
18.0
 49
12.0
 49
-1.5
 49
3.0
 49
-1.5
  0
LTYPE
  2
AM_ISO09W050
 70
     0
  3
_____ . . _____ . . _____ . . ____ .. ____
 72
    65
 73
     6
 40
22.5
 49
12.0
 49
-1.5
 49
3.0
 49
-1.5
 49
3.0
 49
-1.5
  0
LTYPE
  2
AMCONSTR
 70
     0
  3
_______________________
 72
    65
 73
     2
 40
9999.0
 49
9999.0
 49
0.0
  0
LTYPE
  2
AM_ISO08W050X2
 70
     0
  3
__ . __ . __ . __ . __ . __
 72
    65
 73
     4
 40
9.0
 49
6.0
 49
-0.75
 49
1.5
 49
-0.75
  0
LTYPE
  2
AM_ISO02W050X2
 70
     0
  3
 _ _ _ _ _ _ _ _ _ _ _ _
 72
    65
 73
     2
 40
3.75
 49
3.0
 49
-0.75
  0
LTYPE
  2
AMZIGZAG
 70
     0
  3
/\/-/\/-/\/-/\/-/\/-/\/
 72
    65
 73
     2
 40
11.000099999999991
 49
0.0001
 49
-11.0
  0
LTYPE
  2
ACISOWELD
 70
     0
  3
_ _ _ _ _
 72
    65
 73
     2
 40
2.0
 49
2.0
 49
-1.0
  0
LTYPE
  2
ACISOTGB
 70
     0
  3
__ . . __ . .
 72
    65
 73
     6
 40
9.0
 49
4.0
 49
-1.0
 49
1.0
 49
-1.0
 49
1.0
 49
-1.0
  0
LTYPE
  2
ACISOTGL
 70
     0
  3
_ _ _ _ _
 72
    65
 73
     2
 40
3.0
 49
2.0
 49
-1.0
  0
LTYPE
  2
CENTER
 70
     0
  3
__ . __
 72
    65
 73
     4
 40
7.0
 49
4.0
 49
-1.0
 49
1.0
 49
-1.0
  0
LTYPE
  2
PHANTOM2
 70
     0
  3
Phantom (.5x) ___ _ _ ___ _ _ ___ _ _ ___ _ _
 72
    65
 73
     6
 40
31.75
 49
15.875
 49
-3.174999999999998
 49
3.174999999999998
 49
-3.174999999999998
 49
3.174999999999998
 49
-3.174999999999998
  0
LTYPE
  2
ACANSTGBM
 70
     0
  3
__ . . __ . .
 72
    65
 73
     6
 40
9.0
 49
4.0
 49
-1.0
 49
1.0
 49
-1.0
 49
1.0
 49
-1.0
  0
LTYPE
  2
ACANSTGLM
 70
     0
  3
_ _ _ _ _
 72
    65
 73
     2
 40
3.0
 49
2.0
 49
-1.0
  0
LTYPE
  2
GEN7
 70
     0
  3
____ . ____ . ____ . ____ . ____ . ____ . ____
 72
    65
 73
     4
 40
14.25
 49
9.75
 49
-1.5
 49
1.5
 49
-1.5
  0
LTYPE
  2
GEN3B
 70
     0
  3
 - - - - -
 72
    65
 73
     2
 40
1.0
 49
0.5
 49
-0.5
  0
LTYPE
  2
GEN7A
 70
     0
  3
__ . __ . __
 72
    65
 73
     4
 40
7.375
 49
4.75
 49
-0.875
 49
0.875
 49
-0.875
  0
LTYPE
  2
ACJISTGB
 70
     0
  3
__ . . __ . .
 72
    65
 73
     6
 40
9.0
 49
4.0
 49
-1.0
 49
1.0
 49
-1.0
 49
1.0
 49
-1.0
  0
LTYPE
  2
ACJISTGL
 70
     0
  3
_ _ _ _ _
 72
    65
 73
     2
 40
3.0
 49
2.0
 49
-1.0
  0
LTYPE
  2
HIDDEN
 70
     0
  3
Hidden __ __ __ __ __ __ __ __ __ __ __ __ __ _
 72
    65
 73
     2
 40
0.375
 49
0.25
 49
-0.125
  0
LTYPE
  2
CENTER2
 70
     0
  3
Center (.5x) ___ _ ___ _ ___ _ ___ _ ___ _ ___
 72
    65
 73
     4
 40
1.125
 49
0.75
 49
-0.125
 49
0.125
 49
-0.125
  0
LTYPE
  2
HIDDEN2
 70
     0
  3
Hidden (.5x) _ _ _ _ _ _ _ _ _ _ _ _ _ _ _ _ _
 72
    65
 73
     2
 40
0.1875
 49
0.125
 49
-0.0625
  0
LTYPE
  2
AMZIGZAG2
 70
     0
  3
/\/-/\/-/\/-/\/-/\/-/\/
 72
    65
 73
     2
 40
0.4401
 49
0.0001
 49
-0.4400000000000002
  0
LTYPE
  2
ACANSTGB
 70
     0
  3
__ . . __ . .
 72
    65
 73
     6
 40
0.35433070866
 49
0.15748031496
 49
-0.03937007874
 49
0.03937007874
 49
-0.03937007874
 49
0.03937007874
 49
-0.03937007874
  0
LTYPE
  2
ACANSTGL
 70
     0
  3
_ _ _ _ _
 72
    65
 73
     2
 40
0.11811023622
 49
0.07874015748
 49
-0.03937007874
  0
ENDTAB
  0
TABLE
  2
LAYER
 70
     7
  0
LAYER
  2
0
 70
     0
 62
     7
  6
CONTINUOUS
  0
LAYER
  2
AM_0
 70
     0
 62
     7
  6
CONTINUOUS
  0
LAYER
  2
AM_5
 70
     0
 62
     2
  6
CONTINUOUS
  0
LAYER
  2
DEFPOINTS
 70
     0
 62
     7
  6
CONTINUOUS
  0
LAYER
  2
ｶｸﾚｾﾝ2
 70
     0
 62
     3
  6
GEN3B
  0
LAYER
  2
ﾁｭｳｼﾝｾﾝ
 70
     0
 62
     1
  6
GEN7
  0
LAYER
  2
ﾁｭｳｼﾝｾﾝ1
 70
     0
 62
     1
  6
GEN7A
  0
ENDTAB
  0
TABLE
  2
STYLE
 70
     9
  0
STYLE
  2
STANDARD
 70
     0
 40
0.0
 41
0.8299999999999999
 50
0.0
 71
     0
 42
2.5
  3
txt.shx
  4
bigfont.shx
  0
STYLE
  2
ANNOTATIVE
 70
     0
 40
0.0
 41
1.0
 50
0.0
 71
     0
 42
0.2
  3
txt
  4

  0
STYLE
  2

 70
     1
 40
0.0
 41
1.0
 50
0.0
 71
     0
 42
2.5
  3
ltypeshp.shx
  4

  0
STYLE
  2
ACISOTS
 70
     0
 40
1.0
 41
1.0
 50
0.0
 71
     0
 42
2.5
  3
isocp.shx
  4
extfont.shx
  0
STYLE
  2
ACISOGDT
 70
     0
 40
0.0
 41
1.0
 50
0.0
 71
     0
 42
2.5
  3
amgdt.shx
  4

  0
STYLE
  2
ACANSTS
 70
     0
 40
1.0
 41
1.0
 50
0.0
 71
     0
 42
2.5
  3
romans.shx
  4
bigfont.shx
  0
STYLE
  2
ACANSGDT
 70
     0
 40
0.0
 41
1.0
 50
0.0
 71
     0
 42
2.5
  3
amgdt.shx
  4

  0
STYLE
  2
ACJISTS
 70
     0
 40
1.0
 41
1.0
 50
0.0
 71
     0
 42
2.5
  3
isocp.shx
  4
bigfont.shx
  0
STYLE
  2
ACJISGDT
 70
     0
 40
0.0
 41
1.0
 50
0.0
 71
     0
 42
2.5
  3
amgdt.shx
  4

  0
ENDTAB
  0
TABLE
  2
VIEW
 70
     6
  0
VIEW
  2
AM_VIEW1
 70
     0
 40
462.5
 10
416.07965009208078
 20
693.75
 41
832.15930018416213
 11
0.0
 21
0.0
 31
1.0
 12
0.0
 22
0.0
 32
0.0
 42
50.0
 43
0.0
 44
0.0
 50
0.0
 71
     0
  0
VIEW
  2
AM_VIEW2
 70
     0
 40
462.5
 10
1006.420349907918
 20
693.75
 41
832.15930018416213
 11
0.0
 21
0.0
 31
1.0
 12
0.0
 22
0.0
 32
0.0
 42
50.0
 43
0.0
 44
0.0
 50
0.0
 71
     0
  0
VIEW
  2
AM_VIEW3
 70
     0
 40
462.5
 10
416.07965009208078
 20
231.25
 41
832.15930018416213
 11
0.0
 21
0.0
 31
1.0
 12
0.0
 22
0.0
 32
0.0
 42
50.0
 43
0.0
 44
0.0
 50
0.0
 71
     0
  0
VIEW
  2
AM_VIEW4
 70
     0
 40
462.5
 10
1006.420349907918
 20
231.25
 41
832.15930018416213
 11
0.0
 21
0.0
 31
1.0
 12
0.0
 22
0.0
 32
0.0
 42
50.0
 43
0.0
 44
0.0
 50
0.0
 71
     0
  0
VIEW
  2
AM_VIEW5
 70
     0
 40
462.5
 10
711.24999999999966
 20
462.5
 41
832.15930018416179
 11
0.0
 21
0.0
 31
1.0
 12
0.0
 22
0.0
 32
0.0
 42
50.0
 43
0.0
 44
0.0
 50
0.0
 71
     0
  0
VIEW
  2
AM_VIEW6
 70
     0
 40
924.99075000000005
 10
711.24999999999966
 20
462.5
 41
1664.3019571823199
 11
0.0
 21
0.0
 31
1.0
 12
0.0
 22
0.0
 32
0.0
 42
50.0
 43
0.0
 44
0.0
 50
0.0
 71
     0
  0
ENDTAB
  0
TABLE
  2
UCS
 70
     0
  0
ENDTAB
  0
TABLE
  2
APPID
 70
    95
  0
APPID
  2
ACAD
 70
     0
  0
APPID
  2
ACADANNOTATIVE
 70
     0
  0
APPID
  2
MCAD_NO_VIS
 70
     0
  0
APPID
  2
ACAD_TEMP_GRAPHIC
 70
     0
  0
APPID
  2
ACATTRIBSERVICES
 70
     0
  0
APPID
  2
GENIUS_GENREC_14
 70
     0
  0
APPID
  2
GENIUS_GENOBJ-N-REC_13
 70
     0
  0
APPID
  2
GENIUS_GENODEF_13
 70
     0
  0
APPID
  2
GENIUS_GENOLIS_13
 70
     0
  0
APPID
  2
GENIUS_GENOBJ-N-TIT_13
 70
     0
  0
APPID
  2
GENIUS_GENOENT_13
 70
     0
  0
APPID
  2
GENIUS_GENTITLE_13
 70
     0
  0
APPID
  2
GENIUS_GENOREF_13
 70
     0
  0
APPID
  2
GENIUS_GENSCREG_15
 70
     0
  0
APPID
  2
GENIUS_GENOBJ-N-SDF_13
 70
     0
  0
APPID
  2
GENIUS_GENFIL_13
 70
     0
  0
APPID
  2
GENIUS_GENOBJ-N-CHA_13
 70
     0
  0
APPID
  2
GENIUS_GENDTOL_13
 70
     0
  0
APPID
  2
GENIUS_GENOBJ-N-FIL_13
 70
     0
  0
APPID
  2
AD_DRAW
 70
     0
  0
APPID
  2
DESIGNERASSEMBLIES
 70
     0
  0
APPID
  2
ASURF_PCURVE_APPNAME
 70
     0
  0
APPID
  2
GENIUS_GE3SECT_13
 70
     0
  0
APPID
  2
GENIUS_GENCFG_13
 70
     0
  0
APPID
  2
GENIUS_GE3CFG0_13
 70
     0
  0
APPID
  2
GENIUS_GENCFG0_13
 70
     0
  0
APPID
  2
GENIUS_GENCFG1_13
 70
     0
  0
APPID
  2
GENIUS_GENCFG2_13
 70
     0
  0
APPID
  2
GENIUS_GENCFG3_13
 70
     0
  0
APPID
  2
GENIUS_GENCFG4_13
 70
     0
  0
APPID
  2
GENIUS_GEVCFG0_13
 70
     0
  0
APPID
  2
GENIUS_GENHINW_13
 70
     0
  0
APPID
  2
GENIUS_FIRSTVISTXT_14
 70
     0
  0
APPID
  2
GENIUS_GENOBJ-N-LEADER_13
 70
     0
  0
APPID
  2
GEV_VCCNULL_SWITCH_OFF
 70
     0
  0
APPID
  2
GENIUS_GEFCFG0_13
 70
     0
  0
APPID
  2
GENIUS_GENZVEED_13
 70
     0
  0
APPID
  2
GENIUS_GENSCREG_13
 70
     0
  0
APPID
  2
GENIUS_DUMCFG0_13
 70
     0
  0
APPID
  2
GEVID936201362
 70
     0
  0
APPID
  2
GEVDC
 70
     0
  0
APPID
  2
GEVCON
 70
     0
  0
APPID
  2
VCC
 70
     0
  0
APPID
  2
GEVPT
 70
     0
  0
APPID
  2
GEVIT
 70
     0
  0
APPID
  2
GENBH
 70
     0
  0
APPID
  2
GEVMK
 70
     0
  0
APPID
  2
GENIUS_GENBH_13
 70
     0
  0
APPID
  2
GENIUS_GENOBJ-NBEHI-BHF_13
 70
     0
  0
APPID
  2
GENIUS_GENOBJ-NBEHI-BHB_13
 70
     0
  0
APPID
  2
GENIUS_GENOBJ-F-DESC_13
 70
     0
  0
APPID
  2
GENIUS_GEFDESC_14
 70
     0
  0
APPID
  2
GENIUS_GENOBJ-F-PART_13
 70
     0
  0
APPID
  2
GENIUS_GEFSTDP_13
 70
     0
  0
APPID
  2
GENIUS_GEFPARTINS_13
 70
     0
  0
APPID
  2
GENIUS_GENTRA_14
 70
     0
  0
APPID
  2
GENIUS_GENINF13_13
 70
     0
  0
APPID
  2
GENIUS_GENOBJ-N-INFOPT_13
 70
     0
  0
APPID
  2
GENIUS_GENOBJ-N-RSSYM_13
 70
     0
  0
APPID
  2
GENIUS_GENSYMENT_13
 70
     0
  0
APPID
  2
GENIUS_GENSCSYM_13
 70
     0
  0
APPID
  2
GENIUS_GEFINFNAM_13
 70
     0
  0
APPID
  2
GENIUS_GENOBJ-N-CEN_13
 70
     0
  0
APPID
  2
GENIUS_GENOBJ-N-CRS_13
 70
     0
  0
APPID
  2
GENIUS_GENOBJ-N-CRC_13
 70
     0
  0
APPID
  2
GENIUS_GENCRC_14
 70
     0
  0
APPID
  2
GEVID942827039
 70
     0
  0
APPID
  2
GEVID942827040
 70
     0
  0
APPID
  2
GEVID942827041
 70
     0
  0
APPID
  2
GENIUS_GENOBJ-F-SCPASSM_13
 70
     0
  0
APPID
  2
GENIUS_GENDIMSH_14
 70
     0
  0
APPID
  2
GEVID942827042
 70
     0
  0
APPID
  2
GEVID946020473
 70
     0
  0
APPID
  2
GEVID946020474
 70
     0
  0
APPID
  2
GEVID946020475
 70
     0
  0
APPID
  2
GENIUS_GENOBJ-N-HTC_13
 70
     0
  0
APPID
  2
GENIUS_GENHATCH_13
 70
     0
  0
APPID
  2
GEVID948854295
 70
     0
  0
APPID
  2
GEVID939402019
 70
     0
  0
APPID
  2
GEVID952919491
 70
     0
  0
APPID
  2
GEVID952919492
 70
     0
  0
APPID
  2
GENIUS_GEFWELD_13
 70
     0
  0
APPID
  2
GENIUS_GENOBJ-F-WELS_13
 70
     0
  0
APPID
  2
GEVID952919493
 70
     0
  0
APPID
  2
GENIUS_GENOBJ-N-RSBK_13
 70
     0
  0
APPID
  2
GENIUS_GENOBJ-N-LIB_13
 70
     0
  0
APPID
  2
GENIUS_GENSCALE_13
 70
     0
  0
APPID
  2
GEVID986376691
 70
     0
  0
APPID
  2
DCO15
 70
     0
  0
APPID
  2
ACAD_DSTYLE_DIMBREAK
 70
     0
  0
APPID
  2
ACAD_DSTYLE_DIMJAG
 70
     0
  0
APPID
  2
ACAD_NAV_VCDISPLAY
 70
     0
  0
APPID
  2
ACADANNOPO
 70
     0
  0
APPID
  2
ACAD_EXEMPT_FROM_CAD_STANDARDS
 70
     0
  0
APPID
  2
ACAD_MLEADERVER
 70
     0
  0
ENDTAB
  0
TABLE
  2
DIMSTYLE
 70
    22
  0
DIMSTYLE
  2
STANDARD
 70
     0
  3

  4

  5

  6

  7

 40
1.0
 41
0.18
 42
0.0625
 43
0.38
 44
0.18
 45
0.0
 46
0.0
 47
0.0
 48
0.0
140
0.18
141
0.09
142
0.0
143
25.399999999999999
144
1.0
145
0.0
146
1.0
147
0.09
 71
     0
 72
     0
 73
     1
 74
     1
 75
     0
 76
     0
 77
     0
 78
     0
170
     0
171
     2
172
     0
173
     0
174
     0
175
     0
176
     0
177
     0
178
     0
  0
DIMSTYLE
  2
ANNOTATIVE
 70
     0
  3

  4

  5

  6

  7

 40
1.0
 41
0.18
 42
0.0625
 43
0.38
 44
0.18
 45
0.0
 46
0.0
 47
0.0
 48
0.0
140
0.18
141
0.09
142
0.0
143
25.399999999999999
144
1.0
145
0.0
146
1.0
147
0.09
 71
     0
 72
     0
 73
     1
 74
     1
 75
     0
 76
     0
 77
     0
 78
     0
170
     0
171
     2
172
     0
173
     0
174
     0
175
     0
176
     0
177
     0
178
     0
  0
DIMSTYLE
  2
AM_ISO
 70
     0
  3

  4
"
  5

  6

  7

 40
1.0
 41
2.5
 42
1.0
 43
8.0
 44
0.6
 45
0.0
 46
0.0
 47
0.1
 48
0.1
140
2.5
141
0.0
142
0.0
143
0.0393701
144
1.0
145
0.0
146
0.71
147
0.8
 71
     0
 72
     0
 73
     0
 74
     0
 75
     0
 76
     0
 77
     1
 78
     8
170
     0
171
     2
172
     1
173
     0
174
     0
175
     0
176
   256
177
   256
178
     4
  0
DIMSTYLE
  2
AM_ISO$3
 70
     0
  3

  4
"
  5

  6

  7

 40
1.0
 41
2.5
 42
1.0
 43
8.0
 44
0.6
 45
0.0
 46
0.0
 47
0.1
 48
0.1
140
2.5
141
0.0
142
0.0
143
0.0393701
144
1.0
145
0.0
146
0.71
147
0.8
 71
     0
 72
     0
 73
     0
 74
     1
 75
     0
 76
     0
 77
     1
 78
     8
170
     0
171
     2
172
     0
173
     0
174
     0
175
     0
176
   256
177
   256
178
     4
  0
DIMSTYLE
  2
AM_ISO$4
 70
     0
  3

  4
"
  5

  6

  7

 40
1.0
 41
2.5
 42
1.0
 43
8.0
 44
0.6
 45
0.0
 46
0.0
 47
0.1
 48
0.1
140
2.5
141
0.0
142
0.0
143
0.0393701
144
1.0
145
0.0
146
0.71
147
0.8
 71
     0
 72
     0
 73
     0
 74
     1
 75
     0
 76
     0
 77
     1
 78
     8
170
     0
171
     2
172
     0
173
     0
174
     0
175
     0
176
   256
177
   256
178
     4
  0
DIMSTYLE
  2
AM_ISO$6
 70
     0
  3

  4
"
  5

  6

  7

 40
1.0
 41
2.5
 42
1.0
 43
8.0
 44
0.6
 45
0.0
 46
0.0
 47
0.1
 48
0.1
140
2.5
141
0.0
142
0.0
143
0.0393701
144
1.0
145
0.0
146
0.71
147
0.8
 71
     0
 72
     0
 73
     0
 74
     0
 75
     0
 76
     0
 77
     0
 78
     8
170
     0
171
     2
172
     1
173
     0
174
     0
175
     0
176
   256
177
   256
178
     4
  0
DIMSTYLE
  2
AM_ISO$7
 70
     0
  3

  4
"
  5

  6

  7

 40
1.0
 41
2.5
 42
1.0
 43
8.0
 44
0.6
 45
0.0
 46
0.0
 47
0.1
 48
0.1
140
2.5
141
0.0
142
0.0
143
0.0393701
144
1.0
145
0.0
146
0.71
147
0.8
 71
     0
 72
     0
 73
     0
 74
     0
 75
     0
 76
     0
 77
     1
 78
     8
170
     0
171
     2
172
     1
173
     0
174
     0
175
     0
176
   256
177
   256
178
     4
  0
DIMSTYLE
  2
AM_ISO$SF
 70
     0
  3

  4
"
  5

  6

  7

 40
1.0
 41
2.5
 42
1.0
 43
10.0
 44
1.0
 45
0.0
 46
0.0
 47
0.1
 48
0.1
140
3.5
141
0.0
142
0.0
143
0.0393701
144
1.0
145
0.0
146
0.71
147
1.5
 71
     0
 72
     0
 73
     0
 74
     0
 75
     1
 76
     1
 77
     1
 78
     8
170
     0
171
     2
172
     1
173
     0
174
     0
175
     0
176
   256
177
   256
178
     2
  0
DIMSTYLE
  2
AM_ISO$SH
 70
     0
  3

  4
"
  5

  6

  7

 40
1.0
 41
2.5
 42
1.0
 43
10.0
 44
1.0
 45
0.0
 46
0.0
 47
0.1
 48
0.1
140
3.5
141
0.0
142
0.0
143
0.0393701
144
2.0
145
0.0
146
0.71
147
1.5
 71
     0
 72
     0
 73
     0
 74
     0
 75
     1
 76
     1
 77
     1
 78
     8
170
     0
171
     2
172
     1
173
     1
174
     0
175
     0
176
   256
177
   256
178
     2
  0
DIMSTYLE
  2
AM_JIS
 70
     0
  3

  4
"
  5

  6

  7

 40
1.0
 41
2.5
 42
1.0
 43
7.0
 44
1.0
 45
0.0
 46
0.0
 47
0.1
 48
0.1000000001
140
2.5
141
0.0
142
0.0
143
0.0393701
144
1.0
145
0.0
146
0.71
147
1.0
 71
     0
 72
     0
 73
     0
 74
     0
 75
     0
 76
     0
 77
     3
 78
     8
170
     0
171
     2
172
     1
173
     0
174
     0
175
     0
176
   256
177
   256
178
     4
  0
DIMSTYLE
  2
AM_JIS$3
 70
     0
  3

  4
"
  5

  6

  7

 40
1.0
 41
2.5
 42
1.0
 43
7.0
 44
1.0
 45
0.0
 46
0.0
 47
0.1
 48
0.1000000001
140
2.5
141
0.0
142
0.0
143
0.0393701
144
1.0
145
0.0
146
0.71
147
1.0
 71
     0
 72
     0
 73
     0
 74
     1
 75
     0
 76
     0
 77
     3
 78
     8
170
     0
171
     2
172
     0
173
     0
174
     0
175
     0
176
   256
177
   256
178
     4
  0
DIMSTYLE
  2
AM_JIS$4
 70
     0
  3

  4
"
  5

  6

  7

 40
1.0
 41
2.5
 42
1.0
 43
7.0
 44
1.0
 45
0.0
 46
0.0
 47
0.1
 48
0.1000000001
140
2.5
141
0.0
142
0.0
143
0.0393701
144
1.0
145
0.0
146
0.71
147
1.0
 71
     0
 72
     0
 73
     0
 74
     0
 75
     0
 76
     0
 77
     3
 78
     8
170
     0
171
     2
172
     0
173
     0
174
     0
175
     0
176
   256
177
   256
178
     4
  0
DIMSTYLE
  2
AM_JIS$6
 70
     0
  3

  4
"
  5

  6

  7

 40
1.0
 41
2.5
 42
1.0
 43
7.0
 44
1.0
 45
0.0
 46
0.0
 47
0.1
 48
0.1000000001
140
2.5
141
0.0
142
0.0
143
0.0393701
144
1.0
145
0.0
146
0.71
147
1.0
 71
     0
 72
     0
 73
     0
 74
     0
 75
     0
 76
     0
 77
     0
 78
     8
170
     0
171
     2
172
     1
173
     0
174
     0
175
     0
176
   256
177
   256
178
     4
  0
DIMSTYLE
  2
AM_JIS$7
 70
     0
  3

  4
"
  5

  6

  7

 40
1.0
 41
2.5
 42
1.0
 43
7.0
 44
1.0
 45
0.0
 46
0.0
 47
0.1
 48
0.1000000001
140
2.5
141
0.0
142
0.0
143
0.0393701
144
1.0
145
0.0
146
0.71
147
1.0
 71
     0
 72
     0
 73
     0
 74
     0
 75
     0
 76
     0
 77
     3
 78
     8
170
     0
171
     2
172
     1
173
     0
174
     0
175
     0
176
   256
177
   256
178
     4
  0
DIMSTYLE
  2
AM_JIS$SF
 70
     0
  3

  4
"
  5

  6

  7

 40
1.0
 41
2.5
 42
1.0
 43
10.0
 44
1.0
 45
0.0
 46
0.0
 47
0.1
 48
0.1
140
3.5
141
0.0
142
0.0
143
0.0393701
144
1.0
145
0.0
146
0.71
147
1.5
 71
     0
 72
     0
 73
     0
 74
     0
 75
     1
 76
     1
 77
     3
 78
     8
170
     0
171
     2
172
     1
173
     0
174
     0
175
     0
176
   256
177
   256
178
     4
  0
DIMSTYLE
  2
AM_JIS$SH
 70
     0
  3

  4
"
  5

  6

  7

 40
1.0
 41
2.5
 42
1.0
 43
10.0
 44
1.0
 45
0.0
 46
0.0
 47
0.1
 48
0.1
140
3.5
141
0.0
142
0.0
143
0.0393701
144
1.0
145
0.0
146
0.71
147
1.5
 71
     0
 72
     0
 73
     0
 74
     0
 75
     1
 76
     0
 77
     3
 78
     8
170
     0
171
     2
172
     1
173
     1
174
     0
175
     0
176
   256
177
   256
178
     4
  0
DIMSTYLE
  2
AM_ANSI
 70
     0
  3

  4
mm
  5

  6

  7

 40
1.0
 41
0.1
 42
0.05
 43
0.5
 44
0.1
 45
0.0
 46
0.0
 47
0.1
 48
0.1
140
0.12
141
0.0
142
0.0
143
25.399999999999999
144
1.0
145
0.0
146
0.71
147
0.06
 71
     0
 72
     0
 73
     1
 74
     1
 75
     0
 76
     0
 77
     0
 78
     7
170
     0
171
     2
172
     0
173
     0
174
     0
175
     0
176
   256
177
   256
178
     2
  0
DIMSTYLE
  2
AM_ANSI$3
 70
     0
  3

  4
mm
  5

  6

  7

 40
1.0
 41
0.1
 42
0.05
 43
0.5
 44
0.1
 45
0.0
 46
0.0
 47
0.1
 48
0.1
140
0.12
141
0.0
142
0.0
143
25.399999999999999
144
1.0
145
0.0
146
0.71
147
0.06
 71
     0
 72
     0
 73
     1
 74
     1
 75
     0
 76
     0
 77
     0
 78
     7
170
     0
171
     2
172
     0
173
     0
174
     0
175
     0
176
   256
177
   256
178
     2
  0
DIMSTYLE
  2
AM_ANSI$4
 70
     0
  3

  4
mm
  5

  6

  7

 40
1.0
 41
0.1
 42
0.05
 43
0.5
 44
0.1
 45
0.0
 46
0.0
 47
0.1
 48
0.1
140
0.12
141
0.0
142
0.0
143
25.399999999999999
144
1.0
145
0.0
146
0.71
147
0.06
 71
     0
 72
     0
 73
     1
 74
     1
 75
     0
 76
     0
 77
     0
 78
     7
170
     0
171
     2
172
     0
173
     0
174
     0
175
     0
176
   256
177
   256
178
     2
  0
DIMSTYLE
  2
AM_ANSI$7
 70
     0
  3

  4
mm
  5

  6

  7

 40
1.0
 41
0.1
 42
0.05
 43
0.5
 44
0.1
 45
0.0
 46
0.0
 47
0.1
 48
0.1
140
0.24
141
0.0
142
0.0
143
25.399999999999999
144
1.0
145
0.0
146
0.71
147
0.06
 71
     0
 72
     0
 73
     1
 74
     1
 75
     0
 76
     0
 77
     0
 78
     7
170
     0
171
     2
172
     0
173
     0
174
     0
175
     0
176
   256
177
   256
178
     2
  0
DIMSTYLE
  2
AM_ANSI$SF
 70
     0
  3

  4
mm
  5

  6

  7

 40
1.0
 41
0.1
 42
0.05
 43
0.5
 44
0.1
 45
0.0
 46
0.0
 47
0.1
 48
0.1
140
0.12
141
0.0
142
0.0
143
25.399999999999999
144
1.0
145
0.0
146
0.71
147
0.06
 71
     0
 72
     0
 73
     1
 74
     1
 75
     1
 76
     1
 77
     0
 78
     7
170
     0
171
     2
172
     0
173
     0
174
     0
175
     0
176
   256
177
   256
178
     2
  0
DIMSTYLE
  2
AM_ANSI$SH
 70
     0
  3

  4
mm
  5

  6

  7

 40
1.0
 41
0.1
 42
0.05
 43
0.5
 44
0.1
 45
0.0
 46
0.0
 47
0.1
 48
0.1
140
0.12
141
0.0
142
0.0
143
25.399999999999999
144
1.0
145
0.0
146
0.71
147
0.06
 71
     0
 72
     0
 73
     1
 74
     1
 75
     1
 76
     1
 77
     0
 78
     7
170
     0
171
     2
172
     0
173
     1
174
     0
175
     0
176
   256
177
   256
178
     2
  0
ENDTAB
  0
ENDSEC
  0
SECTION
  2
BLOCKS
  0
BLOCK
  8
0
  2
$MODEL_SPACE
 70
     0
 10
0.0
 20
0.0
 30
0.0
  3
$MODEL_SPACE
  1

  0
ENDBLK
  5
2F09
  8
0
  0
BLOCK
 67
     1
  8
0
  2
$PAPER_SPACE
 70
     0
 10
0.0
 20
0.0
 30
0.0
  3
$PAPER_SPACE
  1

  0
ENDBLK
  5
2F05
 67
     1
  8
0
  0
BLOCK
  8
0
  2
GENAXEH
 70
     0
 10
0.0
 20
0.0
 30
0.0
  3
GENAXEH
  1

  0
LINE
  5
2CB8
  8
0
 10
-1.0
 20
0.0
 30
0.0
 11
1.0
 21
0.0
 31
0.0
  0
ENDBLK
  5
2CB9
  8
0
  0
BLOCK
  8
0
  2
_OPEN30
 70
     0
 10
0.0
 20
0.0
 30
0.0
  3
_OPEN30
  1

  0
LINE
  5
2CBC
  8
0
 62
     0
 10
-1.0
 20
0.26794919
 30
0.0
 11
0.0
 21
0.0
 31
0.0
  0
LINE
  5
2CBD
  8
0
 62
     0
 10
0.0
 20
0.0
 30
0.0
 11
-1.0
 21
-0.26794919
 31
0.0
  0
LINE
  5
2CBE
  8
0
 62
     0
 10
0.0
 20
0.0
 30
0.0
 11
-1.0
 21
0.0
 31
0.0
  0
ENDBLK
  5
2CBF
  8
0
  0
BLOCK
  8
0
  2
_NONE
 70
     0
 10
0.0
 20
0.0
 30
0.0
  3
_NONE
  1

  0
ENDBLK
  5
2CC2
  8
0
  0
BLOCK
  8
0
  2
_ACMFILLEDHALF
 70
     0
 10
0.0
 20
0.0
 30
0.0
  3
_ACMFILLEDHALF
  1

  0
TRACE
  5
3001
  8
AM_0
 62
     0
 10
-0.8
 20
0.0
 30
0.0
 11
-1.0
 21
0.166666666
 31
0.0
 12
0.0
 22
0.0
 32
0.0
 13
0.0
 23
0.0
 33
0.0
  0
LINE
  5
3002
  8
AM_0
 62
     0
 10
-1.0
 20
0.0
 30
0.0
 11
-0.8
 21
0.0
 31
0.0
  0
ENDBLK
  5
3000
  8
0
  0
ENDSEC
  0
SECTION
  2
ENTITIES
  0
LINE
  5
2CC4
  8
AM_0
 10
654.49574256643245
 20
960.74003898705371
 30
0.0
 11
735.49574256643234
 21
960.74003898705371
 31
0.0
  0
LINE
  5
2CC5
  8
AM_0
 10
654.49574256643245
 20
942.74003898705382
 30
0.0
 11
735.49574256643234
 21
942.74003898705382
 31
0.0
  0
LINE
  5
2CC6
  8
AM_0
 10
630.49574256643245
 20
921.74003898705416
 30
0.0
 11
735.49574256643234
 21
921.74003898705416
 31
0.0
  0
LINE
  5
2CC7
  8
AM_0
 10
630.49574256643245
 20
981.73999898705415
 30
0.0
 11
735.49574256643234
 21
981.73999898705415
 31
0.0
  0
LINE
  5
2CC8
  8
ﾁｭｳｼﾝｾﾝ
 10
250.2575216151682
 20
951.74003898705405
 30
0.0
 11
751.31868256643224
 21
951.74003898705371
 31
0.0
  0
LINE
  5
2CC9
  8
AM_0
 10
511.99574256643223
 20
1109.639498987053
 30
0.0
 11
511.99574256643223
 21
793.84061898705363
 31
0.0
  0
LINE
  5
2CCA
  8
AM_0
 10
392.49574256643228
 20
826.80058898705363
 30
0.0
 11
392.49574256643228
 21
1076.679398987053
 31
0.0
  0
LINE
  5
2CCB
  8
AM_0
 10
411.99574256643223
 20
800.06596898705379
 30
0.0
 11
411.99574256643223
 21
946.74003898705416
 31
0.0
  0
LINE
  5
2CCC
  8
AM_0
 10
588.49574256643245
 20
831.39689898705365
 30
0.0
 11
588.49574256643245
 21
1072.083198987053
 31
0.0
  0
LINE
  5
2CCD
  8
AM_0
 10
481.99574256643223
 20
1110.6870989870531
 30
0.0
 11
481.99574256643223
 21
792.79301898705364
 31
0.0
  0
LINE
  5
2CCE
  8
AM_0
 10
624.49574256643245
 20
1013.842898987053
 30
0.0
 11
624.49574256643245
 21
889.63712898705364
 31
0.0
  0
LINE
  5
2CCF
  8
AM_0
 10
618.49574256643245
 20
1052.2048989870541
 30
0.0
 11
618.49574256643245
 21
851.27512898705356
 31
0.0
  0
LINE
  5
2CD0
  8
AM_0
 10
368.4957825664323
 20
1049.2399989870539
 30
0.0
 11
368.4957825664323
 21
854.24003898705359
 31
0.0
  0
LINE
  5
2CD1
  8
AM_0
 10
630.49574256643245
 20
984.23999898705415
 30
0.0
 11
630.49574256643245
 21
919.24003898705359
 31
0.0
  0
LINE
  5
2CD2
  8
AM_0
 10
550.77492256643245
 20
795.19480898705365
 30
0.0
 11
481.99568256643232
 21
792.79301898705364
 31
0.0
  0
LINE
  5
2CD3
  8
AM_0
 10
486.99568256643232
 20
771.74003898705371
 30
0.0
 11
619.67018256643235
 21
776.37315898705367
 31
0.0
  0
CIRCLE
  5
2CD4
  8
AM_0
 10
394.49574256643228
 20
806.74003898705359
 30
0.0
 40
12.0
  0
LINE
  5
2CD5
  8
AM_0
 10
397.15315256643242
 20
821.81235898705359
 30
0.0
 11
407.33833256643231
 21
821.11289898705365
 31
0.0
  0
LINE
  5
2CD6
  8
AM_0
 10
369.32128256643222
 20
775.84934898705365
 30
0.0
 11
486.99574256643223
 21
771.74003898705371
 31
0.0
  0
LINE
  5
2CD7
  8
ﾁｭｳｼﾝｾﾝ1
 10
375.73848256643242
 20
806.74003898705359
 30
0.0
 11
414.10792256643242
 21
806.74003898705359
 31
0.0
  0
LINE
  5
2CD8
  8
AM_0
 10
364.49578256643241
 20
780.84623898705365
 30
0.0
 11
364.49578256643241
 21
836.44096898705368
 31
0.0
  0
LINE
  5
2CD9
  8
ﾁｭｳｼﾝｾﾝ1
 10
394.49574256643228
 20
786.4076389870537
 30
0.0
 11
394.49574256643228
 21
826.87144898705355
 31
0.0
  0
ARC
  5
2CDA
  8
AM_0
 10
369.49578256643241
 20
780.84623898705365
 30
0.0
 40
5.0
 50
180.00001000000091
 51
268.00000000000261
  0
ARC
  5
2CDB
  8
AM_0
 10
397.49574256643228
 20
826.80058898705363
 30
0.0
 40
5.0
 50
180.00001000000091
 51
266.0712399999984
  0
LINE
  5
2CDC
  8
AM_0
 10
370.4957825664323
 20
894.96427898705372
 30
0.0
 11
370.4957825664323
 21
868.44254898705356
 31
0.0
  0
LINE
  5
2CDD
  8
AM_0
 10
369.05998256643232
 20
841.42197898705365
 30
0.0
 11
392.49574256643228
 21
843.47233898705372
 31
0.0
  0
LINE
  5
2CDE
  8
AM_0
 10
368.4957825664323
 20
854.23997898705363
 30
0.0
 11
382.84474256643222
 21
853.73887898705379
 31
0.0
  0
LINE
  5
2CDF
  8
AM_0
 10
370.4957825664323
 20
868.44254898705356
 30
0.0
 11
392.49574256643228
 21
868.44254898705356
 31
0.0
  0
ARC
  5
2CE0
  8
AM_0
 10
369.49578256643241
 20
836.44096898705368
 30
0.0
 40
5.0
 50
95.00000199999856
 51
180.00001000000091
  0
ARC
  5
2CE1
  8
AM_0
 10
382.49574256643228
 20
843.7450389870537
 30
0.0
 40
10.0
 50
0.0
 51
88.000000000002785
  0
LINE
  5
2CE2
  8
AM_0
 10
370.4957825664323
 20
894.96427898705372
 30
0.0
 11
392.49574256643228
 21
894.96427898705372
 31
0.0
  0
LINE
  5
2CE3
  8
AM_0
 10
370.4957825664323
 20
878.73380898705352
 30
0.0
 11
392.49574256643228
 21
878.73380898705352
 31
0.0
  0
LINE
  5
2CE4
  8
AM_0
 10
481.99574256643223
 20
792.79301898705364
 30
0.0
 11
416.8211825664323
 21
795.06895898705363
 31
0.0
  0
LINE
  5
2CE5
  8
AM_0
 10
435.2810825664323
 20
773.67045898705373
 30
0.0
 11
478.22291256643223
 21
778.98051898705364
 31
0.0
  0
LINE
  5
2CE6
  8
AM_0
 10
482.80897256643232
 20
789.37516898705371
 30
0.0
 11
440.30897256643209
 21
782.36997898705363
 31
0.0
  0
ARC
  5
2CE7
  8
AM_0
 10
439.49574256643228
 20
787.30338898705372
 30
0.0
 40
5.0
 50
180.00001000000091
 51
279.35984999999653
  0
LINE
  5
2CE8
  8
AM_0
 10
416.99574256643223
 20
815.82944898705364
 30
0.0
 11
439.99574256643228
 21
815.82944898705364
 31
0.0
  0
LINE
  5
2CE9
  8
AM_0
 10
416.99574256643223
 20
810.31364898705363
 30
0.0
 11
439.99574256643228
 21
810.31364898705363
 31
0.0
  0
ARC
  5
2CEA
  8
AM_0
 10
416.99574256643223
 20
805.31364898705351
 30
0.0
 40
5.0
 50
90.00000299999769
 51
180.00001000000091
  0
ARC
  5
2CEB
  8
AM_0
 10
416.99574256643223
 20
800.06596898705379
 30
0.0
 40
5.0
 50
180.00001000000091
 51
268.00000000000261
  0
ARC
  5
2CEC
  8
AM_0
 10
406.99574256643223
 20
816.12461898705374
 30
0.0
 40
5.0
 50
0.0
 51
86.071236999998789
  0
ARC
  5
2CED
  8
AM_0
 10
416.99574256643223
 20
820.82944898705352
 30
0.0
 40
5.0
 50
180.00001000000091
 51
270.0
  0
ARC
  5
2CEE
  8
AM_0
 10
439.99574256643228
 20
812.31364898705351
 30
0.0
 40
2.0
 50
270.0
 51
0.0
  0
ARC
  5
2CEF
  8
AM_0
 10
439.99574256643228
 20
813.82944898705375
 30
0.0
 40
2.0
 50
0.0
 51
90.00000299999769
  0
LINE
  5
2CF0
  8
AM_0
 10
441.99574256643223
 20
813.82944898705375
 30
0.0
 11
441.99574256643223
 21
812.31364898705351
 31
0.0
  0
ARC
  5
2CF1
  8
AM_0
 10
481.99574256643223
 20
794.30863898705366
 30
0.0
 40
5.0
 50
279.35985999999889
 51
344.36582999999888
  0
LINE
  5
2CF2
  8
AM_0
 10
486.99574256643223
 20
788.90495898705365
 30
0.0
 11
486.99574256643223
 21
792.96763898705365
 31
0.0
  0
ARC
  5
2CF3
  8
AM_0
 10
476.99574256643228
 20
788.90495898705365
 30
0.0
 40
10.0
 50
277.04919999999731
 51
0.0
  0
LINE
  5
2CF4
  8
AM_0
 10
441.99574256643223
 20
859.79581898705374
 30
0.0
 11
441.99574256643223
 21
899.71146898705365
 31
0.0
  0
LINE
  5
2CF5
  8
AM_0
 10
416.99574256643223
 20
856.79581898705374
 30
0.0
 11
438.99574256643251
 21
856.79581898705374
 31
0.0
  0
ARC
  5
2CF6
  8
AM_0
 10
416.99574256643223
 20
851.79581898705374
 30
0.0
 40
5.0
 50
90.00000299999769
 51
180.00001000000091
  0
ARC
  5
2CF7
  8
AM_0
 10
438.99574256643251
 20
859.79581898705374
 30
0.0
 40
3.0
 50
270.0
 51
0.0
  0
LINE
  5
2CF8
  8
AM_0
 10
416.99574256643223
 20
902.71146898705365
 30
0.0
 11
438.99574256643251
 21
902.71146898705365
 31
0.0
  0
ARC
  5
2CF9
  8
AM_0
 10
416.99574256643223
 20
907.71146898705365
 30
0.0
 40
5.0
 50
180.00001000000091
 51
270.0
  0
ARC
  5
2CFA
  8
AM_0
 10
438.99574256643251
 20
899.71146898705365
 30
0.0
 40
3.0
 50
0.0
 51
90.00000299999769
  0
ARC
  5
2CFB
  8
AM_0
 10
598.49574256643245
 20
834.03550898705384
 30
0.0
 40
10.0
 50
91.999998000000545
 51
180.00001000000091
  0
CIRCLE
  5
2CFC
  8
AM_0
 10
594.49574256643245
 20
806.74003898705359
 30
0.0
 40
12.0
  0
LINE
  5
2CFD
  8
ﾁｭｳｼﾝｾﾝ1
 10
575.50776256643235
 20
806.74003898705359
 30
0.0
 11
613.91139256643226
 21
806.74003898705359
 31
0.0
  0
LINE
  5
2CFE
  8
AM_0
 10
558.49574256643245
 20
784.59214898705363
 30
0.0
 11
558.49574256643245
 21
806.20707898705393
 31
0.0
  0
LINE
  5
2CFF
  8
ﾁｭｳｼﾝｾﾝ1
 10
594.49574256643245
 20
787.01096898705373
 30
0.0
 11
594.49574256643245
 21
825.71226898705379
 31
0.0
  0
ARC
  5
2D00
  8
AM_0
 10
568.49574256643245
 20
784.59214898705363
 30
0.0
 40
10.0
 50
180.00001000000091
 51
271.99999000000139
  0
ARC
  5
2D01
  8
AM_0
 10
573.49574256643245
 20
806.20707898705393
 30
0.0
 40
15.0
 50
91.999998000000545
 51
180.00001000000091
  0
ARC
  5
2D02
  8
AM_0
 10
550.49574256643245
 20
803.18998898705365
 30
0.0
 40
8.0
 50
271.9999999999971
 51
0.0
  0
ARC
  5
2D03
  8
AM_0
 10
578.49574256643245
 20
831.39689898705365
 30
0.0
 40
10.0
 50
271.9999999999971
 51
0.0
  0
LINE
  5
2D04
  8
AM_0
 10
578.84468256643231
 20
821.40299898705371
 30
0.0
 11
572.97224256643244
 21
821.19791898705364
 31
0.0
  0
LINE
  5
2D05
  8
AM_0
 10
624.49574256643245
 20
781.3700389870537
 30
0.0
 11
624.49574256643245
 21
842.10996898705366
 31
0.0
  0
ARC
  5
2D06
  8
AM_0
 10
619.49574256643245
 20
781.3700389870537
 30
0.0
 40
5.0
 50
271.9999999999971
 51
0.0
  0
ARC
  5
2D07
  8
AM_0
 10
623.49574256643245
 20
851.27512898705356
 30
0.0
 40
5.0
 50
180.00001000000091
 51
246.42182000000241
  0
LINE
  5
2D08
  8
AM_0
 10
610.77492256643245
 20
844.4704489870536
 30
0.0
 11
598.14674256643195
 21
844.02946898705375
 31
0.0
  0
ARC
  5
2D09
  8
AM_0
 10
610.49574256643245
 20
852.46549898705371
 30
0.0
 40
8.0
 50
271.9999999999971
 51
0.0
  0
ARC
  5
2D0A
  8
AM_0
 10
619.49574256643245
 20
842.10996898705366
 30
0.0
 40
5.0
 50
0.0
 51
66.421821000003519
  0
ARC
  5
2D0B
  8
AM_0
 10
621.49574256643245
 20
883.63346898705379
 30
0.0
 40
3.0
 50
91.999998000000545
 51
180.00001000000091
  0
ARC
  5
2D0C
  8
AM_0
 10
621.49574256643245
 20
889.63712898705364
 30
0.0
 40
3.0
 50
271.9999999999971
 51
0.0
  0
LINE
  5
2D0D
  8
AM_0
 10
621.39100256643246
 20
886.63163898705375
 30
0.0
 11
621.60042256643214
 21
886.63895898705357
 31
0.0
  0
LINE
  5
2D0E
  8
AM_0
 10
624.49574256643245
 20
919.24003898705359
 30
0.0
 11
630.49574256643245
 21
919.24003898705359
 31
0.0
  0
LINE
  5
2D0F
  8
AM_0
 10
550.77492256643245
 20
1108.285198987053
 30
0.0
 11
481.99574256643223
 21
1110.6870989870531
 31
0.0
  0
LINE
  5
2D10
  8
AM_0
 10
486.99568256643232
 20
1131.7399989870539
 30
0.0
 11
619.67018256643235
 21
1127.106998987053
 31
0.0
  0
ARC
  5
2D11
  8
AM_0
 10
416.99574256643223
 20
1098.166298987054
 30
0.0
 40
5.0
 50
180.00001000000091
 51
270.0
  0
CIRCLE
  5
2D12
  8
AM_0
 10
394.49574256643228
 20
1096.7399989870539
 30
0.0
 40
12.0
  0
LINE
  5
2D13
  8
AM_0
 10
411.99574256643223
 20
956.74003898705359
 30
0.0
 11
411.99574256643223
 21
1103.4140989870521
 31
0.0
  0
LINE
  5
2D14
  8
ﾁｭｳｼﾝｾﾝ1
 10
394.49574256643228
 20
1116.0913989870539
 30
0.0
 11
394.49574256643228
 21
1075.8419989870531
 31
0.0
  0
LINE
  5
2D15
  8
AM_0
 10
364.49578256643241
 20
1122.6337989870531
 30
0.0
 11
364.49578256643241
 21
1067.038998987053
 31
0.0
  0
LINE
  5
2D16
  8
AM_0
 10
397.15315256643242
 20
1081.667698987053
 30
0.0
 11
407.33827256643218
 21
1082.367098987052
 31
0.0
  0
LINE
  5
2D17
  8
AM_0
 10
370.4957825664323
 20
1035.037398987052
 30
0.0
 11
370.4957825664323
 21
1008.515798987053
 31
0.0
  0
LINE
  5
2D18
  8
AM_0
 10
370.4957825664323
 20
1008.515798987053
 30
0.0
 11
392.49574256643228
 21
1008.515798987053
 31
0.0
  0
ARC
  5
2D19
  8
AM_0
 10
382.49574256643228
 20
1059.734998987052
 30
0.0
 40
10.0
 50
271.9999999999971
 51
0.0
  0
LINE
  5
2D1A
  8
AM_0
 10
368.49568256643232
 20
1049.2399989870539
 30
0.0
 11
382.84474256643222
 21
1049.741098987053
 31
0.0
  0
LINE
  5
2D1B
  8
AM_0
 10
370.4957825664323
 20
1035.037398987052
 30
0.0
 11
392.49574256643228
 21
1035.037398987052
 31
0.0
  0
LINE
  5
2D1C
  8
AM_0
 10
370.4957825664323
 20
1024.746098987054
 30
0.0
 11
392.49574256643228
 21
1024.746098987054
 31
0.0
  0
LINE
  5
2D1D
  8
AM_0
 10
369.05998256643232
 20
1062.057998987053
 30
0.0
 11
392.49580256643242
 21
1060.007698987052
 31
0.0
  0
ARC
  5
2D1E
  8
AM_0
 10
369.49578256643241
 20
1067.038998987053
 30
0.0
 40
5.0
 50
180.00001000000091
 51
265.00001000000032
  0
ARC
  5
2D1F
  8
AM_0
 10
397.49574256643228
 20
1076.679398987053
 30
0.0
 40
5.0
 50
93.928768000000687
 51
180.00001000000091
  0
LINE
  5
2D20
  8
AM_0
 10
441.99574256643223
 20
1003.768598987054
 30
0.0
 11
441.99574256643223
 21
1043.684098987052
 31
0.0
  0
ARC
  5
2D21
  8
AM_0
 10
446.99574256643251
 20
951.74003898705371
 30
0.0
 40
5.0
 50
270.0
 51
90.00000299999769
  0
ARC
  5
2D22
  8
AM_0
 10
426.99574256643228
 20
951.74003898705371
 30
0.0
 40
12.5
 50
203.5781799999973
 51
336.42183000000068
  0
ARC
  5
2D23
  8
AM_0
 10
426.99574256643228
 20
951.74003898705371
 30
0.0
 40
12.5
 50
23.578179999997531
 51
156.42182000000241
  0
LINE
  5
2D24
  8
AM_0
 10
406.99574256643223
 20
956.74003898705359
 30
0.0
 11
446.99574256643251
 21
956.74003898705359
 31
0.0
  0
LINE
  5
2D25
  8
AM_0
 10
406.99574256643223
 20
946.74003898705416
 30
0.0
 11
446.99574256643251
 21
946.74003898705416
 31
0.0
  0
ARC
  5
2D26
  8
AM_0
 10
406.99574256643223
 20
951.74003898705371
 30
0.0
 40
5.0
 50
90.00000299999769
 51
270.0
  0
LINE
  5
2D27
  8
AM_0
 10
416.99574256643223
 20
1000.768598987054
 30
0.0
 11
438.99574256643251
 21
1000.768598987054
 31
0.0
  0
ARC
  5
2D28
  8
AM_0
 10
416.99574256643223
 20
995.76859898705368
 30
0.0
 40
5.0
 50
90.00000299999769
 51
180.00001000000091
  0
ARC
  5
2D29
  8
AM_0
 10
438.99574256643251
 20
1003.768598987054
 30
0.0
 40
3.0
 50
270.0
 51
0.0
  0
LINE
  5
2D2A
  8
AM_0
 10
416.99574256643223
 20
1046.684098987052
 30
0.0
 11
438.99574256643251
 21
1046.684098987052
 31
0.0
  0
ARC
  5
2D2B
  8
AM_0
 10
416.99574256643223
 20
1051.684098987052
 30
0.0
 40
5.0
 50
180.00001000000091
 51
270.0
  0
ARC
  5
2D2C
  8
AM_0
 10
438.99574256643251
 20
1043.684098987052
 30
0.0
 40
3.0
 50
0.0
 51
90.00000299999769
  0
LINE
  5
2D2D
  8
AM_0
 10
416.99574256643223
 20
1093.166298987054
 30
0.0
 11
439.99574256643228
 21
1093.166298987054
 31
0.0
  0
LINE
  5
2D2E
  8
AM_0
 10
416.99574256643223
 20
1087.650598987052
 30
0.0
 11
439.99574256643228
 21
1087.650598987052
 31
0.0
  0
ARC
  5
2D2F
  8
AM_0
 10
406.99574256643223
 20
1087.355398987052
 30
0.0
 40
5.0
 50
273.92876000000132
 51
0.0
  0
ARC
  5
2D30
  8
AM_0
 10
416.99574256643223
 20
1082.650598987052
 30
0.0
 40
5.0
 50
90.00000299999769
 51
180.00001000000091
  0
ARC
  5
2D31
  8
AM_0
 10
439.99574256643228
 20
1091.166298987054
 30
0.0
 40
2.0
 50
0.0
 51
90.00000299999769
  0
ARC
  5
2D32
  8
AM_0
 10
439.99574256643228
 20
1089.650598987052
 30
0.0
 40
2.0
 50
270.0
 51
0.0
  0
LINE
  5
2D33
  8
AM_0
 10
441.99574256643223
 20
1089.650598987052
 30
0.0
 11
441.99574256643223
 21
1091.166298987054
 31
0.0
  0
LINE
  5
2D34
  8
ﾁｭｳｼﾝｾﾝ1
 10
376.19392256643232
 20
1096.7399989870539
 30
0.0
 11
413.96644256643242
 21
1096.7399989870539
 31
0.0
  0
LINE
  5
2D35
  8
AM_0
 10
369.32118256643241
 20
1127.630698987052
 30
0.0
 11
486.99574256643223
 21
1131.739898987053
 31
0.0
  0
ARC
  5
2D36
  8
AM_0
 10
369.49578256643241
 20
1122.6337989870531
 30
0.0
 40
5.0
 50
91.999998000000545
 51
180.00001000000091
  0
LINE
  5
2D37
  8
AM_0
 10
481.99574256643223
 20
1110.6870989870531
 30
0.0
 11
416.8211825664323
 21
1108.4110989870539
 31
0.0
  0
LINE
  5
2D38
  8
AM_0
 10
482.80885256643222
 20
1114.1047989870531
 30
0.0
 11
440.30885256643228
 21
1121.109998987052
 31
0.0
  0
LINE
  5
2D39
  8
AM_0
 10
435.28114256643232
 20
1129.8095989870531
 30
0.0
 11
478.22291256643223
 21
1124.4995989870531
 31
0.0
  0
ARC
  5
2D3A
  8
AM_0
 10
416.99574256643223
 20
1103.4140989870521
 30
0.0
 40
5.0
 50
91.999998000000545
 51
180.00001000000091
  0
ARC
  5
2D3B
  8
AM_0
 10
439.49574256643228
 20
1116.176698987053
 30
0.0
 40
5.0
 50
80.640142999996911
 51
180.00001000000091
  0
ARC
  5
2D3C
  8
AM_0
 10
476.99574256643228
 20
1114.575098987053
 30
0.0
 40
10.0
 50
0.0
 51
82.950795999998775
  0
ARC
  5
2D3D
  8
AM_0
 10
481.99574256643223
 20
1109.171398987053
 30
0.0
 40
5.0
 50
15.63417199999704
 51
80.640142999996911
  0
LINE
  5
2D3E
  8
AM_0
 10
486.99574256643223
 20
1114.575098987053
 30
0.0
 11
486.99574256643223
 21
1110.5123989870531
 31
0.0
  0
ARC
  5
2D3F
  8
AM_0
 10
573.49574256643245
 20
1097.2729989870541
 30
0.0
 40
15.0
 50
180.00001000000091
 51
268.00000000000261
  0
CIRCLE
  5
2D40
  8
AM_0
 10
594.49574256643245
 20
1096.7399989870539
 30
0.0
 40
12.0
  0
LINE
  5
2D41
  8
AM_0
 10
624.49574256643245
 20
1122.109898987052
 30
0.0
 11
624.49574256643245
 21
1061.369998987052
 31
0.0
  0
LINE
  5
2D42
  8
ﾁｭｳｼﾝｾﾝ1
 10
594.49574256643245
 20
1115.591198987054
 30
0.0
 11
594.49574256643245
 21
1077.9615989870531
 31
0.0
  0
ARC
  5
2D43
  8
AM_0
 10
598.49574256643245
 20
1069.4444989870531
 30
0.0
 40
10.0
 50
180.00001000000091
 51
268.00000000000261
  0
ARC
  5
2D44
  8
AM_0
 10
578.49574256643245
 20
1072.083198987053
 30
0.0
 40
10.0
 50
0.0
 51
88.000000000002785
  0
LINE
  5
2D45
  8
AM_0
 10
578.84468256643231
 20
1082.0770989870521
 30
0.0
 11
572.97224256643244
 21
1082.2821989870531
 31
0.0
  0
ARC
  5
2D46
  8
AM_0
 10
654.49574256643245
 20
951.74003898705371
 30
0.0
 40
8.9999959999999977
 50
90.00000299999769
 51
270.0
  0
LINE
  5
2D47
  8
AM_0
 10
624.49574256643245
 20
984.23999898705415
 30
0.0
 11
630.49574256643245
 21
984.23999898705415
 31
0.0
  0
LINE
  5
2D48
  8
AM_0
 10
654.49574256643245
 20
960.74003898705371
 30
0.0
 11
654.49574256643245
 21
942.74003898705382
 31
0.0
  0
ARC
  5
2D49
  8
AM_0
 10
610.49574256643245
 20
1051.0144989870539
 30
0.0
 40
8.0
 50
0.0
 51
88.000000000002785
  0
ARC
  5
2D4A
  8
AM_0
 10
623.49574256643245
 20
1052.2048989870541
 30
0.0
 40
5.0
 50
113.5781799999975
 51
180.00001000000091
  0
ARC
  5
2D4B
  8
AM_0
 10
621.49574256643245
 20
1019.846598987053
 30
0.0
 40
3.0
 50
180.00001000000091
 51
268.00000000000261
  0
ARC
  5
2D4C
  8
AM_0
 10
621.49574256643245
 20
1013.842898987053
 30
0.0
 40
3.0
 50
0.0
 51
88.000000000002785
  0
LINE
  5
2D4D
  8
AM_0
 10
621.3910725664324
 20
1016.848398987054
 30
0.0
 11
621.60042256643214
 21
1016.841098987053
 31
0.0
  0
LINE
  5
2D4E
  8
AM_0
 10
610.77492256643245
 20
1059.009598987054
 30
0.0
 11
598.14674256643195
 21
1059.450598987052
 31
0.0
  0
ARC
  5
2D4F
  8
AM_0
 10
619.49574256643245
 20
1061.369998987052
 30
0.0
 40
5.0
 50
293.57817999999742
 51
0.0
  0
LINE
  5
2D50
  8
ﾁｭｳｼﾝｾﾝ1
 10
575.4839625664323
 20
1096.7399989870539
 30
0.0
 11
614.78071256643204
 21
1096.7399989870539
 31
0.0
  0
LINE
  5
2D51
  8
AM_0
 10
558.49574256643245
 20
1118.887898987052
 30
0.0
 11
558.49574256643245
 21
1097.2729989870541
 31
0.0
  0
ARC
  5
2D52
  8
AM_0
 10
550.49574256643245
 20
1100.290098987052
 30
0.0
 40
8.0
 50
0.0
 51
88.000000000002785
  0
ARC
  5
2D53
  8
AM_0
 10
568.49574256643245
 20
1118.887898987052
 30
0.0
 40
10.0
 50
88.000000000002785
 51
180.00001000000091
  0
ARC
  5
2D54
  8
AM_0
 10
619.49574256643245
 20
1122.109898987052
 30
0.0
 40
5.0
 50
0.0
 51
88.000000000002785
  0
LINE
  5
2D55
  8
AM_0
 10
735.49574256643234
 20
981.73999898705415
 30
0.0
 11
735.49574256643234
 21
921.74003898705416
 31
0.0
  0
LINE
  5
2D56
  8
AM_0
 10
624.49569256643213
 20
521.42224545100453
 30
0.0
 11
630.49569256643201
 21
521.42224545100453
 31
0.0
  0
LINE
  5
2D57
  8
AM_0
 10
624.49569256643213
 20
456.42222545100452
 30
0.0
 11
630.49569256643201
 21
456.42222545100452
 31
0.0
  0
LINE
  5
2D58
  8
ﾁｭｳｼﾝｾﾝ
 10
738.43474256643231
 20
488.92222545100441
 30
0.0
 11
399.28535731042427
 21
488.92222545100441
 31
0.0
  0
LINE
  5
2D59
  8
AM_0
 10
624.49569256643213
 20
551.02514545100439
 30
0.0
 11
624.49569256643213
 21
426.81929045100429
 31
0.0
  0
LINE
  5
2D5A
  8
AM_0
 10
618.49569256643213
 20
573.59154545100444
 30
0.0
 11
618.49569256643213
 21
295.92222045100442
 31
0.0
  0
LINE
  5
2D5B
  8
AM_0
 10
588.49569256643213
 20
602.54319545100452
 30
0.0
 11
588.49569256643213
 21
344.5742004510044
 31
0.0
  0
LINE
  5
2D5C
  8
AM_0
 10
262.49569256643213
 20
315.92222545100429
 30
0.0
 11
262.49569256643213
 21
565.92222545100435
 31
0.0
  0
LINE
  5
2D5D
  8
AM_0
 10
481.99569256643201
 20
620.92224545100453
 30
0.0
 11
481.99569256643201
 21
341.16032045100451
 31
0.0
  0
LINE
  5
2D5E
  8
AM_0
 10
368.49569256643201
 20
538.42224545100441
 30
0.0
 11
368.49569256643201
 21
343.42222045100448
 31
0.0
  0
LINE
  5
2D5F
  8
AM_0
 10
558.49569256643224
 20
524.84919545100445
 30
0.0
 11
558.49569256643224
 21
310.92222045100431
 31
0.0
  0
LINE
  5
2D60
  8
AM_0
 10
511.99569256643218
 20
619.23679545100447
 30
0.0
 11
511.99569256643218
 21
418.22444045100428
 31
0.0
  0
LINE
  5
2D61
  8
AM_0
 10
392.49574256643223
 20
569.19194545100447
 30
0.0
 11
392.49574256643223
 21
309.66868045100438
 31
0.0
  0
LINE
  5
2D62
  8
AM_0
 10
411.99569256643218
 20
615.92224545100453
 30
0.0
 11
411.99569256643218
 21
295.92222045100442
 31
0.0
  0
LINE
  5
2D63
  8
AM_0
 10
278.49569256643213
 20
318.92222545100441
 30
0.0
 11
278.49569256643213
 21
440.92222545100429
 31
0.0
  0
LINE
  5
2D64
  8
AM_0
 10
369.49569256643201
 20
295.92222045100442
 30
0.0
 11
430.49569256643201
 21
295.92222045100442
 31
0.0
  0
LINE
  5
2D65
  8
AM_0
 10
364.49569256643201
 20
263.92222045100442
 30
0.0
 11
624.49569256643213
 21
263.92222045100442
 31
0.0
  0
LINE
  5
2D66
  8
ｶｸﾚｾﾝ2
 10
406.49574256643228
 20
295.92222045100442
 30
0.0
 11
406.49574256643228
 21
263.92222045100442
 31
0.0
  0
LINE
  5
2D67
  8
ｶｸﾚｾﾝ2
 10
382.49574256643223
 20
295.92222045100442
 30
0.0
 11
382.49574256643223
 21
263.92222045100442
 31
0.0
  0
LINE
  5
2D68
  8
ﾁｭｳｼﾝｾﾝ1
 10
394.49569256643201
 20
300.22199545100437
 30
0.0
 11
394.49569256643201
 21
258.60906545100443
 31
0.0
  0
ARC
  5
2D69
  8
AM_0
 10
369.49569256643201
 20
290.92222045100442
 30
0.0
 40
5.0
 50
90.00000299999769
 51
180.00001000000091
  0
LINE
  5
2D6A
  8
AM_0
 10
364.49569256643201
 20
290.92222045100442
 30
0.0
 11
364.49569256643201
 21
263.92222045100442
 31
0.0
  0
LINE
  5
2D6B
  8
AM_0
 10
364.60039056643222
 20
357.20833545100442
 30
0.0
 11
281.3909935664322
 21
354.30259945100448
 31
0.0
  0
LINE
  5
2D6C
  8
AM_0
 10
363.75055256643202
 20
367.78526045100438
 30
0.0
 11
282.27218856643208
 21
364.93997345100451
 31
0.0
  0
LINE
  5
2D6D
  8
AM_0
 10
368.49569256643201
 20
343.42222545100429
 30
0.0
 11
283.36480756643221
 21
341.19299445100449
 31
0.0
  0
LINE
  5
2D6E
  8
AM_0
 10
281.49569256643218
 20
384.14643645100449
 30
0.0
 11
367.49569256643201
 21
384.14643645100449
 31
0.0
  0
LINE
  5
2D6F
  8
AM_0
 10
262.49569256643213
 20
315.92222545100429
 30
0.0
 11
275.49569256643213
 21
315.92222545100429
 31
0.0
  0
ARC
  5
2D70
  8
AM_0
 10
275.49569256643213
 20
318.92222545100441
 30
0.0
 40
3.0
 50
270.0
 51
0.0
  0
ARC
  5
2D71
  8
AM_0
 10
283.49569256643213
 20
336.19470745100449
 30
0.0
 40
5.0
 50
91.499999999996135
 51
180.0
  0
ARC
  5
2D72
  8
AM_0
 10
281.49569256643218
 20
351.30442745100441
 30
0.0
 40
3.0
 50
91.999999999997186
 51
180.0
  0
ARC
  5
2D73
  8
AM_0
 10
281.49569256643218
 20
381.14643645100438
 30
0.0
 40
3.0
 50
90.0
 51
180.0
  0
LINE
  5
2D74
  8
AM_0
 10
367.49569256643201
 20
360.20650845100442
 30
0.0
 11
367.49569256643201
 21
384.14643645100449
 31
0.0
  0
LINE
  5
2D75
  8
AM_0
 10
370.49569256643201
 20
384.14646545100442
 30
0.0
 11
370.49569256643201
 21
357.62480045100438
 31
0.0
  0
ARC
  5
2D76
  8
AM_0
 10
402.49574256643228
 20
309.66868045100438
 30
0.0
 40
10.0
 50
179.9999899999988
 51
223.56789999999799
  0
LINE
  5
2D77
  8
AM_0
 10
401.770192566432
 20
295.9221604510044
 30
0.0
 11
395.25014256643209
 21
302.77653045100442
 31
0.0
  0
LINE
  5
2D78
  8
AM_0
 10
368.49574256643223
 20
343.42222045100448
 30
0.0
 11
382.8447425664325
 21
342.92115545100449
 31
0.0
  0
LINE
  5
2D79
  8
AM_0
 10
370.49569256643201
 20
357.62480045100438
 30
0.0
 11
392.49574256643223
 21
357.62480045100438
 31
0.0
  0
LINE
  5
2D7A
  8
AM_0
 10
370.49569256643201
 20
367.91606045100451
 30
0.0
 11
392.49574256643223
 21
367.91606045100451
 31
0.0
  0
LINE
  5
2D7B
  8
AM_0
 10
365.57757856643201
 20
343.42222545100429
 30
0.0
 11
368.49569256643201
 21
343.42222545100429
 31
0.0
  0
ARC
  5
2D7C
  8
AM_0
 10
364.49569256643201
 20
360.20650845100442
 30
0.0
 40
3.0
 50
271.9999999999971
 51
0.0
  0
ARC
  5
2D7D
  8
AM_0
 10
382.49574256643223
 20
332.9272254510044
 30
0.0
 40
10.0
 50
0.0
 51
88.000000000002785
  0
LINE
  5
2D7E
  8
AM_0
 10
370.49569256643201
 20
384.14646545100442
 30
0.0
 11
392.49574256643223
 21
384.14646545100442
 31
0.0
  0
ARC
  5
2D7F
  8
AM_0
 10
430.49569256643201
 20
305.92222045100448
 30
0.0
 40
10.0
 50
270.0
 51
313.60281999999847
  0
ARC
  5
2D80
  8
AM_0
 10
573.49569256643213
 20
310.92222045100431
 30
0.0
 40
15.0
 50
179.9999899999988
 51
270.0
  0
LINE
  5
2D81
  8
ﾁｭｳｼﾝｾﾝ1
 10
594.49569256643213
 20
300.22199545100437
 30
0.0
 11
594.49569256643213
 21
258.60906545100443
 31
0.0
  0
LINE
  5
2D82
  8
ｶｸﾚｾﾝ2
 10
606.49574256643234
 20
295.92222045100442
 30
0.0
 11
606.49574256643234
 21
263.92222045100442
 31
0.0
  0
LINE
  5
2D83
  8
ｶｸﾚｾﾝ2
 10
582.49574256643234
 20
295.92222045100442
 30
0.0
 11
582.49574256643234
 21
263.92222045100442
 31
0.0
  0
ARC
  5
2D84
  8
AM_0
 10
619.49569256643213
 20
290.92222045100442
 30
0.0
 40
5.0
 50
0.0
 51
90.00000299999769
  0
LINE
  5
2D85
  8
AM_0
 10
624.49569256643213
 20
290.92222045100442
 30
0.0
 11
624.49569256643213
 21
263.92222045100442
 31
0.0
  0
LINE
  5
2D86
  8
AM_0
 10
486.99569256643218
 20
418.22444045100428
 30
0.0
 11
486.99569256643218
 21
350.20793045100442
 31
0.0
  0
LINE
  5
2D87
  8
AM_0
 10
441.99569256643218
 20
388.86509545100438
 30
0.0
 11
441.99569256643218
 21
354.5957454510044
 31
0.0
  0
LINE
  5
2D88
  8
AM_0
 10
437.392242566432
 20
298.68079545100443
 30
0.0
 11
483.892242566432
 21
342.96653545100429
 31
0.0
  0
LINE
  5
2D89
  8
AM_0
 10
416.99569256643218
 20
351.5957454510044
 30
0.0
 11
438.99574256643228
 21
351.5957454510044
 31
0.0
  0
ARC
  5
2D8A
  8
AM_0
 10
416.99569256643218
 20
346.5957454510044
 30
0.0
 40
5.0
 50
90.00000299999769
 51
180.00001000000091
  0
ARC
  5
2D8B
  8
AM_0
 10
438.99574256643228
 20
354.5957454510044
 30
0.0
 40
3.0000000500000001
 50
270.0
 51
0.0
  0
ARC
  5
2D8C
  8
AM_0
 10
476.9956925664319
 20
350.20793045100442
 30
0.0
 40
10.0
 50
313.60281999999847
 51
0.0
  0
LINE
  5
2D8D
  8
AM_0
 10
416.99569256643218
 20
391.86512545100442
 30
0.0
 11
438.99574256643228
 21
391.86512545100442
 31
0.0
  0
ARC
  5
2D8E
  8
AM_0
 10
416.99569256643218
 20
396.86512545100442
 30
0.0
 40
5.0
 50
179.9999899999988
 51
270.0
  0
ARC
  5
2D8F
  8
AM_0
 10
438.99574256643228
 20
388.86509545100438
 30
0.0
 40
3.0000000500000001
 50
0.0
 51
90.00000299999769
  0
LINE
  5
2D90
  8
AM_0
 10
481.99569256643201
 20
418.22444045100428
 30
0.0
 11
511.99569256643218
 21
418.22444045100428
 31
0.0
  0
LINE
  5
2D91
  8
AM_0
 10
573.49569256643213
 20
295.92222045100442
 30
0.0
 11
619.49569256643213
 21
295.92222045100442
 31
0.0
  0
LINE
  5
2D92
  8
AM_0
 10
558.49569256643224
 20
334.57420045100429
 30
0.0
 11
578.49569256643213
 21
334.57420045100429
 31
0.0
  0
ARC
  5
2D93
  8
AM_0
 10
578.49569256643213
 20
344.5742004510044
 30
0.0
 40
10.0
 50
270.0
 51
0.0
  0
ARC
  5
2D94
  8
AM_0
 10
621.49574256643234
 20
420.81565545100437
 30
0.0
 40
3.0000000500000001
 50
91.999998000000545
 51
180.00001000000091
  0
ARC
  5
2D95
  8
AM_0
 10
621.49574256643234
 20
426.81929045100429
 30
0.0
 40
3.0000000500000001
 50
271.9999999999971
 51
0.0
  0
LINE
  5
2D96
  8
AM_0
 10
621.39094256643205
 20
423.81379545100441
 30
0.0
 11
621.60044256643209
 21
423.82109045100452
 31
0.0
  0
LINE
  5
2D97
  8
ﾁｭｳｼﾝｾﾝ
 10
250.2575216151682
 20
440.92222545100429
 30
0.0
 11
439.42320497871901
 21
440.92222545100418
 31
0.0
  0
ARC
  5
2D98
  8
AM_0
 10
426.9956925664319
 20
646.92224545100453
 30
0.0
 40
25.000000499999999
 50
306.46672000000012
 51
233.5332899999996
  0
LINE
  5
2D99
  8
AM_0
 10
396.15254256643198
 20
576.92264545100454
 30
0.0
 11
408.33889256643198
 21
586.92169545100444
 31
0.0
  0
LINE
  5
2D9A
  8
AM_0
 10
363.75055256643202
 20
514.05918945100461
 30
0.0
 11
282.27218856643208
 21
516.90447645100448
 31
0.0
  0
LINE
  5
2D9B
  8
AM_0
 10
364.60039056643222
 20
524.63611445100446
 30
0.0
 11
281.3909935664322
 21
527.54185045100451
 31
0.0
  0
LINE
  5
2D9C
  8
AM_0
 10
281.49569256643218
 20
497.6980134510045
 30
0.0
 11
367.49569256643201
 21
497.6980134510045
 31
0.0
  0
LINE
  5
2D9D
  8
AM_0
 10
368.49569256643201
 20
538.42222545100469
 30
0.0
 11
283.36480756643221
 21
540.65145545100461
 31
0.0
  0
LINE
  5
2D9E
  8
AM_0
 10
278.49569256643213
 20
562.92222545100435
 30
0.0
 11
278.49569256643213
 21
440.92222545100429
 31
0.0
  0
ARC
  5
2D9F
  8
AM_0
 10
281.49569256643218
 20
500.69801345100461
 30
0.0
 40
3.0
 50
180.0
 51
270.0
  0
ARC
  5
2DA0
  8
AM_0
 10
281.49569256643218
 20
530.54002245100435
 30
0.0
 40
3.0
 50
180.0
 51
268.00000000000261
  0
ARC
  5
2DA1
  8
AM_0
 10
283.49569256643213
 20
545.64974245100473
 30
0.0
 40
5.0
 50
180.0
 51
268.49999999999733
  0
LINE
  5
2DA2
  8
AM_0
 10
262.49569256643213
 20
565.92222545100435
 30
0.0
 11
275.49569256643213
 21
565.92222545100435
 31
0.0
  0
ARC
  5
2DA3
  8
AM_0
 10
275.49569256643213
 20
562.92222545100435
 30
0.0
 40
3.0
 50
0.0
 51
90.0
  0
LINE
  5
2DA4
  8
AM_0
 10
367.49569256643201
 20
521.63794145100462
 30
0.0
 11
367.49569256643201
 21
497.6980134510045
 31
0.0
  0
LINE
  5
2DA5
  8
AM_0
 10
370.49569256643201
 20
524.21959545100435
 30
0.0
 11
370.49569256643201
 21
497.69801045100451
 31
0.0
  0
LINE
  5
2DA6
  8
AM_0
 10
370.49569256643201
 20
497.69801045100451
 30
0.0
 11
392.49574256643223
 21
497.69801045100451
 31
0.0
  0
ARC
  5
2DA7
  8
AM_0
 10
382.49574256643223
 20
548.91724545100453
 30
0.0
 40
10.0
 50
271.9999999999971
 51
0.0
  0
LINE
  5
2DA8
  8
AM_0
 10
370.49569256643201
 20
524.21959545100435
 30
0.0
 11
392.49574256643223
 21
524.21959545100435
 31
0.0
  0
LINE
  5
2DA9
  8
AM_0
 10
370.49569256643201
 20
513.92842045100451
 30
0.0
 11
392.49574256643223
 21
513.92842045100451
 31
0.0
  0
LINE
  5
2DAA
  8
AM_0
 10
368.49569256643201
 20
538.42224545100441
 30
0.0
 11
382.84469256643189
 21
538.92324545100462
 31
0.0
  0
ARC
  5
2DAB
  8
AM_0
 10
364.49569256643201
 20
521.63794145100462
 30
0.0
 40
3.0
 50
0.0
 51
88.000000000002785
  0
ARC
  5
2DAC
  8
AM_0
 10
402.49574256643228
 20
569.19194545100447
 30
0.0
 40
10.0
 50
129.36932000000201
 51
180.00001000000091
  0
ARC
  5
2DAD
  8
AM_0
 10
598.49569256643213
 20
592.71019545100444
 30
0.0
 40
10.0
 50
179.9999899999988
 51
265.0
  0
ARC
  5
2DAE
  8
AM_0
 10
438.99574256643228
 20
511.14726045100451
 30
0.0
 40
3.0000000500000001
 50
0.0
 51
90.00000299999769
  0
ARC
  5
2DAF
  8
AM_0
 10
416.99569256643218
 20
471.97306545100429
 30
0.0
 40
5.0
 50
90.00000299999769
 51
180.00001000000091
  0
ARC
  5
2DB0
  8
AM_0
 10
438.99574256643228
 20
479.97306545100429
 30
0.0
 40
3.0000000500000001
 50
270.0
 51
0.0
  0
LINE
  5
2DB1
  8
AM_0
 10
416.99569256643218
 20
476.9730654510044
 30
0.0
 11
438.99574256643228
 21
476.9730654510044
 31
0.0
  0
LINE
  5
2DB2
  8
AM_0
 10
441.99569256643218
 20
511.14726045100451
 30
0.0
 11
441.99569256643218
 21
479.97306545100429
 31
0.0
  0
LINE
  5
2DB3
  8
AM_0
 10
416.99569256643218
 20
514.14726045100463
 30
0.0
 11
438.99574256643228
 21
514.14726045100463
 31
0.0
  0
ARC
  5
2DB4
  8
AM_0
 10
416.99569256643218
 20
519.14724545100455
 30
0.0
 40
5.0
 50
179.9999899999988
 51
270.0
  0
LINE
  5
2DB5
  8
AM_0
 10
573.49569256643213
 20
539.84914545100435
 30
0.0
 11
588.49569256643213
 21
539.84914545100435
 31
0.0
  0
ARC
  5
2DB6
  8
AM_0
 10
573.49569256643213
 20
524.84919545100445
 30
0.0
 40
15.0
 50
90.00000299999769
 51
180.00001000000091
  0
LINE
  5
2DB7
  8
AM_0
 10
597.6241925664325
 20
582.74829545100454
 30
0.0
 11
611.19299256643251
 21
581.56114545100445
 31
0.0
  0
ARC
  5
2DB8
  8
AM_0
 10
621.49574256643234
 20
551.02514545100439
 30
0.0
 40
3.0000000500000001
 50
0.0
 51
88.000000000002785
  0
ARC
  5
2DB9
  8
AM_0
 10
621.49574256643234
 20
557.02879545100416
 30
0.0
 40
3.0000000500000001
 50
179.9999899999988
 51
268.00000999999861
  0
LINE
  5
2DBA
  8
AM_0
 10
621.39104256643225
 20
554.03064545100426
 30
0.0
 11
621.60049256643208
 21
554.02329545100429
 31
0.0
  0
ARC
  5
2DBB
  8
AM_0
 10
610.49569256643213
 20
573.59154545100444
 30
0.0
 40
8.0
 50
0.0
 51
84.999996999998885
  0
LINE
  5
2DBC
  8
AM_0
 10
516.31419256643187
 20
617.38134545100445
 30
0.0
 11
519.0598925664325
 21
615.79614545100435
 31
0.0
  0
CIRCLE
  5
2DBD
  8
AM_0
 10
426.9956925664319
 20
646.92224545100453
 30
0.0
 40
15.0
  0
LINE
  5
2DBE
  8
AM_0
 10
416.8212425664322
 20
618.64629545100445
 30
0.0
 11
481.99569256643201
 21
620.92224545100453
 31
0.0
  0
LINE
  5
2DBF
  8
AM_0
 10
416.99569256643218
 20
620.92224545100453
 30
0.0
 11
481.99569256643201
 21
620.92224545100453
 31
0.0
  0
ARC
  5
2DC0
  8
AM_0
 10
416.99569256643218
 20
615.92224545100453
 30
0.0
 40
5.0
 50
90.00000299999769
 51
180.00001000000091
  0
LINE
  5
2DC1
  8
AM_0
 10
414.28109256643222
 20
620.12114545100451
 30
0.0
 11
416.74624256643222
 21
629.32114545100444
 31
0.0
  0
LINE
  5
2DC2
  8
AM_0
 10
416.99569256643218
 20
594.14049545100443
 30
0.0
 11
438.99574256643228
 21
594.14049545100443
 31
0.0
  0
LINE
  5
2DC3
  8
AM_0
 10
416.99569256643218
 20
610.66979545100435
 30
0.0
 11
438.99574256643228
 21
610.66979545100435
 31
0.0
  0
ARC
  5
2DC4
  8
AM_0
 10
401.9956925664319
 20
594.65244545100427
 30
0.0
 40
10.0
 50
309.36932000000201
 51
0.0
  0
ARC
  5
2DC5
  8
AM_0
 10
416.99569256643218
 20
589.14049545100431
 30
0.0
 40
5.0
 50
90.00000299999769
 51
180.00001000000091
  0
ARC
  5
2DC6
  8
AM_0
 10
416.99569256643218
 20
613.64934545100448
 30
0.0
 40
5.0
 50
91.999998000000545
 51
180.00001000000091
  0
ARC
  5
2DC7
  8
AM_0
 10
416.99569256643218
 20
615.66979545100435
 30
0.0
 40
5.0
 50
179.9999899999988
 51
270.0
  0
LINE
  5
2DC8
  8
AM_0
 10
441.99569256643218
 20
607.66984545100445
 30
0.0
 11
441.99569256643218
 21
597.14054545100453
 31
0.0
  0
ARC
  5
2DC9
  8
AM_0
 10
438.99574256643228
 20
597.14054545100453
 30
0.0
 40
3.0000000500000001
 50
270.0
 51
0.0
  0
ARC
  5
2DCA
  8
AM_0
 10
438.99574256643228
 20
607.66984545100445
 30
0.0
 40
3.0000000500000001
 50
0.0
 51
90.00000299999769
  0
LINE
  5
2DCB
  8
AM_0
 10
426.99574256643228
 20
631.92224545100453
 30
0.0
 11
436.47379256643211
 21
630.04324545100451
 31
0.0
  0
LINE
  5
2DCC
  8
AM_0
 10
417.20169256643192
 20
629.92224545100441
 30
0.0
 11
436.78979256643231
 21
629.92224545100441
 31
0.0
  0
LINE
  5
2DCD
  8
AM_0
 10
417.517692566432
 20
630.04319545100452
 30
0.0
 11
426.9956925664319
 21
631.92214545100444
 31
0.0
  0
ARC
  5
2DCE
  8
AM_0
 10
417.71214256643231
 20
629.0623454510046
 30
0.0
 40
1.0
 50
101.21328999999869
 51
164.99998999999869
  0
ARC
  5
2DCF
  8
AM_0
 10
408.570692566432
 20
621.99194545100454
 30
0.0
 40
6.0
 50
349.72994999999878
 51
53.533291000000993
  0
LINE
  5
2DD0
  8
AM_0
 10
439.4956925664319
 20
620.92214545100444
 30
0.0
 11
437.24519256643202
 21
629.32114545100444
 31
0.0
  0
ARC
  5
2DD1
  8
AM_0
 10
436.27934256643198
 20
629.0623454510046
 30
0.0
 40
1.0
 50
15.000000000000741
 51
78.786710000001207
  0
ARC
  5
2DD2
  8
AM_0
 10
445.42074256643201
 20
621.99194545100454
 30
0.0
 40
6.0
 50
126.46669999999671
 51
190.27005999999909
  0
LINE
  5
2DD3
  8
AM_0
 10
481.99574256643223
 20
620.92214545100444
 30
0.0
 11
507.01224256643212
 21
620.04854545100454
 31
0.0
  0
ARC
  5
2DD4
  8
AM_0
 10
506.3141925664321
 20
600.06079545100454
 30
0.0
 40
20.000000499999999
 50
60.000002000001302
 51
88.000000000002785
  0
LINE
  5
2DD5
  8
AM_0
 10
523.71099256643197
 20
614.46239545100445
 30
0.0
 11
578.84469256643195
 21
612.53709545100435
 31
0.0
  0
ARC
  5
2DD6
  8
AM_0
 10
524.0598925664325
 20
624.45639545100425
 30
0.0
 40
10.0
 50
239.99999999999949
 51
268.00000000000261
  0
ARC
  5
2DD7
  8
AM_0
 10
578.49569256643213
 20
602.54319545100452
 30
0.0
 40
10.0
 50
0.0
 51
88.000000000002785
  0
CIRCLE
  5
2DD8
  8
AM_0
 10
1029.405093748552
 20
488.92222545100441
 30
0.0
 40
65.0
  0
LINE
  5
2DD9
  8
AM_0
 10
1166.223483748553
 20
520.72384545100454
 30
0.0
 11
1209.405078748553
 21
298.57374045100471
 31
0.0
  0
LINE
  5
2DDA
  8
AM_0
 10
1159.405078748553
 20
538.22424545100455
 30
0.0
 11
1159.405078748553
 21
400.92222545100441
 31
0.0
  0
LINE
  5
2DDB
  8
AM_0
 10
1136.405063748552
 20
473.92222545100429
 30
0.0
 11
1136.405063748552
 21
310.92222045100431
 31
0.0
  0
LINE
  5
2DDC
  8
AM_0
 10
922.40505874855228
 20
473.92222545100429
 30
0.0
 11
922.40505874855228
 21
310.92222045100431
 31
0.0
  0
LINE
  5
2DDD
  8
AM_0
 10
899.40509374855253
 20
538.22424545100455
 30
0.0
 11
899.40509374855253
 21
400.92222545100441
 31
0.0
  0
LINE
  5
2DDE
  8
AM_0
 10
892.58666874855214
 20
520.72384545100454
 30
0.0
 11
849.40507874855246
 21
298.57374045100471
 31
0.0
  0
LINE
  5
2DDF
  8
ﾁｭｳｼﾝｾﾝ
 10
1029.405093748552
 20
677.91260012413557
 30
0.0
 11
1029.405093748552
 21
259.82714545100453
 31
0.0
  0
LINE
  5
2DE0
  8
AM_0
 10
1126.4761387485521
 20
276.85117545100451
 30
0.0
 11
1118.352023748552
 21
284.97526045100432
 31
0.0
  0
LINE
  5
2DE1
  8
AM_0
 10
1126.405063748552
 20
266.92222045100442
 30
0.0
 11
1029.405093748552
 21
266.92222045100442
 31
0.0
  0
ARC
  5
2DE2
  8
AM_0
 10
1029.405093748552
 20
400.92222545100441
 30
0.0
 40
130.0
 50
179.9999899999988
 51
214.60599000000229
  0
LINE
  5
2DE3
  8
AM_0
 10
854.40507874855246
 20
295.92222045100431
 30
0.0
 11
924.4050937485523
 21
295.92222045100431
 31
0.0
  0
LINE
  5
2DE4
  8
AM_0
 10
849.40507874855246
 20
263.92222045100442
 30
0.0
 11
929.40509374855264
 21
263.92222045100442
 31
0.0
  0
LINE
  5
2DE5
  8
ｶｸﾚｾﾝ2
 10
872.40507874855314
 20
295.92222045100431
 30
0.0
 11
872.40507874855314
 21
263.92222045100442
 31
0.0
  0
LINE
  5
2DE6
  8
ﾁｭｳｼﾝｾﾝ1
 10
884.40507874855257
 20
300.76063045100437
 30
0.0
 11
884.40507874855257
 21
257.68266045100449
 31
0.0
  0
LINE
  5
2DE7
  8
ｶｸﾚｾﾝ2
 10
896.40509374855253
 20
295.92222045100431
 30
0.0
 11
896.40509374855253
 21
263.92222045100442
 31
0.0
  0
LINE
  5
2DE8
  8
AM_0
 10
849.40507874855246
 20
298.57371045100427
 30
0.0
 11
849.40507874855246
 21
263.92222045100442
 31
0.0
  0
ARC
  5
2DE9
  8
AM_0
 10
854.40507874855246
 20
290.92222045100431
 30
0.0
 40
5.0
 50
90.00000299999769
 51
180.00001000000091
  0
ARC
  5
2DEA
  8
AM_0
 10
924.4050937485523
 20
290.92222045100431
 30
0.0
 40
5.0
 50
0.0
 51
90.00000299999769
  0
ARC
  5
2DEB
  8
AM_0
 10
907.40505874855239
 20
310.92222045100431
 30
0.0
 40
15.0
 50
270.0
 51
0.0
  0
LINE
  5
2DEC
  8
AM_0
 10
969.45993374855243
 20
276.69193545100461
 30
0.0
 11
1029.405093748552
 21
276.69193545100461
 31
0.0
  0
LINE
  5
2DED
  8
AM_0
 10
932.40506374855204
 20
266.92222045100442
 30
0.0
 11
1029.405093748552
 21
266.92222045100442
 31
0.0
  0
LINE
  5
2DEE
  8
AM_0
 10
963.58209374855244
 20
278.60175545100441
 30
0.0
 11
953.40704374855193
 21
285.99436545100451
 31
0.0
  0
LINE
  5
2DEF
  8
AM_0
 10
929.40509374855264
 20
290.92222045100431
 30
0.0
 11
929.40509374855264
 21
263.92222045100442
 31
0.0
  0
LINE
  5
2DF0
  8
AM_0
 10
932.33401874855269
 20
276.85114545100453
 30
0.0
 11
940.45813374855265
 21
284.97526045100432
 31
0.0
  0
ARC
  5
2DF1
  8
AM_0
 10
939.4050937485523
 20
269.78010045100439
 30
0.0
 40
10.0
 50
135.0
 51
180.00001000000091
  0
ARC
  5
2DF2
  8
AM_0
 10
932.40506374855204
 20
263.92222045100442
 30
0.0
 40
3.0000000500000001
 50
90.00000299999769
 51
180.00001000000091
  0
ARC
  5
2DF3
  8
AM_0
 10
947.52917874855257
 20
277.90418545100442
 30
0.0
 40
10.0
 50
54.000001999999917
 51
135.0
  0
ARC
  5
2DF4
  8
AM_0
 10
969.45993374855243
 20
286.6919354510045
 30
0.0
 40
10.0
 50
233.9999999999971
 51
270.0
  0
LINE
  5
2DF5
  8
AM_0
 10
1089.350223748552
 20
276.69193545100461
 30
0.0
 11
1029.405093748552
 21
276.69193545100461
 31
0.0
  0
ARC
  5
2DF6
  8
AM_0
 10
1089.350223748552
 20
286.6919354510045
 30
0.0
 40
10.0
 50
270.0
 51
306.00000000000261
  0
ARC
  5
2DF7
  8
AM_0
 10
1111.2809487485531
 20
277.90418545100442
 30
0.0
 40
10.0
 50
45.000001000003799
 51
126.0000000000027
  0
LINE
  5
2DF8
  8
AM_0
 10
1095.228063748551
 20
278.60175545100441
 30
0.0
 11
1105.4031087485521
 21
285.99436545100451
 31
0.0
  0
LINE
  5
2DF9
  8
ｶｸﾚｾﾝ2
 10
1162.4050787485519
 20
295.92222045100431
 30
0.0
 11
1162.4050787485519
 21
263.92222045100442
 31
0.0
  0
LINE
  5
2DFA
  8
ﾁｭｳｼﾝｾﾝ1
 10
1174.405078748553
 20
300.76063045100437
 30
0.0
 11
1174.405078748553
 21
257.68266045100449
 31
0.0
  0
ARC
  5
2DFB
  8
AM_0
 10
1151.405063748552
 20
310.92222045100431
 30
0.0
 40
15.0
 50
179.9999899999988
 51
270.0
  0
ARC
  5
2DFC
  8
AM_0
 10
1134.405078748553
 20
290.92222045100431
 30
0.0
 40
5.0
 50
90.00000299999769
 51
180.00001000000091
  0
LINE
  5
2DFD
  8
AM_0
 10
1209.405078748553
 20
298.57371045100427
 30
0.0
 11
1209.405078748553
 21
263.92222045100442
 31
0.0
  0
LINE
  5
2DFE
  8
ｶｸﾚｾﾝ2
 10
1186.405063748552
 20
295.92222045100431
 30
0.0
 11
1186.405063748552
 21
263.92222045100442
 31
0.0
  0
ARC
  5
2DFF
  8
AM_0
 10
1204.405078748553
 20
290.92222045100431
 30
0.0
 40
5.0
 50
0.0
 51
90.00000299999769
  0
LINE
  5
2E00
  8
AM_0
 10
1209.405078748553
 20
263.92222045100442
 30
0.0
 11
1129.405093748552
 21
263.92222045100442
 31
0.0
  0
LINE
  5
2E01
  8
AM_0
 10
1129.405093748552
 20
290.92222045100431
 30
0.0
 11
1129.405093748552
 21
263.92222045100442
 31
0.0
  0
ARC
  5
2E02
  8
AM_0
 10
1119.405093748552
 20
269.78010045100439
 30
0.0
 40
10.0
 50
0.0
 51
45.000001000003799
  0
ARC
  5
2E03
  8
AM_0
 10
1126.405063748552
 20
263.92222045100442
 30
0.0
 40
3.0000000500000001
 50
0.0
 51
90.00000299999769
  0
ARC
  5
2E04
  8
AM_0
 10
1029.405093748552
 20
400.92222545100441
 30
0.0
 40
130.0
 50
325.39400000000001
 51
0.0
  0
LINE
  5
2E05
  8
AM_0
 10
1204.405078748553
 20
295.92222045100431
 30
0.0
 11
1134.405078748553
 21
295.92222045100431
 31
0.0
  0
LINE
  5
2E06
  8
ﾁｭｳｼﾝｾﾝ
 10
887.63572207149775
 20
440.92222545100429
 30
0.0
 11
1172.2774094728679
 21
440.92222545100429
 31
0.0
  0
ARC
  5
2E07
  8
AM_0
 10
1049.540623748552
 20
492.10386545100442
 30
0.0
 40
120.0
 50
10.999999999998691
 51
68.524651000000731
  0
LINE
  5
2E08
  8
ﾁｭｳｼﾝｾﾝ
 10
935.28684796339701
 20
488.92222545100441
 30
0.0
 11
1125.0479751390619
 21
488.92222545100441
 31
0.0
  0
ARC
  5
2E09
  8
AM_0
 10
1048.428223748552
 20
497.82673545100448
 30
0.0
 40
120.0
 50
10.999999999998691
 51
71.515243000000595
  0
ARC
  5
2E0A
  8
AM_0
 10
1029.405093748552
 20
473.92222545100429
 30
0.0
 40
107.0
 50
0.0
 51
90.00000299999769
  0
ARC
  5
2E0B
  8
AM_0
 10
1009.269503748551
 20
492.10386545100442
 30
0.0
 40
120.0
 50
111.4753500000013
 51
169.00000000000131
  0
ARC
  5
2E0C
  8
AM_0
 10
1010.3819587485521
 20
497.82673545100448
 30
0.0
 40
120.0
 50
108.4847599999984
 51
169.00000000000131
  0
LINE
  5
2E0D
  8
AM_0
 10
630.49569256643201
 20
521.42224545100453
 30
0.0
 11
630.49569256643201
 21
456.42222545100452
 31
0.0
  0
LINE
  5
2E0E
  8
AM_0
 10
735.49574256643234
 20
522.92224545100453
 30
0.0
 11
735.49574256643234
 21
458.92222545100441
 31
0.0
  0
LINE
  5
2E0F
  8
AM_0
 10
630.49569256643201
 20
458.92222545100441
 30
0.0
 11
735.49574256643234
 21
458.92222545100441
 31
0.0
  0
LINE
  5
2E10
  8
AM_0
 10
654.49569256643213
 20
522.92224545100453
 30
0.0
 11
735.49574256643234
 21
522.92224545100453
 31
0.0
  0
LINE
  5
2E11
  8
AM_0
 10
630.49569256643201
 20
518.92224545100453
 30
0.0
 11
735.49574256643234
 21
518.92224545100453
 31
0.0
  0
LINE
  5
2E12
  8
AM_0
 10
654.49569256643213
 20
522.92224545100453
 30
0.0
 11
654.49569256643213
 21
518.92224545100453
 31
0.0
  0
ARC
  5
2E13
  8
AM_0
 10
1029.405093748552
 20
473.92222545100429
 30
0.0
 40
107.0
 50
90.00000299999769
 51
180.00001000000091
  0
ARC
  5
2E14
  8
AM_0
 10
1029.405093748552
 20
488.92222545100441
 30
0.0
 40
30.000000499999999
 50
107.45760000000089
 51
72.542383999997952
  0
ARC
  5
2E15
  8
AM_0
 10
909.40509374855242
 20
538.22424545100455
 30
0.0
 40
10.0
 50
155.21109000000271
 51
180.00001000000091
  0
LINE
  5
2E16
  8
AM_0
 10
1020.405063748551
 20
522.92224545100453
 30
0.0
 11
1020.405063748551
 21
511.92222545100429
 31
0.0
  0
LINE
  5
2E17
  8
AM_0
 10
1038.405063748552
 20
522.92224545100453
 30
0.0
 11
1038.405063748552
 21
511.92222545100429
 31
0.0
  0
LINE
  5
2E18
  8
AM_0
 10
1020.405063748551
 20
511.92222545100429
 30
0.0
 11
1038.405063748552
 21
511.92222545100429
 31
0.0
  0
CIRCLE
  5
2E19
  8
AM_5
 10
1029.405093748552
 20
488.92222545100441
 30
0.0
 40
6.0
  0
CIRCLE
  5
2E1A
  8
AM_0
 10
1029.405093748552
 20
488.92222545100441
 30
0.0
 40
4.500000049999997
  0
LINE
  5
2E1B
  8
AM_0
 10
1020.405063748551
 20
522.92224545100453
 30
0.0
 11
1038.405063748552
 21
522.92224545100453
 31
0.0
  0
ARC
  5
2E1C
  8
AM_0
 10
1029.405093748552
 20
440.92222545100429
 30
0.0
 40
175.0000049999999
 50
90.00000299999769
 51
111.4753500000013
  0
ARC
  5
2E1D
  8
AM_0
 10
1029.405093748552
 20
440.92222545100429
 30
0.0
 40
180.0000049999999
 50
90.00000299999769
 51
108.4847599999984
  0
LINE
  5
2E1E
  8
AM_0
 10
1024.405093748552
 20
666.92224545100453
 30
0.0
 11
1024.405093748552
 21
624.92224545100441
 31
0.0
  0
LINE
  5
2E1F
  8
AM_0
 10
1034.405093748552
 20
666.92224545100453
 30
0.0
 11
1034.405093748552
 21
624.92224545100441
 31
0.0
  0
ARC
  5
2E20
  8
AM_0
 10
1029.405093748552
 20
440.92222545100429
 30
0.0
 40
180.0000049999999
 50
71.515243000000595
 51
90.00000299999769
  0
ARC
  5
2E21
  8
AM_0
 10
1029.405093748552
 20
440.92222545100429
 30
0.0
 40
175.0000049999999
 50
68.524644999998387
 51
90.00000299999769
  0
LINE
  5
2E22
  8
AM_0
 10
1016.786438748552
 20
620.47934545100463
 30
0.0
 11
1019.155583748553
 21
629.32114545100444
 31
0.0
  0
LINE
  5
2E23
  8
AM_0
 10
1042.023743748553
 20
620.47939545100428
 30
0.0
 11
1039.6546037485509
 21
629.32114545100444
 31
0.0
  0
LINE
  5
2E24
  8
AM_0
 10
1034.405093748552
 20
630.93099545100449
 30
0.0
 11
1038.883153748553
 21
630.04324545100451
 31
0.0
  0
ARC
  5
2E25
  8
AM_0
 10
1022.405063748552
 20
624.92224545100441
 30
0.0
 40
2.0000000500000001
 50
270.0
 51
0.0
  0
LINE
  5
2E26
  8
AM_0
 10
1019.927033748551
 20
630.04314545100453
 30
0.0
 11
1024.405093748552
 21
630.9309454510045
 31
0.0
  0
ARC
  5
2E27
  8
AM_0
 10
1020.121493748552
 20
629.0623454510046
 30
0.0
 40
1.0
 50
101.21328999999869
 51
164.99998999999869
  0
ARC
  5
2E28
  8
AM_0
 10
1036.405093748552
 20
624.92224545100441
 30
0.0
 40
2.0000000500000001
 50
179.9999899999988
 51
270.0
  0
ARC
  5
2E29
  8
AM_0
 10
1038.688693748551
 20
629.0623454510046
 30
0.0
 40
1.0
 50
15.000000000000741
 51
78.786710000001207
  0
ARC
  5
2E2A
  8
AM_0
 10
1029.405093748552
 20
666.92224545100453
 30
0.0
 40
5.0
 50
0.0
 51
179.9999899999988
  0
ARC
  5
2E2B
  8
AM_0
 10
1149.405078748553
 20
538.22424545100455
 30
0.0
 40
10.0
 50
0.0
 51
24.788911000003161
  0
ARC
  5
2E2C
  8
AM_0
 10
275.49578256643241
 20
1073.7400314870531
 30
0.0
 40
3.0
 50
0.0
 51
90.0
  0
LINE
  5
2E2D
  8
AM_0
 10
262.49578256643241
 20
826.74003148705367
 30
0.0
 11
262.49578256643241
 21
1076.7400314870531
 31
0.0
  0
LINE
  5
2E2E
  8
AM_0
 10
262.49578256643241
 20
826.74003148705367
 30
0.0
 11
275.49578256643241
 21
826.74003148705367
 31
0.0
  0
LINE
  5
2E2F
  8
AM_0
 10
278.49578256643241
 20
829.74003148705356
 30
0.0
 11
278.49578256643241
 21
951.74003148705367
 31
0.0
  0
LINE
  5
2E30
  8
AM_0
 10
281.4957825664323
 20
894.96424248705353
 30
0.0
 11
367.49578256643241
 21
894.96424248705353
 31
0.0
  0
LINE
  5
2E31
  8
AM_0
 10
368.4957825664323
 20
854.24003148705367
 30
0.0
 11
283.36489756643232
 21
852.01080048705364
 31
0.0
  0
LINE
  5
2E32
  8
AM_0
 10
363.7506425664323
 20
878.60306648705352
 30
0.0
 11
282.27227856643231
 21
875.75777948705365
 31
0.0
  0
LINE
  5
2E33
  8
AM_0
 10
364.60048056643251
 20
868.02614148705368
 30
0.0
 11
281.39108356643243
 21
865.12040548705363
 31
0.0
  0
ARC
  5
2E34
  8
AM_0
 10
275.49578256643241
 20
829.74003148705356
 30
0.0
 40
3.0
 50
270.0
 51
0.0
  0
ARC
  5
2E35
  8
AM_0
 10
283.4957825664323
 20
847.01251348705375
 30
0.0
 40
5.0
 50
91.499999999996135
 51
180.0
  0
ARC
  5
2E36
  8
AM_0
 10
281.4957825664323
 20
862.12223348705356
 30
0.0
 40
3.0
 50
91.999999999997186
 51
180.0
  0
ARC
  5
2E37
  8
AM_0
 10
281.4957825664323
 20
891.96424248705364
 30
0.0
 40
3.0
 50
90.0
 51
180.0
  0
LINE
  5
2E38
  8
AM_0
 10
365.57766856643229
 20
854.24003148705367
 30
0.0
 11
368.4957825664323
 21
854.24003148705367
 31
0.0
  0
LINE
  5
2E39
  8
AM_0
 10
367.49578256643241
 20
871.02431448705374
 30
0.0
 11
367.49578256643241
 21
894.96424248705353
 31
0.0
  0
ARC
  5
2E3A
  8
AM_0
 10
364.49578256643241
 20
871.02431448705374
 30
0.0
 40
3.0
 50
271.9999999999971
 51
0.0
  0
LINE
  5
2E3B
  8
AM_0
 10
278.49578256643241
 20
1073.7400314870531
 30
0.0
 11
278.49578256643241
 21
951.74003148705367
 31
0.0
  0
LINE
  5
2E3C
  8
AM_0
 10
368.4957825664323
 20
1049.240031487054
 30
0.0
 11
283.36489756643232
 21
1051.469261487053
 31
0.0
  0
LINE
  5
2E3D
  8
AM_0
 10
281.4957825664323
 20
1008.515819487054
 30
0.0
 11
367.49578256643241
 21
1008.515819487054
 31
0.0
  0
LINE
  5
2E3E
  8
AM_0
 10
364.60048056643251
 20
1035.4539204870521
 30
0.0
 11
281.39108356643243
 21
1038.359656487052
 31
0.0
  0
LINE
  5
2E3F
  8
AM_0
 10
363.7506425664323
 20
1024.876995487054
 30
0.0
 11
282.27227856643231
 21
1027.722282487053
 31
0.0
  0
ARC
  5
2E40
  8
AM_0
 10
281.4957825664323
 20
1011.515819487054
 30
0.0
 40
3.0
 50
180.0
 51
270.0
  0
ARC
  5
2E41
  8
AM_0
 10
283.4957825664323
 20
1056.467548487054
 30
0.0
 40
5.0
 50
180.0
 51
268.49999999999733
  0
ARC
  5
2E42
  8
AM_0
 10
281.4957825664323
 20
1041.357828487053
 30
0.0
 40
3.0
 50
180.0
 51
268.00000000000261
  0
ARC
  5
2E43
  8
AM_0
 10
364.49578256643241
 20
1032.455747487053
 30
0.0
 40
3.0
 50
0.0
 51
88.000000000002785
  0
LINE
  5
2E44
  8
AM_0
 10
367.49578256643241
 20
1032.455747487053
 30
0.0
 11
367.49578256643241
 21
1008.515819487054
 31
0.0
  0
LINE
  5
2E45
  8
AM_0
 10
262.49578256643241
 20
1076.7400314870531
 30
0.0
 11
275.49578256643241
 21
1076.7400314870531
 31
0.0
  0
TEXT
  5
3026
  8
AM_0
 10
903.88149659902001
 20
1016.2287242997591
 30
0.0
 40
20.0
  1
VX37-080A~VX37-120A
  0
ENDSEC
  0
EOF
