  0
SECTION
  2
HEADER
  9
$ACADVER
  1
AC1009
  9
$INSBASE
 10
0.0
 20
0.0
 30
0.0
  9
$EXTMIN
 10
309.37031159453318
 20
282.16735201828692
 30
-0.0000000000112498
  9
$EXTMAX
 10
1201.688655093531
 20
1007.193495398723
 30
0.0000000000002956
  9
$LIMMIN
 10
0.0
 20
0.0
  9
$LIMMAX
 10
1422.5
 20
925.0
  9
$ORTHOMODE
 70
     0
  9
$REGENMODE
 70
     1
  9
$FILLMODE
 70
     1
  9
$QTEXTMODE
 70
     0
  9
$MIRRTEXT
 70
     1
  9
$DRAGMODE
 70
     2
  9
$LTSCALE
 40
5.0
  9
$OSMODE
 70
   551
  9
$ATTMODE
 70
     1
  9
$TEXTSIZE
 40
2.5
  9
$TRACEWID
 40
1.0
  9
$TEXTSTYLE
  7
STANDARD
  9
$CLAYER
  8
AM_0
  9
$CELTYPE
  6
BYLAYER
  9
$CECOLOR
 62
   256
  9
$DIMSCALE
 40
1.0
  9
$DIMASZ
 40
2.5
  9
$DIMEXO
 40
1.0
  9
$DIMDLI
 40
8.0
  9
$DIMRND
 40
0.0
  9
$DIMDLE
 40
0.0
  9
$DIMEXE
 40
0.6
  9
$DIMTP
 40
0.1
  9
$DIMTM
 40
0.1
  9
$DIMTXT
 40
2.5
  9
$DIMCEN
 40
0.0
  9
$DIMTSZ
 40
0.0
  9
$DIMTOL
 70
     0
  9
$DIMLIM
 70
     0
  9
$DIMTIH
 70
     0
  9
$DIMTOH
 70
     0
  9
$DIMSE1
 70
     0
  9
$DIMSE2
 70
     0
  9
$DIMTAD
 70
     1
  9
$DIMZIN
 70
     8
  9
$DIMBLK
  1

  9
$DIMASO
 70
     1
  9
$DIMSHO
 70
     1
  9
$DIMPOST
  1

  9
$DIMAPOST
  1
"
  9
$DIMALT
 70
     0
  9
$DIMALTD
 70
     2
  9
$DIMALTF
 40
0.0393701
  9
$DIMLFAC
 40
1.0
  9
$DIMTOFL
 70
     1
  9
$DIMTVP
 40
0.0
  9
$DIMTIX
 70
     0
  9
$DIMSOXD
 70
     0
  9
$DIMSAH
 70
     0
  9
$DIMBLK1
  1

  9
$DIMBLK2
  1

  9
$DIMSTYLE
  2
AM_ISO
  9
$DIMCLRD
 70
   256
  9
$DIMCLRE
 70
   256
  9
$DIMCLRT
 70
     4
  9
$DIMTFAC
 40
0.71
  9
$DIMGAP
 40
0.8
  9
$LUNITS
 70
     2
  9
$LUPREC
 70
     2
  9
$SKETCHINC
 40
1.0
  9
$FILLETRAD
 40
25.0
  9
$AUNITS
 70
     0
  9
$AUPREC
 70
     0
  9
$MENU
  1
.
  9
$ELEVATION
 40
0.0
  9
$PELEVATION
 40
0.0
  9
$THICKNESS
 40
0.0
  9
$LIMCHECK
 70
     0
  9
$BLIPMODE
 70
     0
  9
$CHAMFERA
 40
10.0
  9
$CHAMFERB
 40
5.0
  9
$SKPOLY
 70
     0
  9
$TDCREATE
 40
2452066.7641840279
  9
$TDUPDATE
 40
2458541.4783343291
  9
$TDINDWG
 40
0.0645443056
  9
$TDUSRTIMER
 40
0.064544294
  9
$USRTIMER
 70
     1
  9
$ANGBASE
 50
0.0
  9
$ANGDIR
 70
     0
  9
$PDMODE
 70
     0
  9
$PDSIZE
 40
0.0
  9
$PLINEWID
 40
0.0
  9
$COORDS
 70
     1
  9
$SPLFRAME
 70
     0
  9
$SPLINETYPE
 70
     6
  9
$SPLINESEGS
 70
     8
  9
$ATTDIA
 70
     1
  9
$ATTREQ
 70
     1
  9
$HANDLING
 70
     1
  9
$HANDSEED
  5
399D
  9
$SURFTAB1
 70
     6
  9
$SURFTAB2
 70
     6
  9
$SURFTYPE
 70
     6
  9
$SURFU
 70
     6
  9
$SURFV
 70
     6
  9
$UCSNAME
  2

  9
$UCSORG
 10
0.0
 20
0.0
 30
0.0
  9
$UCSXDIR
 10
1.0
 20
0.0
 30
0.0
  9
$UCSYDIR
 10
0.0
 20
1.0
 30
0.0
  9
$PUCSNAME
  2

  9
$PUCSORG
 10
0.0
 20
0.0
 30
0.0
  9
$PUCSXDIR
 10
1.0
 20
0.0
 30
0.0
  9
$PUCSYDIR
 10
0.0
 20
1.0
 30
0.0
  9
$USERI1
 70
     0
  9
$USERI2
 70
     0
  9
$USERI3
 70
     0
  9
$USERI4
 70
     0
  9
$USERI5
 70
     0
  9
$USERR1
 40
0.0
  9
$USERR2
 40
0.0
  9
$USERR3
 40
0.0
  9
$USERR4
 40
0.0
  9
$USERR5
 40
0.0
  9
$WORLDVIEW
 70
     1
  9
$SHADEDGE
 70
     3
  9
$SHADEDIF
 70
    70
  9
$TILEMODE
 70
     1
  9
$MAXACTVP
 70
    64
  9
$PLIMCHECK
 70
     0
  9
$PEXTMIN
 10
1.0000000000000000E+020
 20
1.0000000000000000E+020
 30
1.0000000000000000E+020
  9
$PEXTMAX
 10
-1.0000000000000000E+020
 20
-1.0000000000000000E+020
 30
-1.0000000000000000E+020
  9
$PLIMMIN
 10
0.0
 20
0.0
  9
$PLIMMAX
 10
420.0
 20
297.0
  9
$UNITMODE
 70
     0
  9
$VISRETAIN
 70
     1
  9
$PLINEGEN
 70
     0
  9
$PSLTSCALE
 70
     1
  0
ENDSEC
  0
SECTION
  2
TABLES
  0
TABLE
  2
VPORT
 70
     1
  0
VPORT
  2
*ACTIVE
 70
     0
 10
0.0
 20
0.0
 11
1.0
 21
1.0
 12
755.5294833440322
 22
644.68042370850526
 13
0.0
 23
0.0
 14
12.5
 24
12.5
 15
50.0
 25
50.0
 16
0.0
 26
0.0
 36
1.0
 17
0.0
 27
0.0
 37
0.0
 40
730.00343955924973
 41
1.7571592210767459
 42
50.0
 43
0.0
 44
0.0
 50
0.0
 51
0.0
 71
     0
 72
   100
 73
     1
 74
     3
 75
     0
 76
     0
 77
     0
 78
     0
  0
ENDTAB
  0
TABLE
  2
LTYPE
 70
    27
  0
LTYPE
  2
CONTINUOUS
 70
     0
  3
Solid line
 72
    65
 73
     0
 40
0.0
  0
LTYPE
  2
AM_ISO02W050
 70
     0
  3
__ __ __ __ __ __ __ __ __ __ __ __ __ __ __
 72
    65
 73
     2
 40
7.5
 49
6.0
 49
-1.5
  0
LTYPE
  2
AM_ISO08W050
 70
     0
  3
____ . ____ . ____ . ____ . ____ . ____ . ____
 72
    65
 73
     4
 40
18.0
 49
12.0
 49
-1.5
 49
3.0
 49
-1.5
  0
LTYPE
  2
AM_ISO09W050
 70
     0
  3
_____ . . _____ . . _____ . . ____ .. ____
 72
    65
 73
     6
 40
22.5
 49
12.0
 49
-1.5
 49
3.0
 49
-1.5
 49
3.0
 49
-1.5
  0
LTYPE
  2
AMCONSTR
 70
     0
  3
_______________________
 72
    65
 73
     2
 40
9999.0
 49
9999.0
 49
0.0
  0
LTYPE
  2
AM_ISO08W050X2
 70
     0
  3
__ . __ . __ . __ . __ . __
 72
    65
 73
     4
 40
9.0
 49
6.0
 49
-0.75
 49
1.5
 49
-0.75
  0
LTYPE
  2
AM_ISO02W050X2
 70
     0
  3
 _ _ _ _ _ _ _ _ _ _ _ _
 72
    65
 73
     2
 40
3.75
 49
3.0
 49
-0.75
  0
LTYPE
  2
AMZIGZAG
 70
     0
  3
/\/-/\/-/\/-/\/-/\/-/\/
 72
    65
 73
     2
 40
11.000099999999991
 49
0.0001
 49
-11.0
  0
LTYPE
  2
ACISOWELD
 70
     0
  3
_ _ _ _ _
 72
    65
 73
     2
 40
2.0
 49
2.0
 49
-1.0
  0
LTYPE
  2
ACISOTGB
 70
     0
  3
__ . . __ . .
 72
    65
 73
     6
 40
9.0
 49
4.0
 49
-1.0
 49
1.0
 49
-1.0
 49
1.0
 49
-1.0
  0
LTYPE
  2
ACISOTGL
 70
     0
  3
_ _ _ _ _
 72
    65
 73
     2
 40
3.0
 49
2.0
 49
-1.0
  0
LTYPE
  2
CENTER
 70
     0
  3
__ . __
 72
    65
 73
     4
 40
7.0
 49
4.0
 49
-1.0
 49
1.0
 49
-1.0
  0
LTYPE
  2
PHANTOM2
 70
     0
  3
Phantom (.5x) ___ _ _ ___ _ _ ___ _ _ ___ _ _
 72
    65
 73
     6
 40
31.75
 49
15.875
 49
-3.174999999999998
 49
3.174999999999998
 49
-3.174999999999998
 49
3.174999999999998
 49
-3.174999999999998
  0
LTYPE
  2
ACANSTGBM
 70
     0
  3
__ . . __ . .
 72
    65
 73
     6
 40
9.0
 49
4.0
 49
-1.0
 49
1.0
 49
-1.0
 49
1.0
 49
-1.0
  0
LTYPE
  2
ACANSTGLM
 70
     0
  3
_ _ _ _ _
 72
    65
 73
     2
 40
3.0
 49
2.0
 49
-1.0
  0
LTYPE
  2
GEN7
 70
     0
  3
____ . ____ . ____ . ____ . ____ . ____ . ____
 72
    65
 73
     4
 40
14.25
 49
9.75
 49
-1.5
 49
1.5
 49
-1.5
  0
LTYPE
  2
GEN3B
 70
     0
  3
 - - - - -
 72
    65
 73
     2
 40
1.0
 49
0.5
 49
-0.5
  0
LTYPE
  2
GEN7A
 70
     0
  3
__ . __ . __
 72
    65
 73
     4
 40
7.375
 49
4.75
 49
-0.875
 49
0.875
 49
-0.875
  0
LTYPE
  2
ACJISTGB
 70
     0
  3
__ . . __ . .
 72
    65
 73
     6
 40
9.0
 49
4.0
 49
-1.0
 49
1.0
 49
-1.0
 49
1.0
 49
-1.0
  0
LTYPE
  2
ACJISTGL
 70
     0
  3
_ _ _ _ _
 72
    65
 73
     2
 40
3.0
 49
2.0
 49
-1.0
  0
LTYPE
  2
HIDDEN
 70
     0
  3
Hidden __ __ __ __ __ __ __ __ __ __ __ __ __ _
 72
    65
 73
     2
 40
0.375
 49
0.25
 49
-0.125
  0
LTYPE
  2
CENTER2
 70
     0
  3
Center (.5x) ___ _ ___ _ ___ _ ___ _ ___ _ ___
 72
    65
 73
     4
 40
1.125
 49
0.75
 49
-0.125
 49
0.125
 49
-0.125
  0
LTYPE
  2
HIDDEN2
 70
     0
  3
Hidden (.5x) _ _ _ _ _ _ _ _ _ _ _ _ _ _ _ _ _
 72
    65
 73
     2
 40
0.1875
 49
0.125
 49
-0.0625
  0
LTYPE
  2
AMZIGZAG2
 70
     0
  3
/\/-/\/-/\/-/\/-/\/-/\/
 72
    65
 73
     2
 40
0.4401
 49
0.0001
 49
-0.4400000000000002
  0
LTYPE
  2
ACANSTGB
 70
     0
  3
__ . . __ . .
 72
    65
 73
     6
 40
0.35433070866
 49
0.15748031496
 49
-0.03937007874
 49
0.03937007874
 49
-0.03937007874
 49
0.03937007874
 49
-0.03937007874
  0
LTYPE
  2
ACANSTGL
 70
     0
  3
_ _ _ _ _
 72
    65
 73
     2
 40
0.11811023622
 49
0.07874015748
 49
-0.03937007874
  0
ENDTAB
  0
TABLE
  2
LAYER
 70
     7
  0
LAYER
  2
0
 70
     0
 62
     7
  6
CONTINUOUS
  0
LAYER
  2
AM_0
 70
     0
 62
     7
  6
CONTINUOUS
  0
LAYER
  2
AM_5
 70
     0
 62
     2
  6
CONTINUOUS
  0
LAYER
  2
DEFPOINTS
 70
     0
 62
     7
  6
CONTINUOUS
  0
LAYER
  2
ｶｸﾚｾﾝ2
 70
     0
 62
     3
  6
GEN3B
  0
LAYER
  2
ﾁｭｳｼﾝｾﾝ
 70
     0
 62
     1
  6
GEN7
  0
LAYER
  2
ﾁｭｳｼﾝｾﾝ1
 70
     0
 62
     1
  6
GEN7A
  0
ENDTAB
  0
TABLE
  2
STYLE
 70
     9
  0
STYLE
  2
STANDARD
 70
     0
 40
0.0
 41
0.8299999999999999
 50
0.0
 71
     0
 42
2.5
  3
txt.shx
  4
bigfont.shx
  0
STYLE
  2
ANNOTATIVE
 70
     0
 40
0.0
 41
1.0
 50
0.0
 71
     0
 42
0.2
  3
txt
  4

  0
STYLE
  2

 70
     1
 40
0.0
 41
1.0
 50
0.0
 71
     0
 42
2.5
  3
ltypeshp.shx
  4

  0
STYLE
  2
ACISOTS
 70
     0
 40
1.0
 41
1.0
 50
0.0
 71
     0
 42
2.5
  3
isocp.shx
  4
extfont.shx
  0
STYLE
  2
ACISOGDT
 70
     0
 40
0.0
 41
1.0
 50
0.0
 71
     0
 42
2.5
  3
amgdt.shx
  4

  0
STYLE
  2
ACANSTS
 70
     0
 40
1.0
 41
1.0
 50
0.0
 71
     0
 42
2.5
  3
romans.shx
  4
bigfont.shx
  0
STYLE
  2
ACANSGDT
 70
     0
 40
0.0
 41
1.0
 50
0.0
 71
     0
 42
2.5
  3
amgdt.shx
  4

  0
STYLE
  2
ACJISTS
 70
     0
 40
1.0
 41
1.0
 50
0.0
 71
     0
 42
2.5
  3
isocp.shx
  4
bigfont.shx
  0
STYLE
  2
ACJISGDT
 70
     0
 40
0.0
 41
1.0
 50
0.0
 71
     0
 42
2.5
  3
amgdt.shx
  4

  0
ENDTAB
  0
TABLE
  2
VIEW
 70
     6
  0
VIEW
  2
AM_VIEW1
 70
     0
 40
462.5
 10
416.07965009208078
 20
693.75
 41
832.15930018416213
 11
0.0
 21
0.0
 31
1.0
 12
0.0
 22
0.0
 32
0.0
 42
50.0
 43
0.0
 44
0.0
 50
0.0
 71
     0
  0
VIEW
  2
AM_VIEW2
 70
     0
 40
462.5
 10
1006.420349907918
 20
693.75
 41
832.15930018416213
 11
0.0
 21
0.0
 31
1.0
 12
0.0
 22
0.0
 32
0.0
 42
50.0
 43
0.0
 44
0.0
 50
0.0
 71
     0
  0
VIEW
  2
AM_VIEW3
 70
     0
 40
462.5
 10
416.07965009208078
 20
231.25
 41
832.15930018416213
 11
0.0
 21
0.0
 31
1.0
 12
0.0
 22
0.0
 32
0.0
 42
50.0
 43
0.0
 44
0.0
 50
0.0
 71
     0
  0
VIEW
  2
AM_VIEW4
 70
     0
 40
462.5
 10
1006.420349907918
 20
231.25
 41
832.15930018416213
 11
0.0
 21
0.0
 31
1.0
 12
0.0
 22
0.0
 32
0.0
 42
50.0
 43
0.0
 44
0.0
 50
0.0
 71
     0
  0
VIEW
  2
AM_VIEW5
 70
     0
 40
462.5
 10
711.24999999999966
 20
462.5
 41
832.15930018416179
 11
0.0
 21
0.0
 31
1.0
 12
0.0
 22
0.0
 32
0.0
 42
50.0
 43
0.0
 44
0.0
 50
0.0
 71
     0
  0
VIEW
  2
AM_VIEW6
 70
     0
 40
924.99075000000005
 10
711.24999999999966
 20
462.5
 41
1664.3019571823199
 11
0.0
 21
0.0
 31
1.0
 12
0.0
 22
0.0
 32
0.0
 42
50.0
 43
0.0
 44
0.0
 50
0.0
 71
     0
  0
ENDTAB
  0
TABLE
  2
UCS
 70
     0
  0
ENDTAB
  0
TABLE
  2
APPID
 70
    95
  0
APPID
  2
ACAD
 70
     0
  0
APPID
  2
ACADANNOTATIVE
 70
     0
  0
APPID
  2
MCAD_NO_VIS
 70
     0
  0
APPID
  2
ACAD_TEMP_GRAPHIC
 70
     0
  0
APPID
  2
ACATTRIBSERVICES
 70
     0
  0
APPID
  2
GENIUS_GENREC_14
 70
     0
  0
APPID
  2
GENIUS_GENOBJ-N-REC_13
 70
     0
  0
APPID
  2
GENIUS_GENODEF_13
 70
     0
  0
APPID
  2
GENIUS_GENOLIS_13
 70
     0
  0
APPID
  2
GENIUS_GENOBJ-N-TIT_13
 70
     0
  0
APPID
  2
GENIUS_GENOENT_13
 70
     0
  0
APPID
  2
GENIUS_GENTITLE_13
 70
     0
  0
APPID
  2
GENIUS_GENOREF_13
 70
     0
  0
APPID
  2
GENIUS_GENSCREG_15
 70
     0
  0
APPID
  2
GENIUS_GENOBJ-N-SDF_13
 70
     0
  0
APPID
  2
GENIUS_GENFIL_13
 70
     0
  0
APPID
  2
GENIUS_GENOBJ-N-CHA_13
 70
     0
  0
APPID
  2
GENIUS_GENDTOL_13
 70
     0
  0
APPID
  2
GENIUS_GENOBJ-N-FIL_13
 70
     0
  0
APPID
  2
AD_DRAW
 70
     0
  0
APPID
  2
DESIGNERASSEMBLIES
 70
     0
  0
APPID
  2
ASURF_PCURVE_APPNAME
 70
     0
  0
APPID
  2
GENIUS_GE3SECT_13
 70
     0
  0
APPID
  2
GENIUS_GENCFG_13
 70
     0
  0
APPID
  2
GENIUS_GE3CFG0_13
 70
     0
  0
APPID
  2
GENIUS_GENCFG0_13
 70
     0
  0
APPID
  2
GENIUS_GENCFG1_13
 70
     0
  0
APPID
  2
GENIUS_GENCFG2_13
 70
     0
  0
APPID
  2
GENIUS_GENCFG3_13
 70
     0
  0
APPID
  2
GENIUS_GENCFG4_13
 70
     0
  0
APPID
  2
GENIUS_GEVCFG0_13
 70
     0
  0
APPID
  2
GENIUS_GENHINW_13
 70
     0
  0
APPID
  2
GENIUS_FIRSTVISTXT_14
 70
     0
  0
APPID
  2
GENIUS_GENOBJ-N-LEADER_13
 70
     0
  0
APPID
  2
GEV_VCCNULL_SWITCH_OFF
 70
     0
  0
APPID
  2
GENIUS_GEFCFG0_13
 70
     0
  0
APPID
  2
GENIUS_GENZVEED_13
 70
     0
  0
APPID
  2
GENIUS_GENSCREG_13
 70
     0
  0
APPID
  2
GENIUS_DUMCFG0_13
 70
     0
  0
APPID
  2
GEVID936201362
 70
     0
  0
APPID
  2
GEVDC
 70
     0
  0
APPID
  2
GEVCON
 70
     0
  0
APPID
  2
VCC
 70
     0
  0
APPID
  2
GEVPT
 70
     0
  0
APPID
  2
GEVIT
 70
     0
  0
APPID
  2
GENBH
 70
     0
  0
APPID
  2
GEVMK
 70
     0
  0
APPID
  2
GENIUS_GENBH_13
 70
     0
  0
APPID
  2
GENIUS_GENOBJ-NBEHI-BHF_13
 70
     0
  0
APPID
  2
GENIUS_GENOBJ-NBEHI-BHB_13
 70
     0
  0
APPID
  2
GENIUS_GENOBJ-F-DESC_13
 70
     0
  0
APPID
  2
GENIUS_GEFDESC_14
 70
     0
  0
APPID
  2
GENIUS_GENOBJ-F-PART_13
 70
     0
  0
APPID
  2
GENIUS_GEFSTDP_13
 70
     0
  0
APPID
  2
GENIUS_GEFPARTINS_13
 70
     0
  0
APPID
  2
GENIUS_GENTRA_14
 70
     0
  0
APPID
  2
GENIUS_GENINF13_13
 70
     0
  0
APPID
  2
GENIUS_GENOBJ-N-INFOPT_13
 70
     0
  0
APPID
  2
GENIUS_GENOBJ-N-RSSYM_13
 70
     0
  0
APPID
  2
GENIUS_GENSYMENT_13
 70
     0
  0
APPID
  2
GENIUS_GENSCSYM_13
 70
     0
  0
APPID
  2
GENIUS_GEFINFNAM_13
 70
     0
  0
APPID
  2
GENIUS_GENOBJ-N-CEN_13
 70
     0
  0
APPID
  2
GENIUS_GENOBJ-N-CRS_13
 70
     0
  0
APPID
  2
GENIUS_GENOBJ-N-CRC_13
 70
     0
  0
APPID
  2
GENIUS_GENCRC_14
 70
     0
  0
APPID
  2
GEVID942827039
 70
     0
  0
APPID
  2
GEVID942827040
 70
     0
  0
APPID
  2
GEVID942827041
 70
     0
  0
APPID
  2
GENIUS_GENOBJ-F-SCPASSM_13
 70
     0
  0
APPID
  2
GENIUS_GENDIMSH_14
 70
     0
  0
APPID
  2
GEVID942827042
 70
     0
  0
APPID
  2
GEVID946020473
 70
     0
  0
APPID
  2
GEVID946020474
 70
     0
  0
APPID
  2
GEVID946020475
 70
     0
  0
APPID
  2
GENIUS_GENOBJ-N-HTC_13
 70
     0
  0
APPID
  2
GENIUS_GENHATCH_13
 70
     0
  0
APPID
  2
GEVID948854295
 70
     0
  0
APPID
  2
GEVID939402019
 70
     0
  0
APPID
  2
GEVID952919491
 70
     0
  0
APPID
  2
GEVID952919492
 70
     0
  0
APPID
  2
GENIUS_GEFWELD_13
 70
     0
  0
APPID
  2
GENIUS_GENOBJ-F-WELS_13
 70
     0
  0
APPID
  2
GEVID952919493
 70
     0
  0
APPID
  2
GENIUS_GENOBJ-N-RSBK_13
 70
     0
  0
APPID
  2
GENIUS_GENOBJ-N-LIB_13
 70
     0
  0
APPID
  2
GENIUS_GENSCALE_13
 70
     0
  0
APPID
  2
GEVID986376691
 70
     0
  0
APPID
  2
DCO15
 70
     0
  0
APPID
  2
ACAD_DSTYLE_DIMBREAK
 70
     0
  0
APPID
  2
ACAD_DSTYLE_DIMJAG
 70
     0
  0
APPID
  2
ACAD_NAV_VCDISPLAY
 70
     0
  0
APPID
  2
ACADANNOPO
 70
     0
  0
APPID
  2
ACAD_EXEMPT_FROM_CAD_STANDARDS
 70
     0
  0
APPID
  2
ACAD_MLEADERVER
 70
     0
  0
ENDTAB
  0
TABLE
  2
DIMSTYLE
 70
    22
  0
DIMSTYLE
  2
STANDARD
 70
     0
  3

  4

  5

  6

  7

 40
1.0
 41
0.18
 42
0.0625
 43
0.38
 44
0.18
 45
0.0
 46
0.0
 47
0.0
 48
0.0
140
0.18
141
0.09
142
0.0
143
25.399999999999999
144
1.0
145
0.0
146
1.0
147
0.09
 71
     0
 72
     0
 73
     1
 74
     1
 75
     0
 76
     0
 77
     0
 78
     0
170
     0
171
     2
172
     0
173
     0
174
     0
175
     0
176
     0
177
     0
178
     0
  0
DIMSTYLE
  2
ANNOTATIVE
 70
     0
  3

  4

  5

  6

  7

 40
1.0
 41
0.18
 42
0.0625
 43
0.38
 44
0.18
 45
0.0
 46
0.0
 47
0.0
 48
0.0
140
0.18
141
0.09
142
0.0
143
25.399999999999999
144
1.0
145
0.0
146
1.0
147
0.09
 71
     0
 72
     0
 73
     1
 74
     1
 75
     0
 76
     0
 77
     0
 78
     0
170
     0
171
     2
172
     0
173
     0
174
     0
175
     0
176
     0
177
     0
178
     0
  0
DIMSTYLE
  2
AM_ISO
 70
     0
  3

  4
"
  5

  6

  7

 40
1.0
 41
2.5
 42
1.0
 43
8.0
 44
0.6
 45
0.0
 46
0.0
 47
0.1
 48
0.1
140
2.5
141
0.0
142
0.0
143
0.0393701
144
1.0
145
0.0
146
0.71
147
0.8
 71
     0
 72
     0
 73
     0
 74
     0
 75
     0
 76
     0
 77
     1
 78
     8
170
     0
171
     2
172
     1
173
     0
174
     0
175
     0
176
   256
177
   256
178
     4
  0
DIMSTYLE
  2
AM_ISO$3
 70
     0
  3

  4
"
  5

  6

  7

 40
1.0
 41
2.5
 42
1.0
 43
8.0
 44
0.6
 45
0.0
 46
0.0
 47
0.1
 48
0.1
140
2.5
141
0.0
142
0.0
143
0.0393701
144
1.0
145
0.0
146
0.71
147
0.8
 71
     0
 72
     0
 73
     0
 74
     1
 75
     0
 76
     0
 77
     1
 78
     8
170
     0
171
     2
172
     0
173
     0
174
     0
175
     0
176
   256
177
   256
178
     4
  0
DIMSTYLE
  2
AM_ISO$4
 70
     0
  3

  4
"
  5

  6

  7

 40
1.0
 41
2.5
 42
1.0
 43
8.0
 44
0.6
 45
0.0
 46
0.0
 47
0.1
 48
0.1
140
2.5
141
0.0
142
0.0
143
0.0393701
144
1.0
145
0.0
146
0.71
147
0.8
 71
     0
 72
     0
 73
     0
 74
     1
 75
     0
 76
     0
 77
     1
 78
     8
170
     0
171
     2
172
     0
173
     0
174
     0
175
     0
176
   256
177
   256
178
     4
  0
DIMSTYLE
  2
AM_ISO$6
 70
     0
  3

  4
"
  5

  6

  7

 40
1.0
 41
2.5
 42
1.0
 43
8.0
 44
0.6
 45
0.0
 46
0.0
 47
0.1
 48
0.1
140
2.5
141
0.0
142
0.0
143
0.0393701
144
1.0
145
0.0
146
0.71
147
0.8
 71
     0
 72
     0
 73
     0
 74
     0
 75
     0
 76
     0
 77
     0
 78
     8
170
     0
171
     2
172
     1
173
     0
174
     0
175
     0
176
   256
177
   256
178
     4
  0
DIMSTYLE
  2
AM_ISO$7
 70
     0
  3

  4
"
  5

  6

  7

 40
1.0
 41
2.5
 42
1.0
 43
8.0
 44
0.6
 45
0.0
 46
0.0
 47
0.1
 48
0.1
140
2.5
141
0.0
142
0.0
143
0.0393701
144
1.0
145
0.0
146
0.71
147
0.8
 71
     0
 72
     0
 73
     0
 74
     0
 75
     0
 76
     0
 77
     1
 78
     8
170
     0
171
     2
172
     1
173
     0
174
     0
175
     0
176
   256
177
   256
178
     4
  0
DIMSTYLE
  2
AM_ISO$SF
 70
     0
  3

  4
"
  5

  6

  7

 40
1.0
 41
2.5
 42
1.0
 43
10.0
 44
1.0
 45
0.0
 46
0.0
 47
0.1
 48
0.1
140
3.5
141
0.0
142
0.0
143
0.0393701
144
1.0
145
0.0
146
0.71
147
1.5
 71
     0
 72
     0
 73
     0
 74
     0
 75
     1
 76
     1
 77
     1
 78
     8
170
     0
171
     2
172
     1
173
     0
174
     0
175
     0
176
   256
177
   256
178
     2
  0
DIMSTYLE
  2
AM_ISO$SH
 70
     0
  3

  4
"
  5

  6

  7

 40
1.0
 41
2.5
 42
1.0
 43
10.0
 44
1.0
 45
0.0
 46
0.0
 47
0.1
 48
0.1
140
3.5
141
0.0
142
0.0
143
0.0393701
144
2.0
145
0.0
146
0.71
147
1.5
 71
     0
 72
     0
 73
     0
 74
     0
 75
     1
 76
     1
 77
     1
 78
     8
170
     0
171
     2
172
     1
173
     1
174
     0
175
     0
176
   256
177
   256
178
     2
  0
DIMSTYLE
  2
AM_JIS
 70
     0
  3

  4
"
  5

  6

  7

 40
1.0
 41
2.5
 42
1.0
 43
7.0
 44
1.0
 45
0.0
 46
0.0
 47
0.1
 48
0.1000000001
140
2.5
141
0.0
142
0.0
143
0.0393701
144
1.0
145
0.0
146
0.71
147
1.0
 71
     0
 72
     0
 73
     0
 74
     0
 75
     0
 76
     0
 77
     3
 78
     8
170
     0
171
     2
172
     1
173
     0
174
     0
175
     0
176
   256
177
   256
178
     4
  0
DIMSTYLE
  2
AM_JIS$3
 70
     0
  3

  4
"
  5

  6

  7

 40
1.0
 41
2.5
 42
1.0
 43
7.0
 44
1.0
 45
0.0
 46
0.0
 47
0.1
 48
0.1000000001
140
2.5
141
0.0
142
0.0
143
0.0393701
144
1.0
145
0.0
146
0.71
147
1.0
 71
     0
 72
     0
 73
     0
 74
     1
 75
     0
 76
     0
 77
     3
 78
     8
170
     0
171
     2
172
     0
173
     0
174
     0
175
     0
176
   256
177
   256
178
     4
  0
DIMSTYLE
  2
AM_JIS$4
 70
     0
  3

  4
"
  5

  6

  7

 40
1.0
 41
2.5
 42
1.0
 43
7.0
 44
1.0
 45
0.0
 46
0.0
 47
0.1
 48
0.1000000001
140
2.5
141
0.0
142
0.0
143
0.0393701
144
1.0
145
0.0
146
0.71
147
1.0
 71
     0
 72
     0
 73
     0
 74
     0
 75
     0
 76
     0
 77
     3
 78
     8
170
     0
171
     2
172
     0
173
     0
174
     0
175
     0
176
   256
177
   256
178
     4
  0
DIMSTYLE
  2
AM_JIS$6
 70
     0
  3

  4
"
  5

  6

  7

 40
1.0
 41
2.5
 42
1.0
 43
7.0
 44
1.0
 45
0.0
 46
0.0
 47
0.1
 48
0.1000000001
140
2.5
141
0.0
142
0.0
143
0.0393701
144
1.0
145
0.0
146
0.71
147
1.0
 71
     0
 72
     0
 73
     0
 74
     0
 75
     0
 76
     0
 77
     0
 78
     8
170
     0
171
     2
172
     1
173
     0
174
     0
175
     0
176
   256
177
   256
178
     4
  0
DIMSTYLE
  2
AM_JIS$7
 70
     0
  3

  4
"
  5

  6

  7

 40
1.0
 41
2.5
 42
1.0
 43
7.0
 44
1.0
 45
0.0
 46
0.0
 47
0.1
 48
0.1000000001
140
2.5
141
0.0
142
0.0
143
0.0393701
144
1.0
145
0.0
146
0.71
147
1.0
 71
     0
 72
     0
 73
     0
 74
     0
 75
     0
 76
     0
 77
     3
 78
     8
170
     0
171
     2
172
     1
173
     0
174
     0
175
     0
176
   256
177
   256
178
     4
  0
DIMSTYLE
  2
AM_JIS$SF
 70
     0
  3

  4
"
  5

  6

  7

 40
1.0
 41
2.5
 42
1.0
 43
10.0
 44
1.0
 45
0.0
 46
0.0
 47
0.1
 48
0.1
140
3.5
141
0.0
142
0.0
143
0.0393701
144
1.0
145
0.0
146
0.71
147
1.5
 71
     0
 72
     0
 73
     0
 74
     0
 75
     1
 76
     1
 77
     3
 78
     8
170
     0
171
     2
172
     1
173
     0
174
     0
175
     0
176
   256
177
   256
178
     4
  0
DIMSTYLE
  2
AM_JIS$SH
 70
     0
  3

  4
"
  5

  6

  7

 40
1.0
 41
2.5
 42
1.0
 43
10.0
 44
1.0
 45
0.0
 46
0.0
 47
0.1
 48
0.1
140
3.5
141
0.0
142
0.0
143
0.0393701
144
1.0
145
0.0
146
0.71
147
1.5
 71
     0
 72
     0
 73
     0
 74
     0
 75
     1
 76
     0
 77
     3
 78
     8
170
     0
171
     2
172
     1
173
     1
174
     0
175
     0
176
   256
177
   256
178
     4
  0
DIMSTYLE
  2
AM_ANSI
 70
     0
  3

  4
mm
  5

  6

  7

 40
1.0
 41
0.1
 42
0.05
 43
0.5
 44
0.1
 45
0.0
 46
0.0
 47
0.1
 48
0.1
140
0.12
141
0.0
142
0.0
143
25.399999999999999
144
1.0
145
0.0
146
0.71
147
0.06
 71
     0
 72
     0
 73
     1
 74
     1
 75
     0
 76
     0
 77
     0
 78
     7
170
     0
171
     2
172
     0
173
     0
174
     0
175
     0
176
   256
177
   256
178
     2
  0
DIMSTYLE
  2
AM_ANSI$3
 70
     0
  3

  4
mm
  5

  6

  7

 40
1.0
 41
0.1
 42
0.05
 43
0.5
 44
0.1
 45
0.0
 46
0.0
 47
0.1
 48
0.1
140
0.12
141
0.0
142
0.0
143
25.399999999999999
144
1.0
145
0.0
146
0.71
147
0.06
 71
     0
 72
     0
 73
     1
 74
     1
 75
     0
 76
     0
 77
     0
 78
     7
170
     0
171
     2
172
     0
173
     0
174
     0
175
     0
176
   256
177
   256
178
     2
  0
DIMSTYLE
  2
AM_ANSI$4
 70
     0
  3

  4
mm
  5

  6

  7

 40
1.0
 41
0.1
 42
0.05
 43
0.5
 44
0.1
 45
0.0
 46
0.0
 47
0.1
 48
0.1
140
0.12
141
0.0
142
0.0
143
25.399999999999999
144
1.0
145
0.0
146
0.71
147
0.06
 71
     0
 72
     0
 73
     1
 74
     1
 75
     0
 76
     0
 77
     0
 78
     7
170
     0
171
     2
172
     0
173
     0
174
     0
175
     0
176
   256
177
   256
178
     2
  0
DIMSTYLE
  2
AM_ANSI$7
 70
     0
  3

  4
mm
  5

  6

  7

 40
1.0
 41
0.1
 42
0.05
 43
0.5
 44
0.1
 45
0.0
 46
0.0
 47
0.1
 48
0.1
140
0.24
141
0.0
142
0.0
143
25.399999999999999
144
1.0
145
0.0
146
0.71
147
0.06
 71
     0
 72
     0
 73
     1
 74
     1
 75
     0
 76
     0
 77
     0
 78
     7
170
     0
171
     2
172
     0
173
     0
174
     0
175
     0
176
   256
177
   256
178
     2
  0
DIMSTYLE
  2
AM_ANSI$SF
 70
     0
  3

  4
mm
  5

  6

  7

 40
1.0
 41
0.1
 42
0.05
 43
0.5
 44
0.1
 45
0.0
 46
0.0
 47
0.1
 48
0.1
140
0.12
141
0.0
142
0.0
143
25.399999999999999
144
1.0
145
0.0
146
0.71
147
0.06
 71
     0
 72
     0
 73
     1
 74
     1
 75
     1
 76
     1
 77
     0
 78
     7
170
     0
171
     2
172
     0
173
     0
174
     0
175
     0
176
   256
177
   256
178
     2
  0
DIMSTYLE
  2
AM_ANSI$SH
 70
     0
  3

  4
mm
  5

  6

  7

 40
1.0
 41
0.1
 42
0.05
 43
0.5
 44
0.1
 45
0.0
 46
0.0
 47
0.1
 48
0.1
140
0.12
141
0.0
142
0.0
143
25.399999999999999
144
1.0
145
0.0
146
0.71
147
0.06
 71
     0
 72
     0
 73
     1
 74
     1
 75
     1
 76
     1
 77
     0
 78
     7
170
     0
171
     2
172
     0
173
     1
174
     0
175
     0
176
   256
177
   256
178
     2
  0
ENDTAB
  0
ENDSEC
  0
SECTION
  2
BLOCKS
  0
BLOCK
  8
0
  2
$MODEL_SPACE
 70
     0
 10
0.0
 20
0.0
 30
0.0
  3
$MODEL_SPACE
  1

  0
ENDBLK
  5
380F
  8
0
  0
BLOCK
 67
     1
  8
0
  2
$PAPER_SPACE
 70
     0
 10
0.0
 20
0.0
 30
0.0
  3
$PAPER_SPACE
  1

  0
ENDBLK
  5
380B
 67
     1
  8
0
  0
BLOCK
  8
0
  2
GENAXEH
 70
     0
 10
0.0
 20
0.0
 30
0.0
  3
GENAXEH
  1

  0
LINE
  5
3552
  8
0
 10
-1.0
 20
0.0
 30
0.0
 11
1.0
 21
0.0
 31
0.0
  0
ENDBLK
  5
3553
  8
0
  0
BLOCK
  8
0
  2
_OPEN30
 70
     0
 10
0.0
 20
0.0
 30
0.0
  3
_OPEN30
  1

  0
LINE
  5
3556
  8
0
 62
     0
 10
-1.0
 20
0.26794919
 30
0.0
 11
0.0
 21
0.0
 31
0.0
  0
LINE
  5
3557
  8
0
 62
     0
 10
0.0
 20
0.0
 30
0.0
 11
-1.0
 21
-0.26794919
 31
0.0
  0
LINE
  5
3558
  8
0
 62
     0
 10
0.0
 20
0.0
 30
0.0
 11
-1.0
 21
0.0
 31
0.0
  0
ENDBLK
  5
3559
  8
0
  0
BLOCK
  8
0
  2
_NONE
 70
     0
 10
0.0
 20
0.0
 30
0.0
  3
_NONE
  1

  0
ENDBLK
  5
355C
  8
0
  0
BLOCK
  8
0
  2
_ACMFILLEDHALF
 70
     0
 10
0.0
 20
0.0
 30
0.0
  3
_ACMFILLEDHALF
  1

  0
TRACE
  5
3907
  8
AM_0
 62
     0
 10
-0.8
 20
0.0
 30
0.0
 11
-1.0
 21
0.166666666
 31
0.0
 12
0.0
 22
0.0
 32
0.0
 13
0.0
 23
0.0
 33
0.0
  0
LINE
  5
3908
  8
AM_0
 62
     0
 10
-1.0
 20
0.0
 30
0.0
 11
-0.8
 21
0.0
 31
0.0
  0
ENDBLK
  5
3906
  8
0
  0
ENDSEC
  0
SECTION
  2
ENTITIES
  0
LINE
  5
355E
  8
AM_0
 10
623.2858210761276
 20
836.17193292541742
 30
0.0
 11
693.28579107612768
 21
836.17193292541742
 31
0.0
  0
LINE
  5
355F
  8
AM_0
 10
623.2858210761276
 20
878.17193292541742
 30
0.0
 11
693.28579107612768
 21
878.17193292541742
 31
0.0
  0
LINE
  5
3560
  8
ﾁｭｳｼﾝｾﾝ
 10
309.47456753919653
 20
857.17193292541754
 30
0.0
 11
704.79976107612765
 21
857.17193292541754
 31
0.0
  0
POLYLINE
  5
3561
  8
AM_0
 66
     1
 10
0.0
 20
0.0
 30
0.0
  0
VERTEX
  5
3562
  8
AM_0
 10
521.21551107612765
 20
777.44038292541745
 30
0.0
 42
0.11075717
  0
VERTEX
  5
3563
  8
AM_0
 10
534.09645107612778
 20
787.34816292541745
 30
0.0
 42
0.20375769
  0
VERTEX
  5
3564
  8
AM_0
 10
536.35418107612725
 20
795.0136329254176
 30
0.0
  0
VERTEX
  5
3565
  8
AM_0
 10
521.58438107612778
 20
813.92878292541752
 30
0.0
 42
-1.0
  0
SEQEND
  5
3566
  8
AM_0
  0
ARC
  5
3567
  8
AM_0
 10
514.2858210761276
 20
807.60736292541753
 30
0.0
 40
2.0
 50
270.0
 51
0.0
  0
LINE
  5
3568
  8
AM_0
 10
485.0215310761277
 20
842.06274292541764
 30
0.0
 11
485.0215310761277
 21
745.52600292541763
 31
0.0
  0
LINE
  5
3569
  8
AM_0
 10
401.78575107612772
 20
737.67193292541754
 30
0.0
 11
401.78575107612772
 21
976.67193292541765
 31
0.0
  0
LINE
  5
356A
  8
AM_0
 10
414.78569107612759
 20
739.67193292541754
 30
0.0
 11
414.78569107612759
 21
975.17193292541765
 31
0.0
  0
LINE
  5
356B
  8
AM_0
 10
520.78582107612738
 20
779.60614292541743
 30
0.0
 11
520.78582107612738
 21
805.60736292541753
 31
0.0
  0
LINE
  5
356C
  8
AM_0
 10
591.28582107612749
 20
766.17193292541754
 30
0.0
 11
591.28582107612749
 21
948.17193292541754
 31
0.0
  0
LINE
  5
356D
  8
AM_0
 10
501.2858210761276
 20
717.43390292541756
 30
0.0
 11
501.2858210761276
 21
853.17187292541712
 31
0.0
  0
LINE
  5
356E
  8
AM_0
 10
613.2858210761276
 20
943.05249292541748
 30
0.0
 11
613.2858210761276
 21
771.29132292541749
 31
0.0
  0
LINE
  5
356F
  8
AM_0
 10
488.28569107612759
 20
720.96209292541744
 30
0.0
 11
488.28569107612759
 21
847.63250292541761
 31
0.0
  0
ARC
  5
3570
  8
AM_0
 10
448.28582107612772
 20
742.17193292541754
 30
0.0
 40
9.5
 50
151.72621999999819
 51
28.27376899999852
  0
ARC
  5
3571
  8
ｶｸﾚｾﾝ2
 10
448.28582107612772
 20
742.17193292541754
 30
0.0
 40
9.5
 50
28.273775999995959
 51
151.72621999999819
  0
LINE
  5
3572
  8
AM_0
 10
414.78569107612759
 20
770.49701292541761
 30
0.0
 11
485.0215310761277
 21
770.49701292541761
 31
0.0
  0
LINE
  5
3573
  8
AM_0
 10
414.78569107612759
 20
786.23913292541761
 30
0.0
 11
485.0215310761277
 21
786.23913292541761
 31
0.0
  0
LINE
  5
3574
  8
AM_0
 10
419.78569107612759
 20
746.67193292541754
 30
0.0
 11
481.83617107612758
 21
746.67193292541754
 31
0.0
  0
LINE
  5
3575
  8
AM_0
 10
431.07640107612769
 20
721.11346292541759
 30
0.0
 11
506.28575107612761
 21
717.17193292541765
 31
0.0
  0
ARC
  5
3576
  8
AM_0
 10
412.78575107612772
 20
739.67193292541754
 30
0.0
 40
2.0
 50
270.0
 51
0.0
  0
LINE
  5
3577
  8
AM_0
 10
427.28582107612772
 20
725.10797292541747
 30
0.0
 11
427.28582107612772
 21
746.67193292541754
 31
0.0
  0
LINE
  5
3578
  8
AM_0
 10
401.78575107612772
 20
737.67193292541754
 30
0.0
 11
412.78575107612772
 21
737.67193292541754
 31
0.0
  0
ARC
  5
3579
  8
AM_0
 10
431.2858210761276
 20
725.10797292541747
 30
0.0
 40
4.0
 50
180.00001000000091
 51
266.99999000000008
  0
LINE
  5
357A
  8
AM_0
 10
401.78575107612772
 20
757.44470292541723
 30
0.0
 11
412.78575107612772
 21
757.44470292541723
 31
0.0
  0
LINE
  5
357B
  8
AM_0
 10
401.78575107612772
 20
773.00103292541746
 30
0.0
 11
412.78575107612772
 21
773.00103292541746
 31
0.0
  0
LINE
  5
357C
  8
AM_0
 10
402.7646410761277
 20
782.73498292541763
 30
0.0
 11
413.79351107612769
 21
782.73498292541763
 31
0.0
  0
ARC
  5
357D
  8
AM_0
 10
419.78569107612759
 20
741.67193292541754
 30
0.0
 40
5.0
 50
90.00000299999769
 51
180.00001000000091
  0
ARC
  5
357E
  8
AM_0
 10
412.78575107612772
 20
759.44470292541723
 30
0.0
 40
2.0
 50
270.0
 51
0.0
  0
ARC
  5
357F
  8
AM_0
 10
412.78575107612772
 20
775.00110292541763
 30
0.0
 40
2.0
 50
270.0
 51
0.0
  0
ARC
  5
3580
  8
AM_0
 10
545.72515107612776
 20
724.00384292541764
 30
0.0
 40
10.0
 50
91.999998000000545
 51
136.5170399999985
  0
LINE
  5
3581
  8
AM_0
 10
518.21605107612766
 20
734.61248292541745
 30
0.0
 11
542.81902107612746
 21
735.47162292541759
 31
0.0
  0
LINE
  5
3582
  8
AM_0
 10
506.28575107612761
 20
717.17193292541765
 30
0.0
 11
615.42534107612778
 21
720.98315292541747
 31
0.0
  0
LINE
  5
3583
  8
AM_0
 10
516.28582107612749
 20
730.49676292541744
 30
0.0
 11
516.28582107612749
 21
777.60614292541743
 31
0.0
  0
LINE
  5
3584
  8
AM_0
 10
490.21599107612769
 20
728.42810292541753
 30
0.0
 11
501.28575107612772
 21
728.04156292541745
 31
0.0
  0
ARC
  5
3585
  8
AM_0
 10
491.28569107612759
 20
720.96209292541744
 30
0.0
 40
3.0
 50
180.00001000000091
 51
266.99999000000008
  0
LINE
  5
3586
  8
AM_0
 10
488.28575107612772
 20
727.42492292541749
 30
0.0
 11
480.90715107612772
 21
726.50067292541712
 31
0.0
  0
ARC
  5
3587
  8
AM_0
 10
480.2858210761276
 20
731.46197292541763
 30
0.0
 40
5.0
 50
180.00001000000091
 51
277.13983000000007
  0
ARC
  5
3588
  8
AM_0
 10
490.28582107612772
 20
730.42694292541762
 30
0.0
 40
2.0
 50
179.9999899999988
 51
268.00000999999861
  0
ARC
  5
3589
  8
AM_0
 10
518.2858210761276
 20
732.61371292541764
 30
0.0
 40
2.0
 50
91.999998000000545
 51
180.00001000000091
  0
ARC
  5
358A
  8
AM_0
 10
514.2858210761276
 20
730.49676292541744
 30
0.0
 40
2.0
 50
272.00000000000369
 51
0.0
  0
LINE
  5
358B
  8
AM_0
 10
501.28575107612772
 20
728.04156292541745
 30
0.0
 11
514.35558107612746
 21
728.49792292541758
 31
0.0
  0
ARC
  5
358C
  8
AM_0
 10
521.84648107612736
 20
727.88989292541748
 30
0.0
 40
10.0
 50
272.00000000000369
 51
316.51703999999847
  0
LINE
  5
358D
  8
AM_0
 10
520.78582107612738
 20
720.93475292541746
 30
0.0
 11
520.78582107612738
 21
732.96710292541763
 31
0.0
  0
LINE
  5
358E
  8
AM_0
 10
529.10222107612765
 20
721.00848292541764
 30
0.0
 11
538.46935107612762
 21
730.8852529254176
 31
0.0
  0
LINE
  5
358F
  8
AM_0
 10
488.28569107612759
 20
779.60614292541743
 30
0.0
 11
514.2858210761276
 21
779.60614292541743
 31
0.0
  0
ARC
  5
3590
  8
AM_0
 10
481.83617107612758
 20
741.67193292541754
 30
0.0
 40
5.0
 50
24.99999999999935
 51
90.00000299999769
  0
ARC
  5
3591
  8
AM_0
 10
485.28575107612772
 20
739.0068329254176
 30
0.0
 40
3.0
 50
0.0
 51
24.99999999999935
  0
LINE
  5
3592
  8
AM_0
 10
486.36779107612767
 20
743.78497292541761
 30
0.0
 11
488.00463107612768
 21
740.27472292541745
 31
0.0
  0
ARC
  5
3593
  8
AM_0
 10
514.2858210761276
 20
777.60614292541743
 30
0.0
 40
2.0
 50
0.0
 51
90.00000299999769
  0
ARC
  5
3594
  8
AM_0
 10
520.31389107612767
 20
779.22564292541745
 30
0.0
 40
2.0
 50
270.0
 51
296.80019999999712
  0
ARC
  5
3595
  8
AM_0
 10
563.2858210761276
 20
742.62811292541744
 30
0.0
 40
8.0
 50
272.00000000000369
 51
0.0
  0
CIRCLE
  5
3596
  8
AM_0
 10
598.2858210761276
 20
742.17193292541754
 30
0.0
 40
9.5
  0
LINE
  5
3597
  8
AM_0
 10
571.28582107612726
 20
724.61944292541762
 30
0.0
 11
571.28582107612726
 21
742.62811292541744
 31
0.0
  0
LINE
  5
3598
  8
ﾁｭｳｼﾝｾﾝ1
 10
598.2858210761276
 20
724.67193292541754
 30
0.0
 11
598.2858210761276
 21
759.67193292541754
 31
0.0
  0
LINE
  5
3599
  8
AM_0
 10
619.2858210761276
 20
724.98071292541749
 30
0.0
 11
619.2858210761276
 21
764.36310292541759
 31
0.0
  0
LINE
  5
359A
  8
AM_0
 10
545.37609107612775
 20
733.99780292541743
 30
0.0
 11
563.56493107612766
 21
734.63293292541744
 31
0.0
  0
ARC
  5
359B
  8
AM_0
 10
576.2858210761276
 20
724.61944292541762
 30
0.0
 40
5.0
 50
180.00001000000091
 51
271.99999000000139
  0
ARC
  5
359C
  8
AM_0
 10
615.2858210761276
 20
724.98071292541749
 30
0.0
 40
4.0
 50
272.00000000000369
 51
0.0
  0
ARC
  5
359D
  8
AM_0
 10
583.28582107612738
 20
766.17193292541754
 30
0.0
 40
8.0
 50
270.0
 51
0.0
  0
LINE
  5
359E
  8
ﾁｭｳｼﾝｾﾝ1
 10
580.7858210761276
 20
742.17193292541754
 30
0.0
 11
615.7858210761276
 21
742.17193292541754
 31
0.0
  0
ARC
  5
359F
  8
AM_0
 10
581.2858210761276
 20
748.17193292541754
 30
0.0
 40
10.0
 50
90.00000299999769
 51
180.00001000000091
  0
LINE
  5
35A0
  8
AM_0
 10
571.28582107612726
 20
748.17193292541754
 30
0.0
 11
571.28582107612726
 21
742.62811292541744
 31
0.0
  0
LINE
  5
35A1
  8
AM_0
 10
581.2858210761276
 20
758.17193292541754
 30
0.0
 11
583.28582107612738
 21
758.17193292541754
 31
0.0
  0
ARC
  5
35A2
  8
AM_0
 10
598.8899410761278
 20
762.6350729254176
 30
0.0
 40
8.0
 50
91.999998000000545
 51
167.22924999999881
  0
ARC
  5
35A3
  8
AM_0
 10
608.28582107612738
 20
775.97113292541758
 30
0.0
 40
5.0
 50
272.00000000000369
 51
0.0
  0
LINE
  5
35A4
  8
AM_0
 10
598.61077107612766
 20
770.63018292541744
 30
0.0
 11
608.46025107612763
 21
770.97418292541761
 31
0.0
  0
ARC
  5
35A5
  8
AM_0
 10
615.2858210761276
 20
764.36310292541759
 30
0.0
 40
4.0
 50
0.0
 51
81.786789000000198
  0
ARC
  5
35A6
  8
AM_0
 10
616.28582107612749
 20
771.29132292541749
 30
0.0
 40
3.0
 50
180.00001000000091
 51
261.78677999999701
  0
ARC
  5
35A7
  8
ｶｸﾚｾﾝ2
 10
448.28582107612772
 20
972.17193292541765
 30
0.0
 40
9.5
 50
208.27378000000169
 51
331.72621999999808
  0
ARC
  5
35A8
  8
AM_0
 10
448.28582107612772
 20
972.17193292541765
 30
0.0
 40
9.5
 50
331.72621999999808
 51
208.27378000000169
  0
LINE
  5
35A9
  8
AM_0
 10
414.78569107612759
 20
928.10473292541758
 30
0.0
 11
485.0215310761277
 21
928.10473292541758
 31
0.0
  0
LINE
  5
35AA
  8
AM_0
 10
414.78569107612759
 20
943.84680292541782
 30
0.0
 11
485.0215310761277
 21
943.84680292541782
 31
0.0
  0
LINE
  5
35AB
  8
AM_0
 10
419.78569107612759
 20
967.67193292541765
 30
0.0
 11
481.83617107612758
 21
967.67193292541765
 31
0.0
  0
LINE
  5
35AC
  8
AM_0
 10
431.07640107612769
 20
993.23034292541763
 30
0.0
 11
506.28575107612761
 21
997.17187292541757
 31
0.0
  0
ARC
  5
35AD
  8
AM_0
 10
412.78575107612772
 20
939.34277292541765
 30
0.0
 40
2.0
 50
0.0
 51
90.00000299999769
  0
LINE
  5
35AE
  8
AM_0
 10
402.7646410761277
 20
931.60888292541745
 30
0.0
 11
413.79351107612769
 21
931.60888292541745
 31
0.0
  0
LINE
  5
35AF
  8
AM_0
 10
401.78575107612772
 20
976.67193292541765
 30
0.0
 11
412.78575107612772
 21
976.67193292541765
 31
0.0
  0
LINE
  5
35B0
  8
AM_0
 10
401.78575107612772
 20
956.89917292541747
 30
0.0
 11
412.78575107612772
 21
956.89917292541747
 31
0.0
  0
LINE
  5
35B1
  8
AM_0
 10
401.78575107612772
 20
941.34277292541765
 30
0.0
 11
412.78575107612772
 21
941.34277292541765
 31
0.0
  0
ARC
  5
35B2
  8
AM_0
 10
412.78575107612772
 20
974.67193292541742
 30
0.0
 40
2.0
 50
0.0
 51
90.00000299999769
  0
LINE
  5
35B3
  8
AM_0
 10
427.28582107612772
 20
989.23584292541761
 30
0.0
 11
427.28582107612772
 21
967.67193292541765
 31
0.0
  0
ARC
  5
35B4
  8
AM_0
 10
412.78575107612772
 20
954.89911292541763
 30
0.0
 40
2.0
 50
0.0
 51
90.00000299999769
  0
ARC
  5
35B5
  8
AM_0
 10
419.78569107612759
 20
972.67193292541765
 30
0.0
 40
5.0
 50
179.9999899999988
 51
270.0
  0
ARC
  5
35B6
  8
AM_0
 10
431.2858210761276
 20
989.23584292541761
 30
0.0
 40
4.0
 50
92.999999000001679
 51
180.00001000000091
  0
ARC
  5
35B7
  8
AM_0
 10
608.28582107612738
 20
938.37268292541751
 30
0.0
 40
5.0
 50
0.0
 51
87.999999999996248
  0
LINE
  5
35B8
  8
AM_0
 10
485.0215310761277
 20
968.81787292541753
 30
0.0
 11
485.0215310761277
 21
872.28112292541743
 31
0.0
  0
LINE
  5
35B9
  8
AM_0
 10
488.28569107612759
 20
866.71130292541761
 30
0.0
 11
488.28569107612759
 21
993.3816529254176
 31
0.0
  0
LINE
  5
35BA
  8
AM_0
 10
501.2858210761276
 20
861.17187292541746
 30
0.0
 11
501.2858210761276
 21
996.90985292541745
 31
0.0
  0
LINE
  5
35BB
  8
AM_0
 10
516.28582107612749
 20
983.84704292541755
 30
0.0
 11
516.28582107612749
 21
936.73767292541766
 31
0.0
  0
LINE
  5
35BC
  8
AM_0
 10
516.28582107612749
 20
807.60736292541753
 30
0.0
 11
516.28582107612749
 21
906.73645292541755
 31
0.0
  0
ARC
  5
35BD
  8
AM_0
 10
485.2858210761276
 20
857.17193292541754
 30
0.0
 40
10.0
 50
203.5782699999985
 51
336.4217200000013
  0
ARC
  5
35BE
  8
AM_0
 10
485.2858210761276
 20
857.17193292541754
 30
0.0
 40
10.0
 50
23.57803699999776
 51
156.42196000000081
  0
LINE
  5
35BF
  8
AM_0
 10
468.7858210761276
 20
861.17187292541746
 30
0.0
 11
501.7858210761276
 21
861.17187292541746
 31
0.0
  0
LINE
  5
35C0
  8
AM_0
 10
468.7858210761276
 20
853.17187292541712
 30
0.0
 11
501.7858210761276
 21
853.17187292541712
 31
0.0
  0
LINE
  5
35C1
  8
AM_0
 10
488.28569107612759
 20
805.60736292541753
 30
0.0
 11
514.2858210761276
 21
805.60736292541753
 31
0.0
  0
ARC
  5
35C2
  8
AM_0
 10
468.7858210761276
 20
857.17187292541701
 30
0.0
 40
3.9999962
 50
90.00000299999769
 51
270.0
  0
ARC
  5
35C3
  8
AM_0
 10
480.02153107612759
 20
842.06274292541764
 30
0.0
 40
5.0
 50
0.0
 51
70.790840000000372
  0
ARC
  5
35C4
  8
AM_0
 10
485.2858210761276
 20
857.17193292541754
 30
0.0
 40
11.0
 50
201.32377999999781
 51
262.81880000000041
  0
ARC
  5
35C5
  8
AM_0
 10
483.28569107612759
 20
841.29742292541744
 30
0.0
 40
5.0
 50
0.0
 51
82.818802999995938
  0
ARC
  5
35C6
  8
AM_0
 10
480.02153107612759
 20
872.28112292541743
 30
0.0
 40
5.0
 50
289.2091599999996
 51
0.0
  0
ARC
  5
35C7
  8
AM_0
 10
485.2858210761276
 20
857.17193292541754
 30
0.0
 40
11.0
 50
97.181195000004124
 51
158.67647999999841
  0
ARC
  5
35C8
  8
AM_0
 10
483.28569107612759
 20
873.04638292541745
 30
0.0
 40
5.0
 50
277.18119999999942
 51
0.0
  0
ARC
  5
35C9
  8
AM_0
 10
519.83538107612765
 20
811.49133292541751
 30
0.0
 40
3.0
 50
54.348324000004709
 51
90.00000299999769
  0
ARC
  5
35CA
  8
AM_0
 10
501.7858210761276
 20
857.17187292541701
 30
0.0
 40
3.9999962
 50
270.0
 51
90.00000299999769
  0
LINE
  5
35CB
  8
AM_0
 10
488.28569107612759
 20
934.73767292541766
 30
0.0
 11
514.2858210761276
 21
934.73767292541766
 31
0.0
  0
LINE
  5
35CC
  8
AM_0
 10
488.28569107612759
 20
908.73645292541767
 30
0.0
 11
514.2858210761276
 21
908.73645292541767
 31
0.0
  0
POLYLINE
  5
35CD
  8
AM_0
 66
     1
 10
0.0
 20
0.0
 30
0.0
  0
VERTEX
  5
35CE
  8
AM_0
 10
521.21551107612765
 20
936.90336292541724
 30
0.0
 42
-0.11075703
  0
VERTEX
  5
35CF
  8
AM_0
 10
534.0964810761277
 20
926.99565292541774
 30
0.0
 42
-0.20375918
  0
VERTEX
  5
35D0
  8
AM_0
 10
536.35418107612725
 20
919.33017292541763
 30
0.0
  0
VERTEX
  5
35D1
  8
AM_0
 10
521.58438107612778
 20
900.41503292541745
 30
0.0
 42
-1.0
  0
SEQEND
  5
35D2
  8
AM_0
  0
ARC
  5
35D3
  8
AM_0
 10
514.2858210761276
 20
906.73645292541755
 30
0.0
 40
2.0
 50
0.0
 51
90.00000299999769
  0
ARC
  5
35D4
  8
AM_0
 10
519.83538107612765
 20
902.85248292541746
 30
0.0
 40
3.0
 50
270.0
 51
305.65166999999718
  0
ARC
  5
35D5
  8
AM_0
 10
514.2858210761276
 20
936.73767292541766
 30
0.0
 40
2.0
 50
270.0
 51
0.0
  0
LINE
  5
35D6
  8
AM_0
 10
520.78582107612738
 20
934.73767292541766
 30
0.0
 11
520.78582107612738
 21
908.73645292541767
 31
0.0
  0
ARC
  5
35D7
  8
AM_0
 10
520.31389107612767
 20
935.11810292541782
 30
0.0
 40
2.0
 50
63.199809000002318
 51
90.00000299999769
  0
LINE
  5
35D8
  8
AM_0
 10
619.2858210761276
 20
896.92926292541745
 30
0.0
 11
619.2858210761276
 21
823.41455292541764
 31
0.0
  0
LINE
  5
35D9
  8
AM_0
 10
623.2858210761276
 20
834.67193292541765
 30
0.0
 11
623.2858210761276
 21
879.67193292541754
 31
0.0
  0
ARC
  5
35DA
  8
AM_0
 10
616.28582107612749
 20
823.41455292541764
 30
0.0
 40
3.0
 50
315.0
 51
0.0
  0
ARC
  5
35DB
  8
AM_0
 10
616.28582107612749
 20
823.41455292541764
 30
0.0
 40
3.0
 50
315.0
 51
0.0
  0
ARC
  5
35DC
  8
AM_0
 10
616.28582107612749
 20
814.92926292541745
 30
0.0
 40
3.0
 50
135.0
 51
180.00001000000091
  0
ARC
  5
35DD
  8
AM_0
 10
616.28582107612749
 20
814.92926292541745
 30
0.0
 40
3.0
 50
135.0
 51
180.00001000000091
  0
LINE
  5
35DE
  8
AM_0
 10
614.16460107612761
 20
817.05053292541766
 30
0.0
 11
618.40721107612762
 21
821.29321292541749
 31
0.0
  0
LINE
  5
35DF
  8
AM_0
 10
619.2858210761276
 20
834.67193292541765
 30
0.0
 11
623.2858210761276
 21
834.67193292541765
 31
0.0
  0
LINE
  5
35E0
  8
AM_0
 10
619.2858210761276
 20
879.67193292541754
 30
0.0
 11
623.2858210761276
 21
879.67193292541754
 31
0.0
  0
ARC
  5
35E1
  8
AM_0
 10
616.28582107612749
 20
896.92926292541745
 30
0.0
 40
3.0
 50
0.0
 51
44.999998000001611
  0
ARC
  5
35E2
  8
AM_0
 10
616.28582107612749
 20
896.92926292541745
 30
0.0
 40
3.0
 50
0.0
 51
45.000001000003799
  0
ARC
  5
35E3
  8
AM_0
 10
616.28582107612749
 20
905.41455292541764
 30
0.0
 40
3.0
 50
180.00001000000091
 51
225.0
  0
ARC
  5
35E4
  8
AM_0
 10
616.28582107612749
 20
905.41455292541764
 30
0.0
 40
3.0
 50
179.9999899999988
 51
225.0
  0
LINE
  5
35E5
  8
AM_0
 10
614.16454107612765
 20
903.29327292541745
 30
0.0
 11
618.40721107612762
 21
899.05060292541748
 31
0.0
  0
ARC
  5
35E6
  8
AM_0
 10
545.72515107612776
 20
990.33990292541762
 30
0.0
 40
10.0
 50
223.48296000000141
 51
267.99999999999631
  0
LINE
  5
35E7
  8
AM_0
 10
518.21599107612769
 20
979.73132292541766
 30
0.0
 11
542.81902107612746
 21
978.87219292541761
 31
0.0
  0
LINE
  5
35E8
  8
AM_0
 10
506.28575107612761
 20
997.17187292541757
 30
0.0
 11
615.42534107612778
 21
993.36065292541753
 31
0.0
  0
LINE
  5
35E9
  8
AM_0
 10
490.21605107612771
 20
985.91571292541755
 30
0.0
 11
501.28575107612772
 21
986.30224292541754
 31
0.0
  0
ARC
  5
35EA
  8
AM_0
 10
485.28575107612772
 20
975.33703292541782
 30
0.0
 40
3.0
 50
335.00000000000063
 51
0.0
  0
ARC
  5
35EB
  8
AM_0
 10
481.83617107612758
 20
972.67193292541765
 30
0.0
 40
5.0
 50
270.0
 51
335.00000000000063
  0
LINE
  5
35EC
  8
AM_0
 10
486.36772107612762
 20
970.55883292541762
 30
0.0
 11
488.00463107612768
 21
974.0691529254176
 31
0.0
  0
LINE
  5
35ED
  8
AM_0
 10
488.28575107612772
 20
986.91888292541751
 30
0.0
 11
480.90728107612767
 21
987.84314292541762
 31
0.0
  0
ARC
  5
35EE
  8
AM_0
 10
480.2858210761276
 20
982.88189292541745
 30
0.0
 40
5.0
 50
82.860167000000104
 51
180.00001000000091
  0
ARC
  5
35EF
  8
AM_0
 10
490.28582107612772
 20
983.91687292541758
 30
0.0
 40
2.0
 50
91.999998000000545
 51
180.00001000000091
  0
ARC
  5
35F0
  8
AM_0
 10
491.28569107612759
 20
993.3816529254176
 30
0.0
 40
3.0
 50
92.999999000001679
 51
180.00001000000091
  0
ARC
  5
35F1
  8
AM_0
 10
518.2858210761276
 20
981.73010292541755
 30
0.0
 40
2.0
 50
180.00001000000091
 51
267.99999999999631
  0
ARC
  5
35F2
  8
AM_0
 10
514.2858210761276
 20
983.84704292541755
 30
0.0
 40
2.0
 50
0.0
 51
87.999999999996248
  0
LINE
  5
35F3
  8
AM_0
 10
501.28575107612772
 20
986.30230292541762
 30
0.0
 11
514.35558107612746
 21
985.84588292541775
 31
0.0
  0
LINE
  5
35F4
  8
AM_0
 10
520.78582107612738
 20
981.45178292541755
 30
0.0
 11
520.78582107612738
 21
993.40521292541757
 31
0.0
  0
LINE
  5
35F5
  8
AM_0
 10
529.10228107612738
 20
993.33526292541762
 30
0.0
 11
538.46935107612762
 21
983.45855292541773
 31
0.0
  0
ARC
  5
35F6
  8
AM_0
 10
521.84648107612736
 20
986.45392292541749
 30
0.0
 40
10.0
 50
43.482964999999631
 51
87.999999999996248
  0
ARC
  5
35F7
  8
AM_0
 10
583.28582107612738
 20
948.17193292541754
 30
0.0
 40
8.0
 50
0.0
 51
90.00000299999769
  0
ARC
  5
35F8
  8
AM_0
 10
563.2858210761276
 20
971.71576292541761
 30
0.0
 40
8.0
 50
0.0
 51
87.999999999996248
  0
LINE
  5
35F9
  8
AM_0
 10
571.28582107612726
 20
989.72442292541746
 30
0.0
 11
571.28582107612726
 21
971.71576292541761
 31
0.0
  0
ARC
  5
35FA
  8
AM_0
 10
581.2858210761276
 20
966.17193292541765
 30
0.0
 40
10.0
 50
180.00001000000091
 51
270.0
  0
LINE
  5
35FB
  8
AM_0
 10
581.2858210761276
 20
956.17193292541765
 30
0.0
 11
583.28582107612738
 21
956.17193292541765
 31
0.0
  0
LINE
  5
35FC
  8
AM_0
 10
571.28582107612726
 20
966.17193292541765
 30
0.0
 11
571.28582107612726
 21
971.71576292541761
 31
0.0
  0
LINE
  5
35FD
  8
AM_0
 10
545.37609107612775
 20
980.34607292541762
 30
0.0
 11
563.56499107612763
 21
979.71087292541745
 31
0.0
  0
ARC
  5
35FE
  8
AM_0
 10
576.2858210761276
 20
989.72442292541746
 30
0.0
 40
5.0
 50
87.999999999996248
 51
180.00001000000091
  0
CIRCLE
  5
35FF
  8
AM_0
 10
598.2858210761276
 20
972.17193292541765
 30
0.0
 40
9.5
  0
LINE
  5
3600
  8
AM_0
 10
619.2858210761276
 20
989.36310292541782
 30
0.0
 11
619.2858210761276
 21
949.98071292541749
 31
0.0
  0
LINE
  5
3601
  8
AM_0
 10
598.61077107612766
 20
943.71362292541767
 30
0.0
 11
608.46025107612763
 21
943.36963292541748
 31
0.0
  0
ARC
  5
3602
  8
AM_0
 10
598.8899410761278
 20
951.70874292541748
 30
0.0
 40
8.0
 50
192.7707500000011
 51
267.99999999999631
  0
ARC
  5
3603
  8
AM_0
 10
615.2858210761276
 20
949.98071292541749
 30
0.0
 40
4.0
 50
278.2132199999964
 51
0.0
  0
ARC
  5
3604
  8
AM_0
 10
616.28582107612749
 20
943.05249292541748
 30
0.0
 40
3.0
 50
98.213209000002095
 51
180.00001000000091
  0
ARC
  5
3605
  8
AM_0
 10
615.2858210761276
 20
989.36310292541782
 30
0.0
 40
4.0
 50
0.0
 51
87.999999999996248
  0
LINE
  5
3606
  8
AM_0
 10
693.28579107612768
 20
836.17193292541742
 30
0.0
 11
693.28579107612768
 21
878.17193292541742
 31
0.0
  0
LINE
  5
3607
  8
AM_0
 10
637.28582107612749
 20
863.17187292541712
 30
0.0
 11
693.28579107612768
 21
863.17187292541712
 31
0.0
  0
LINE
  5
3608
  8
AM_0
 10
637.28582107612749
 20
851.17187292541746
 30
0.0
 11
693.28579107612768
 21
851.17187292541746
 31
0.0
  0
ARC
  5
3609
  8
AM_0
 10
637.28582107612749
 20
857.17187292541701
 30
0.0
 40
6.0000037999999991
 50
90.00000299999769
 51
270.0
  0
LINE
  5
360A
  8
AM_0
 10
637.28582107612749
 20
863.17187292541712
 30
0.0
 11
637.28582107612749
 21
851.17187292541746
 31
0.0
  0
LINE
  5
360B
  8
ﾁｭｳｼﾝｾﾝ1
 10
448.28582107612772
 20
724.67193292541754
 30
0.0
 11
448.28582107612772
 21
759.67193292541754
 31
0.0
  0
LINE
  5
360C
  8
ﾁｭｳｼﾝｾﾝ1
 10
430.7858210761276
 20
742.17193292541754
 30
0.0
 11
465.7858210761276
 21
742.17193292541754
 31
0.0
  0
LINE
  5
360D
  8
ﾁｭｳｼﾝｾﾝ1
 10
448.28582107612772
 20
954.67193292541765
 30
0.0
 11
448.28582107612772
 21
989.67193292541765
 31
0.0
  0
LINE
  5
360E
  8
ﾁｭｳｼﾝｾﾝ1
 10
430.7858210761276
 20
972.17193292541765
 30
0.0
 11
465.7858210761276
 21
972.17193292541765
 31
0.0
  0
LINE
  5
360F
  8
ﾁｭｳｼﾝｾﾝ1
 10
598.2858210761276
 20
954.67193292541765
 30
0.0
 11
598.2858210761276
 21
989.67193292541765
 31
0.0
  0
LINE
  5
3610
  8
ﾁｭｳｼﾝｾﾝ1
 10
580.7858210761276
 20
972.17193292541765
 30
0.0
 11
615.7858210761276
 21
972.17193292541765
 31
0.0
  0
ARC
  5
3611
  8
AM_0
 10
581.28579107612745
 20
504.38780803534718
 30
0.0
 40
10.0
 50
90.00000299999769
 51
180.00001000000091
  0
LINE
  5
3612
  8
AM_0
 10
579.28584107612755
 20
320.21495803534708
 30
0.0
 11
615.28579107612768
 21
320.21495803534708
 31
0.0
  0
LINE
  5
3613
  8
AM_0
 10
583.28579107612745
 20
365.8128280353472
 30
0.0
 11
574.76904107612756
 21
365.8128280353472
 31
0.0
  0
LINE
  5
3614
  8
AM_0
 10
518.21599107612781
 20
556.33755803534723
 30
0.0
 11
583.56494107612764
 21
554.0555580353473
 31
0.0
  0
LINE
  5
3615
  8
AM_0
 10
427.28579107612768
 20
295.21495803534708
 30
0.0
 11
619.28584107612755
 21
295.21495803534708
 31
0.0
  0
LINE
  5
3616
  8
ﾁｭｳｼﾝｾﾝ
 10
459.56124107612737
 20
470.21496303534718
 30
0.0
 11
701.23019107612765
 21
470.21496303534718
 31
0.0
  0
LINE
  5
3617
  8
AM_0
 10
571.28579107612745
 20
504.38780803534718
 30
0.0
 11
571.28579107612745
 21
328.21498803534712
 31
0.0
  0
LINE
  5
3618
  8
AM_0
 10
501.28579107612728
 20
353.7633630353472
 30
0.0
 11
501.28579107612728
 21
562.21495803534719
 31
0.0
  0
LINE
  5
3619
  8
AM_0
 10
488.28579107612728
 20
336.98915803534709
 30
0.0
 11
488.28579107612728
 21
559.82965803534705
 31
0.0
  0
LINE
  5
361A
  8
AM_0
 10
414.78579107612768
 20
314.71495803534719
 30
0.0
 11
414.78579107612768
 21
550.21495803534719
 31
0.0
  0
LINE
  5
361B
  8
AM_0
 10
401.78584107612761
 20
312.71495803534719
 30
0.0
 11
401.78584107612761
 21
551.71495803534685
 31
0.0
  0
LINE
  5
361C
  8
AM_0
 10
485.02159107612761
 20
543.86090803534705
 30
0.0
 11
485.02159107612761
 21
332.77736803534708
 31
0.0
  0
LINE
  5
361D
  8
AM_0
 10
320.7858410761275
 20
582.21496303534718
 30
0.0
 11
320.7858410761275
 21
282.21496303534718
 31
0.0
  0
LINE
  5
361E
  8
AM_0
 10
340.78584107612761
 20
579.21496303534707
 30
0.0
 11
340.78584107612761
 21
432.21496303534718
 31
0.0
  0
LINE
  5
361F
  8
AM_0
 10
521.6824410761277
 20
452.70250803534719
 30
0.0
 11
533.82104107612736
 21
438.7891180353472
 31
0.0
  0
LINE
  5
3620
  8
AM_0
 10
520.78579107612745
 20
444.70278303534718
 30
0.0
 11
520.78579107612745
 21
417.5906330353472
 31
0.0
  0
LINE
  5
3621
  8
AM_0
 10
343.74855607612761
 20
319.97824203534708
 30
0.0
 11
368.51884307612761
 21
331.03010403534722
 31
0.0
  0
LINE
  5
3622
  8
AM_0
 10
343.74855607612761
 20
335.53459203534709
 30
0.0
 11
368.51884307612761
 21
346.58645303534718
 31
0.0
  0
LINE
  5
3623
  8
AM_0
 10
398.0888490761277
 20
357.68120303534721
 30
0.0
 11
345.65495707612757
 21
356.30817303534718
 31
0.0
  0
LINE
  5
3624
  8
ﾁｭｳｼﾝｾﾝ
 10
309.47456753919653
 20
432.21496303534718
 30
0.0
 11
475.77651867782629
 21
432.21496303534718
 31
0.0
  0
LINE
  5
3625
  8
AM_0
 10
401.78584107612761
 20
314.214962975395
 30
0.0
 11
345.65495707612757
 21
312.7451240353472
 31
0.0
  0
LINE
  5
3626
  8
AM_0
 10
340.78584107612761
 20
285.21496303534718
 30
0.0
 11
340.78584107612761
 21
432.21496303534718
 31
0.0
  0
LINE
  5
3627
  8
AM_0
 10
320.7858410761275
 20
282.21496303534718
 30
0.0
 11
337.78584107612761
 21
282.21496303534718
 31
0.0
  0
ARC
  5
3628
  8
AM_0
 10
337.78584107612761
 20
285.21496303534718
 30
0.0
 40
3.0
 50
270.0
 51
0.0
  0
ARC
  5
3629
  8
AM_0
 10
345.7858410761275
 20
330.9684700353472
 30
0.0
 40
5.0
 50
114.0451930000017
 51
180.0
  0
ARC
  5
362A
  8
AM_0
 10
345.7858410761275
 20
307.74683803534708
 30
0.0
 40
5.0
 50
91.499999999996206
 51
180.0
  0
ARC
  5
362B
  8
AM_0
 10
345.7858410761275
 20
315.41212103534718
 30
0.0
 40
5.0
 50
114.0451930000017
 51
180.0
  0
ARC
  5
362C
  8
AM_0
 10
345.7858410761275
 20
351.30988603534718
 30
0.0
 40
5.0
 50
91.499999999996206
 51
150.7208910000015
  0
LINE
  5
362D
  8
ｶｸﾚｾﾝ2
 10
457.78579107612762
 20
320.21495803534708
 30
0.0
 11
457.78579107612762
 21
295.21495803534708
 31
0.0
  0
LINE
  5
362E
  8
ﾁｭｳｼﾝｾﾝ1
 10
448.2857910761274
 20
324.0651180353471
 30
0.0
 11
448.2857910761274
 21
288.23943303534708
 31
0.0
  0
LINE
  5
362F
  8
AM_0
 10
427.28579107612768
 20
316.21498803534712
 30
0.0
 11
427.28579107612768
 21
295.21495803534708
 31
0.0
  0
LINE
  5
3630
  8
ｶｸﾚｾﾝ2
 10
438.78579107612728
 20
320.21495803534708
 30
0.0
 11
438.78579107612728
 21
295.21495803534708
 31
0.0
  0
LINE
  5
3631
  8
AM_0
 10
431.28579107612728
 20
320.21495803534708
 30
0.0
 11
471.36449107612771
 21
320.21495803534708
 31
0.0
  0
LINE
  5
3632
  8
AM_0
 10
419.78579107612768
 20
321.71495803534708
 30
0.0
 11
476.02814107612778
 21
321.71495803534708
 31
0.0
  0
LINE
  5
3633
  8
AM_0
 10
414.78579107612768
 20
345.54003303534722
 30
0.0
 11
485.02159107612761
 21
345.54003303534722
 31
0.0
  0
LINE
  5
3634
  8
AM_0
 10
414.78579107612768
 20
361.28215803534721
 30
0.0
 11
485.02159107612761
 21
361.28215803534721
 31
0.0
  0
ARC
  5
3635
  8
AM_0
 10
412.78574107612769
 20
314.71495803534719
 30
0.0
 40
2.0000000500000001
 50
270.0
 51
0.0
  0
ARC
  5
3636
  8
AM_0
 10
412.78574107612769
 20
350.0440930353472
 30
0.0
 40
2.0000000500000001
 50
270.0
 51
0.0
  0
ARC
  5
3637
  8
AM_0
 10
412.78574107612769
 20
334.48772803534712
 30
0.0
 40
2.0000000500000001
 50
270.0
 51
0.0
  0
LINE
  5
3638
  8
AM_0
 10
402.7646410761277
 20
357.77800803534723
 30
0.0
 11
413.79359107612743
 21
357.77800803534723
 31
0.0
  0
LINE
  5
3639
  8
AM_0
 10
370.38163107612758
 20
331.46093603534712
 30
0.0
 11
398.78645107612772
 21
332.45285403534717
 31
0.0
  0
ARC
  5
363A
  8
AM_0
 10
370.5561290761276
 20
326.46398203534721
 30
0.0
 40
5.0
 50
91.999999999997087
 51
114.0451930000017
  0
LINE
  5
363B
  8
AM_0
 10
401.78584107612761
 20
312.71495803534719
 30
0.0
 11
412.78574107612769
 21
312.71495803534719
 31
0.0
  0
LINE
  5
363C
  8
AM_0
 10
398.78645107612772
 20
348.00920403534718
 30
0.0
 11
370.38163107612758
 21
347.0172850353473
 31
0.0
  0
LINE
  5
363D
  8
AM_0
 10
371.78584107612761
 20
333.49400503534719
 30
0.0
 11
371.78584107612761
 21
344.97420703534721
 31
0.0
  0
ARC
  5
363E
  8
AM_0
 10
370.5561290761276
 20
342.02033103534723
 30
0.0
 40
5.0
 50
91.999999999997087
 51
114.0451930000017
  0
LINE
  5
363F
  8
AM_0
 10
399.78584107612761
 20
356.1914560353473
 30
0.0
 11
399.78584107612761
 21
349.04410303534718
 31
0.0
  0
LINE
  5
3640
  8
AM_0
 10
398.78645107612772
 20
332.45285403534717
 30
0.0
 11
399.78584107612761
 21
333.48775403534711
 31
0.0
  0
LINE
  5
3641
  8
AM_0
 10
398.78645107612772
 20
348.00920403534718
 30
0.0
 11
399.78584107612761
 21
349.04410303534718
 31
0.0
  0
LINE
  5
3642
  8
AM_0
 10
398.78645107612772
 20
348.00920403534718
 30
0.0
 11
398.78645107612772
 21
332.45285403534717
 31
0.0
  0
LINE
  5
3643
  8
AM_0
 10
399.78584107612761
 20
349.04410303534718
 30
0.0
 11
399.78584107612761
 21
333.48775403534711
 31
0.0
  0
LINE
  5
3644
  8
AM_0
 10
401.78584107612761
 20
332.48775803534721
 30
0.0
 11
412.78574107612769
 21
332.48775803534721
 31
0.0
  0
LINE
  5
3645
  8
AM_0
 10
401.78584107612761
 20
348.0440930353472
 30
0.0
 11
412.78574107612769
 21
348.0440930353472
 31
0.0
  0
ARC
  5
3646
  8
AM_0
 10
431.28579107612728
 20
316.21498803534712
 30
0.0
 40
4.000000049999997
 50
90.00000299999769
 51
180.00001000000091
  0
ARC
  5
3647
  8
AM_0
 10
419.78579107612768
 20
316.71495803534719
 30
0.0
 40
5.0
 50
90.00000299999769
 51
180.00001000000091
  0
LINE
  5
3648
  8
AM_0
 10
506.28579107612728
 20
406.02688303534711
 30
0.0
 11
506.28579107612728
 21
361.92565303534718
 31
0.0
  0
LINE
  5
3649
  8
AM_0
 10
505.23784107612761
 20
358.86281803534712
 30
0.0
 11
477.6877910761275
 21
323.31438803534712
 31
0.0
  0
ARC
  5
364A
  8
AM_0
 10
471.36449107612771
 20
328.21498803534712
 30
0.0
 40
8.0
 50
270.0
 51
322.22431999999588
  0
ARC
  5
364B
  8
AM_0
 10
501.28579107612728
 20
361.92565303534718
 30
0.0
 40
5.0
 50
322.22431999999588
 51
0.0
  0
ARC
  5
364C
  8
AM_0
 10
579.28584107612755
 20
328.21498803534712
 30
0.0
 40
8.0
 50
180.00001000000091
 51
270.0
  0
LINE
  5
364D
  8
AM_0
 10
519.04344107612758
 20
414.30004303534707
 30
0.0
 11
532.27929107612749
 21
424.2100180353471
 31
0.0
  0
LINE
  5
364E
  8
AM_0
 10
488.28579107612728
 20
415.60466803534717
 30
0.0
 11
513.28579107612745
 21
415.60466803534717
 31
0.0
  0
LINE
  5
364F
  8
AM_0
 10
506.28579107612728
 20
406.02688303534711
 30
0.0
 11
516.28579107612745
 21
406.02688303534711
 31
0.0
  0
LINE
  5
3650
  8
AM_0
 10
516.28579107612745
 20
412.60463803534708
 30
0.0
 11
516.28579107612745
 21
406.02688303534711
 31
0.0
  0
ARC
  5
3651
  8
AM_0
 10
513.28579107612745
 20
412.60463803534708
 30
0.0
 40
3.0000000500000001
 50
0.0
 51
90.00000299999769
  0
ARC
  5
3652
  8
AM_0
 10
526.28579107612745
 20
432.21496303534718
 30
0.0
 40
10.0
 50
306.82304000000198
 51
41.102821999997772
  0
LINE
  5
3653
  8
AM_0
 10
343.74855607612761
 20
544.45168403534706
 30
0.0
 11
368.51884307612761
 21
533.39982303534725
 31
0.0
  0
LINE
  5
3654
  8
AM_0
 10
401.78584107612761
 20
550.21496309529937
 30
0.0
 11
345.65495707612757
 21
551.68480203534705
 31
0.0
  0
LINE
  5
3655
  8
AM_0
 10
343.74855607612761
 20
528.89533503534722
 30
0.0
 11
368.51884307612761
 21
517.84347403534719
 31
0.0
  0
LINE
  5
3656
  8
AM_0
 10
398.0888490761277
 20
506.74872403534721
 30
0.0
 11
345.65495707612757
 21
508.12175403534701
 31
0.0
  0
ARC
  5
3657
  8
AM_0
 10
345.7858410761275
 20
513.12004003534742
 30
0.0
 40
5.0
 50
209.2791089999983
 51
268.4999999999971
  0
ARC
  5
3658
  8
AM_0
 10
345.7858410761275
 20
549.01780603534723
 30
0.0
 40
5.0
 50
180.0
 51
245.9548069999982
  0
ARC
  5
3659
  8
AM_0
 10
345.7858410761275
 20
533.46145703534717
 30
0.0
 40
5.0
 50
180.0
 51
245.9548069999982
  0
LINE
  5
365A
  8
AM_0
 10
320.7858410761275
 20
582.21496303534718
 30
0.0
 11
337.78584107612761
 21
582.21496303534718
 31
0.0
  0
ARC
  5
365B
  8
AM_0
 10
345.7858410761275
 20
556.68308903534705
 30
0.0
 40
5.0
 50
180.0
 51
268.4999999999971
  0
ARC
  5
365C
  8
AM_0
 10
337.78584107612761
 20
579.21496303534707
 30
0.0
 40
3.0
 50
0.0
 51
90.0
  0
ARC
  5
365D
  8
AM_0
 10
485.28579107612728
 20
583.21495803534719
 30
0.0
 40
20.500000499999992
 50
304.61364000000401
 51
235.3863500000021
  0
CIRCLE
  5
365E
  8
AM_0
 10
485.28579107612728
 20
583.21495803534719
 30
0.0
 40
12.5
  0
LINE
  5
365F
  8
AM_0
 10
419.78579107612768
 20
542.71495803534708
 30
0.0
 11
481.83624107612758
 21
542.71495803534708
 31
0.0
  0
LINE
  5
3660
  8
AM_0
 10
414.78579107612768
 20
503.14776303534711
 30
0.0
 11
485.02159107612761
 21
503.14776303534711
 31
0.0
  0
LINE
  5
3661
  8
AM_0
 10
414.78579107612768
 20
518.88980803534719
 30
0.0
 11
485.02159107612761
 21
518.88980803534719
 31
0.0
  0
LINE
  5
3662
  8
AM_0
 10
399.78584107612761
 20
508.23847003534712
 30
0.0
 11
399.78584107612761
 21
515.38582403534735
 31
0.0
  0
LINE
  5
3663
  8
AM_0
 10
402.7646410761277
 20
506.65190803534711
 30
0.0
 11
413.79359107612743
 21
506.65190803534711
 31
0.0
  0
ARC
  5
3664
  8
AM_0
 10
412.78574107612769
 20
529.94215803534723
 30
0.0
 40
2.0000000500000001
 50
0.0
 51
90.00000299999769
  0
ARC
  5
3665
  8
AM_0
 10
412.78574107612769
 20
514.38580803534717
 30
0.0
 40
2.0000000500000001
 50
0.0
 51
90.00000299999769
  0
ARC
  5
3666
  8
AM_0
 10
412.78574107612769
 20
549.71495803534719
 30
0.0
 40
2.0000000500000001
 50
0.0
 51
90.00000299999769
  0
LINE
  5
3667
  8
AM_0
 10
370.38163107612758
 20
532.96899003534725
 30
0.0
 11
398.78645107612772
 21
531.97707203534719
 31
0.0
  0
LINE
  5
3668
  8
AM_0
 10
398.78645107612772
 20
516.42072303534735
 30
0.0
 11
370.38163107612758
 21
517.41264103534718
 31
0.0
  0
LINE
  5
3669
  8
AM_0
 10
371.78584107612761
 20
530.93592103534718
 30
0.0
 11
371.78584107612761
 21
519.45572003534721
 31
0.0
  0
ARC
  5
366A
  8
AM_0
 10
370.5561290761276
 20
522.40959503534725
 30
0.0
 40
5.0
 50
245.9548069999982
 51
268.0000000000029
  0
ARC
  5
366B
  8
AM_0
 10
370.5561290761276
 20
537.96594403534721
 30
0.0
 40
5.0
 50
245.9548069999982
 51
268.0000000000029
  0
LINE
  5
366C
  8
AM_0
 10
398.78645107612772
 20
516.42072303534735
 30
0.0
 11
398.78645107612772
 21
531.97707203534719
 31
0.0
  0
LINE
  5
366D
  8
AM_0
 10
399.78584107612761
 20
515.38582403534735
 30
0.0
 11
399.78584107612761
 21
530.9421730353472
 31
0.0
  0
LINE
  5
366E
  8
AM_0
 10
398.78645107612772
 20
516.42072303534735
 30
0.0
 11
399.78584107612761
 21
515.38582403534735
 31
0.0
  0
LINE
  5
366F
  8
AM_0
 10
401.78584107612761
 20
516.38580803534705
 30
0.0
 11
412.78574107612769
 21
516.38580803534705
 31
0.0
  0
LINE
  5
3670
  8
AM_0
 10
398.78645107612772
 20
531.97707203534719
 30
0.0
 11
399.78584107612761
 21
530.9421730353472
 31
0.0
  0
LINE
  5
3671
  8
AM_0
 10
401.78584107612761
 20
531.94220803534688
 30
0.0
 11
412.78574107612769
 21
531.94220803534688
 31
0.0
  0
LINE
  5
3672
  8
AM_0
 10
401.78584107612761
 20
551.71495803534685
 30
0.0
 11
412.78574107612769
 21
551.71495803534685
 31
0.0
  0
ARC
  5
3673
  8
AM_0
 10
419.78579107612768
 20
547.71495803534685
 30
0.0
 40
5.0
 50
179.9999899999988
 51
270.0
  0
LINE
  5
3674
  8
AM_0
 10
516.28579107612745
 20
450.22674303534689
 30
0.0
 11
516.28579107612745
 21
533.53925803534707
 31
0.0
  0
LINE
  5
3675
  8
AM_0
 10
488.28579107612728
 20
447.22674303534723
 30
0.0
 11
501.28579107612728
 21
447.22674303534723
 31
0.0
  0
LINE
  5
3676
  8
AM_0
 10
501.28579107612728
 20
447.22674303534723
 30
0.0
 11
513.28579107612745
 21
447.22674303534723
 31
0.0
  0
ARC
  5
3677
  8
AM_0
 10
513.28579107612745
 20
450.22674303534689
 30
0.0
 40
3.0000000500000001
 50
270.0
 51
0.0
  0
ARC
  5
3678
  8
AM_0
 10
519.42179107612765
 20
450.73025303534712
 30
0.0
 40
3.0000000500000001
 50
41.102821999997772
 51
90.00000299999769
  0
LINE
  5
3679
  8
AM_0
 10
517.65224107612755
 20
526.60875803534725
 30
0.0
 11
529.45359107612751
 21
530.55015803534707
 31
0.0
  0
LINE
  5
367A
  8
AM_0
 10
521.48479107612775
 20
554.39195803534687
 30
0.0
 11
531.31084107612776
 21
548.680858035347
 31
0.0
  0
LINE
  5
367B
  8
AM_0
 10
520.78579107612745
 20
531.69060803534705
 30
0.0
 11
520.78579107612745
 21
552.86380803534723
 31
0.0
  0
LINE
  5
367C
  8
AM_0
 10
474.28584107612761
 20
547.71495803534685
 30
0.0
 11
474.28584107612761
 21
560.21495803534685
 31
0.0
  0
LINE
  5
367D
  8
AM_0
 10
486.36779107612739
 20
545.60185803534705
 30
0.0
 11
488.00469107612759
 21
549.11215803534708
 31
0.0
  0
LINE
  5
367E
  8
AM_0
 10
488.28579107612728
 20
536.53925803534707
 30
0.0
 11
501.28579107612728
 21
536.53925803534707
 31
0.0
  0
ARC
  5
367F
  8
AM_0
 10
481.83624107612758
 20
547.71495803534685
 30
0.0
 40
5.0
 50
270.0
 51
335.00000000000063
  0
ARC
  5
3680
  8
AM_0
 10
469.28584107612738
 20
547.71495803534685
 30
0.0
 40
5.0
 50
270.0
 51
0.0
  0
ARC
  5
3681
  8
AM_0
 10
520.29809107612755
 20
530.65525803534706
 30
0.0
 40
3.0000000500000001
 50
270.0
 51
288.46821999999901
  0
LINE
  5
3682
  8
AM_0
 10
501.28579107612728
 20
536.53925803534707
 30
0.0
 11
513.28579107612745
 21
536.53925803534707
 31
0.0
  0
ARC
  5
3683
  8
AM_0
 10
513.28579107612745
 20
533.53925803534707
 30
0.0
 40
3.0000000500000001
 50
0.0
 51
90.00000299999769
  0
ARC
  5
3684
  8
AM_0
 10
499.20269107612762
 20
563.05145803534685
 30
0.0
 40
4.000000049999997
 50
124.6136499999977
 51
187.86822000000149
  0
LINE
  5
3685
  8
AM_0
 10
489.54174107612738
 20
553.45850803534722
 30
0.0
 11
516.28579107612745
 21
553.45850803534722
 31
0.0
  0
LINE
  5
3686
  8
AM_0
 10
475.28569107612731
 20
562.21495803534719
 30
0.0
 11
501.28579107612728
 21
562.21495803534719
 31
0.0
  0
LINE
  5
3687
  8
AM_0
 10
490.21594107612742
 20
561.82835803534715
 30
0.0
 11
501.28579107612728
 21
562.21495803534719
 31
0.0
  0
LINE
  5
3688
  8
AM_0
 10
501.28579107612728
 20
554.7982580353472
 30
0.0
 11
488.28579107612728
 21
554.7982580353472
 31
0.0
  0
LINE
  5
3689
  8
AM_0
 10
475.28569107612731
 20
562.21490803534721
 30
0.0
 11
476.99794107612757
 21
568.60505803534716
 31
0.0
  0
ARC
  5
368A
  8
AM_0
 10
471.36879107612759
 20
563.05145803534685
 30
0.0
 40
4.000000049999997
 50
347.9293300000017
 51
55.386359000001512
  0
LINE
  5
368B
  8
AM_0
 10
495.28569107612742
 20
562.21495803534719
 30
0.0
 11
493.57354107612741
 21
568.60495803534707
 31
0.0
  0
ARC
  5
368C
  8
AM_0
 10
476.28579107612728
 20
560.21495803534685
 30
0.0
 40
2.0000000500000001
 50
90.00000299999769
 51
180.00001000000091
  0
ARC
  5
368D
  8
AM_0
 10
485.28579107612728
 20
550.38005803534725
 30
0.0
 40
3.0000000500000001
 50
335.00000000000063
 51
0.0
  0
ARC
  5
368E
  8
AM_0
 10
490.28579107612762
 20
559.82965803534705
 30
0.0
 40
2.0000000500000001
 50
91.999998000000545
 51
180.00001000000091
  0
LINE
  5
368F
  8
AM_0
 10
477.46864107612771
 20
569.21495803534685
 30
0.0
 11
493.10284107612762
 21
569.21495803534685
 31
0.0
  0
LINE
  5
3690
  8
AM_0
 10
477.78239107612762
 20
569.32960803534706
 30
0.0
 11
485.2858410761275
 21
570.71495803534719
 31
0.0
  0
ARC
  5
3691
  8
AM_0
 10
477.96394107612758
 20
568.3462080353471
 30
0.0
 40
1.0
 50
100.4607200000025
 51
164.99998999999869
  0
ARC
  5
3692
  8
AM_0
 10
492.60769107612771
 20
568.3462080353471
 30
0.0
 40
1.0
 50
15.000000000000741
 51
79.539281000002589
  0
LINE
  5
3693
  8
AM_0
 10
485.28564107612772
 20
570.71495803534719
 30
0.0
 11
492.78904107612772
 21
569.32960803534706
 31
0.0
  0
LINE
  5
3694
  8
AM_0
 10
501.28579107612728
 20
554.7982580353472
 30
0.0
 11
519.97724107612748
 21
554.7982580353472
 31
0.0
  0
LINE
  5
3695
  8
AM_0
 10
501.28579107612728
 20
562.21495803534719
 30
0.0
 11
514.35559107612767
 21
561.75855803534705
 31
0.0
  0
LINE
  5
3696
  8
AM_0
 10
516.28579107612745
 20
554.7982580353472
 30
0.0
 11
516.28579107612745
 21
559.7597580353472
 31
0.0
  0
ARC
  5
3697
  8
AM_0
 10
519.97724107612748
 20
551.79825803534709
 30
0.0
 40
3.0000000500000001
 50
59.83387800000353
 51
90.00000299999769
  0
ARC
  5
3698
  8
AM_0
 10
514.28584107612755
 20
559.7597580353472
 30
0.0
 40
2.0000000500000001
 50
0.0
 51
88.000000000002899
  0
ARC
  5
3699
  8
AM_0
 10
518.28579107612745
 20
558.33630803534697
 30
0.0
 40
2.0000000500000001
 50
179.9999899999988
 51
268.00000999999861
  0
ARC
  5
369A
  8
AM_0
 10
526.28579107612745
 20
540.03515803534685
 30
0.0
 40
10.0
 50
288.46820999999818
 51
59.83387800000353
  0
ARC
  5
369B
  8
AM_0
 10
950.31587098579905
 20
442.21496303534718
 30
0.0
 40
88.0
 50
0.0
 51
186.52497999999721
  0
CIRCLE
  5
369C
  8
AM_0
 10
950.31587098579905
 20
470.21496303534718
 30
0.0
 40
41.000000499999992
  0
LINE
  5
369D
  8
AM_0
 10
1044.315870985798
 20
513.84980803534722
 30
0.0
 11
1044.315870985798
 21
394.60033803534719
 31
0.0
  0
LINE
  5
369E
  8
AM_0
 10
856.31586598579895
 20
513.84980803534722
 30
0.0
 11
856.31586598579895
 21
398.20510303534712
 31
0.0
  0
LINE
  5
369F
  8
ﾁｭｳｼﾝｾﾝ
 10
950.31587098579905
 20
607.97322246395686
 30
0.0
 11
950.31587098579905
 21
294.24538303534712
 31
0.0
  0
ARC
  5
36A0
  8
AM_0
 10
950.31587098579905
 20
432.21496303534718
 30
0.0
 40
150.0
 50
91.528068594609366
 51
206.79976296867781
  0
ARC
  5
36A1
  8
AM_0
 10
950.31587098579905
 20
432.21496303534718
 30
0.0
 40
150.0
 50
333.2002302613302
 51
88.47193140539062
  0
LINE
  5
36A2
  8
AM_0
 10
613.28579107612745
 20
470.21496303534718
 30
0.0
 11
613.28579107612745
 21
323.96096303534722
 31
0.0
  0
LINE
  5
36A3
  8
AM_0
 10
591.28579107612745
 20
373.8128280353472
 30
0.0
 11
591.28579107612745
 21
546.06035803534724
 31
0.0
  0
LINE
  5
36A4
  8
AM_0
 10
619.28584107612755
 20
470.21496303534718
 30
0.0
 11
619.28584107612755
 21
436.45760803534711
 31
0.0
  0
LINE
  5
36A5
  8
AM_0
 10
826.77091598579875
 20
447.60653303534701
 30
0.0
 11
810.3542059857989
 21
315.83309303534708
 31
0.0
  0
LINE
  5
36A6
  8
AM_0
 10
813.24485598579895
 20
439.28597803534723
 30
0.0
 11
826.58475598579901
 21
452.62588303534721
 31
0.0
  0
LINE
  5
36A7
  8
AM_0
 10
1073.8608059857991
 20
447.60656303534722
 30
0.0
 11
1090.277525985799
 21
315.83312303534711
 31
0.0
  0
LINE
  5
36A8
  8
AM_0
 10
1038.315870985798
 20
442.21496303534718
 30
0.0
 11
1038.315870985798
 21
328.21498803534712
 31
0.0
  0
LINE
  5
36A9
  8
AM_0
 10
1087.386945985799
 20
439.28603803534719
 30
0.0
 11
1074.0470709857991
 21
452.6259130353472
 31
0.0
  0
ARC
  5
36AA
  8
AM_0
 10
1020.670330985798
 20
304.94564303534719
 30
0.0
 40
5.0
 50
13.819217000001251
 51
90.00000299999769
  0
ARC
  5
36AB
  8
AM_0
 10
1033.294050985799
 20
308.0508030353472
 30
0.0
 40
8.0
 50
182.9944600000008
 51
260.5117000000032
  0
ARC
  5
36AC
  8
AM_0
 10
1017.3158709857991
 20
307.21495803534708
 30
0.0
 40
8.0
 50
2.9944644000003162
 51
90.00000299999769
  0
LINE
  5
36AD
  8
ﾁｭｳｼﾝｾﾝ
 10
806.0503059857989
 20
432.21496303534718
 30
0.0
 11
1094.1703459857979
 21
432.21496303534718
 31
0.0
  0
LINE
  5
36AE
  8
AM_0
 10
869.31586598579895
 20
300.21495803534719
 30
0.0
 11
1031.6816559857971
 21
300.21495803534719
 31
0.0
  0
LINE
  5
36AF
  8
AM_0
 10
619.28584107612755
 20
316.21498803534712
 30
0.0
 11
619.28584107612755
 21
295.21495803534708
 31
0.0
  0
LINE
  5
36B0
  8
ﾁｭｳｼﾝｾﾝ1
 10
598.28579107612745
 20
324.0651180353471
 30
0.0
 11
598.28579107612745
 21
288.23943303534708
 31
0.0
  0
LINE
  5
36B1
  8
ｶｸﾚｾﾝ2
 10
588.78579107612745
 20
320.21495803534708
 30
0.0
 11
588.78579107612745
 21
295.21495803534708
 31
0.0
  0
LINE
  5
36B2
  8
ｶｸﾚｾﾝ2
 10
607.78579107612757
 20
320.21495803534708
 30
0.0
 11
607.78579107612757
 21
295.21495803534708
 31
0.0
  0
ARC
  5
36B3
  8
AM_0
 10
583.28579107612745
 20
373.8128280353472
 30
0.0
 40
8.0
 50
270.0
 51
0.0
  0
ARC
  5
36B4
  8
AM_0
 10
617.28579107612757
 20
323.96096303534722
 30
0.0
 40
4.000000049999997
 50
179.9999899999988
 51
255.52248999999699
  0
ARC
  5
36B5
  8
AM_0
 10
615.28579107612768
 20
316.21498803534712
 30
0.0
 40
4.000000049999997
 50
0.0
 51
90.00000299999769
  0
LINE
  5
36B6
  8
AM_0
 10
614.16454107612742
 20
430.09359303534723
 30
0.0
 11
618.40719107612745
 21
434.33623803534721
 31
0.0
  0
ARC
  5
36B7
  8
AM_0
 10
616.28579107612745
 20
427.97234803534718
 30
0.0
 40
3.0000000500000001
 50
135.0
 51
180.00001000000091
  0
ARC
  5
36B8
  8
AM_0
 10
616.28579107612745
 20
436.45760803534711
 30
0.0
 40
3.0000000500000001
 50
315.0
 51
0.0
  0
LINE
  5
36B9
  8
ｶｸﾚｾﾝ2
 10
844.8158959857991
 20
320.21495803534708
 30
0.0
 11
844.8158959857991
 21
295.21495803534708
 31
0.0
  0
LINE
  5
36BA
  8
ｶｸﾚｾﾝ2
 10
825.81586598579895
 20
320.21495803534708
 30
0.0
 11
825.81586598579895
 21
295.21495803534708
 31
0.0
  0
LINE
  5
36BB
  8
AM_0
 10
861.61588598579874
 20
316.21498803534712
 30
0.0
 11
861.61588598579874
 21
295.21495803534708
 31
0.0
  0
LINE
  5
36BC
  8
ﾁｭｳｼﾝｾﾝ1
 10
835.31586598579895
 20
324.0651180353471
 30
0.0
 11
835.31586598579895
 21
288.23943303534708
 31
0.0
  0
ARC
  5
36BD
  8
AM_0
 10
950.31587098579905
 20
432.21496303534718
 30
0.0
 40
150.0
 50
241.64236744464949
 51
298.35763255535028
  0
LINE
  5
36BE
  8
AM_0
 10
810.31585598579909
 20
315.21495803534719
 30
0.0
 11
810.31585598579909
 21
295.21495803534708
 31
0.0
  0
LINE
  5
36BF
  8
AM_0
 10
865.31586598579895
 20
296.21498803534712
 30
0.0
 11
865.31586598579895
 21
295.21495803534708
 31
0.0
  0
LINE
  5
36C0
  8
AM_0
 10
810.31585598579909
 20
295.21495803534708
 30
0.0
 11
865.31586598579895
 21
295.21495803534708
 31
0.0
  0
LINE
  5
36C1
  8
AM_0
 10
879.96140598579882
 20
309.94564303534708
 30
0.0
 11
1020.670330985798
 21
309.94564303534708
 31
0.0
  0
LINE
  5
36C2
  8
AM_0
 10
883.31586598579895
 20
315.21495803534719
 30
0.0
 11
1017.3158709857991
 21
315.21495803534719
 31
0.0
  0
ARC
  5
36C3
  8
AM_0
 10
950.31587098579905
 20
398.20510303534712
 30
0.0
 40
93.999994999999984
 50
179.9999899999988
 51
200.5819600000012
  0
LINE
  5
36C4
  8
AM_0
 10
862.31589598579899
 20
432.21496303534718
 30
0.0
 11
862.31589598579899
 21
328.21498803534712
 31
0.0
  0
ARC
  5
36C5
  8
AM_0
 10
854.31586598579895
 20
328.21498803534712
 30
0.0
 40
8.0
 50
270.0
 51
0.0
  0
ARC
  5
36C6
  8
AM_0
 10
857.61588598579897
 20
316.21498803534712
 30
0.0
 40
4.000000049999997
 50
0.0
 51
90.00000299999769
  0
LINE
  5
36C7
  8
AM_0
 10
815.31585598579898
 20
320.21495803534708
 30
0.0
 11
857.61588598579897
 21
320.21495803534708
 31
0.0
  0
ARC
  5
36C8
  8
AM_0
 10
815.31585598579898
 20
315.21495803534719
 30
0.0
 40
5.0
 50
90.00000299999769
 51
180.00001000000091
  0
ARC
  5
36C9
  8
AM_0
 10
883.31586598579895
 20
307.21495803534708
 30
0.0
 40
8.0
 50
90.00000299999769
 51
177.00553999999889
  0
ARC
  5
36CA
  8
AM_0
 10
867.33771598579904
 20
308.0508030353472
 30
0.0
 40
8.0
 50
279.48829999999663
 51
357.00553999999892
  0
ARC
  5
36CB
  8
AM_0
 10
869.31586598579895
 20
296.21498803534712
 30
0.0
 40
4.000000049999997
 50
99.488295999997277
 51
180.00001000000091
  0
ARC
  5
36CC
  8
AM_0
 10
879.96140598579882
 20
304.94564303534719
 30
0.0
 40
5.0
 50
90.00000299999769
 51
166.1807799999996
  0
LINE
  5
36CD
  8
AM_0
 10
813.24485598579895
 20
425.14385303534721
 30
0.0
 11
821.05582598579895
 21
417.33288303534709
 31
0.0
  0
ARC
  5
36CE
  8
AM_0
 10
817.52025598579894
 20
413.79738803534713
 30
0.0
 40
5.0
 50
352.89851999999883
 51
45.000001000003799
  0
ARC
  5
36CF
  8
AM_0
 10
950.31587098579905
 20
432.21496303534718
 30
0.0
 40
130.0
 50
187.37550999999999
 51
189.6244599999979
  0
ARC
  5
36D0
  8
AM_0
 10
816.43285598579882
 20
414.88479303534717
 30
0.0
 40
5.0
 50
7.375508100000534
 51
45.000001000003799
  0
ARC
  5
36D1
  8
AM_0
 10
820.31586598579884
 20
432.21496303534718
 30
0.0
 40
10.0
 50
135.0
 51
225.0
  0
LINE
  5
36D2
  8
AM_0
 10
1039.015880985799
 20
316.21498803534712
 30
0.0
 11
1039.015880985799
 21
295.21495803534708
 31
0.0
  0
LINE
  5
36D3
  8
ｶｸﾚｾﾝ2
 10
1074.815870985798
 20
320.21495803534708
 30
0.0
 11
1074.815870985798
 21
295.21495803534708
 31
0.0
  0
LINE
  5
36D4
  8
ｶｸﾚｾﾝ2
 10
1055.815870985798
 20
320.21495803534708
 30
0.0
 11
1055.815870985798
 21
295.21495803534708
 31
0.0
  0
LINE
  5
36D5
  8
ﾁｭｳｼﾝｾﾝ1
 10
1065.315885985799
 20
324.0651180353471
 30
0.0
 11
1065.315885985799
 21
288.23943303534708
 31
0.0
  0
LINE
  5
36D6
  8
AM_0
 10
1035.315870985798
 20
296.21498803534712
 30
0.0
 11
1035.315870985798
 21
295.21495803534708
 31
0.0
  0
LINE
  5
36D7
  8
AM_0
 10
1090.315885985799
 20
315.21495803534719
 30
0.0
 11
1090.315885985799
 21
295.21495803534708
 31
0.0
  0
LINE
  5
36D8
  8
AM_0
 10
1035.315870985798
 20
295.21495803534708
 30
0.0
 11
1090.315885985799
 21
295.21495803534708
 31
0.0
  0
ARC
  5
36D9
  8
AM_0
 10
950.31587098579905
 20
398.20510303534712
 30
0.0
 40
93.999994999999984
 50
339.95001999999999
 51
20.049975999999841
  0
LINE
  5
36DA
  8
AM_0
 10
1046.315870985798
 20
320.21495803534708
 30
0.0
 11
1085.3158859857981
 21
320.21495803534708
 31
0.0
  0
ARC
  5
36DB
  8
AM_0
 10
1031.315870985798
 20
296.21498803534712
 30
0.0
 40
4.000000049999997
 50
0.0
 51
80.511702000002984
  0
ARC
  5
36DC
  8
AM_0
 10
1046.315870985798
 20
328.21498803534712
 30
0.0
 40
8.0
 50
180.00001000000091
 51
270.0
  0
ARC
  5
36DD
  8
AM_0
 10
1043.015880985799
 20
316.21498803534712
 30
0.0
 40
4.000000049999997
 50
90.00000299999769
 51
180.00001000000091
  0
ARC
  5
36DE
  8
AM_0
 10
1043.315870985798
 20
364.26400303534712
 30
0.0
 40
5.0
 50
159.95003000000011
 51
180.00001000000091
  0
ARC
  5
36DF
  8
AM_0
 10
1085.3158859857981
 20
315.21495803534719
 30
0.0
 40
5.0
 50
0.0
 51
90.00000299999769
  0
ARC
  5
36E0
  8
AM_0
 10
1084.198895985799
 20
414.88479303534717
 30
0.0
 40
5.0
 50
135.0
 51
172.6244899999997
  0
LINE
  5
36E1
  8
AM_0
 10
1087.386945985799
 20
425.14388803534717
 30
0.0
 11
1079.5759709857989
 21
417.33291303534702
 31
0.0
  0
ARC
  5
36E2
  8
AM_0
 10
1043.315870985798
 20
432.14623803534721
 30
0.0
 40
5.0
 50
179.9999899999988
 51
200.04996999999969
  0
ARC
  5
36E3
  8
AM_0
 10
1083.1114959857989
 20
413.79738803534713
 30
0.0
 40
5.0
 50
135.0
 51
187.1014900000016
  0
ARC
  5
36E4
  8
AM_0
 10
950.31587098579905
 20
432.21496303534718
 30
0.0
 40
130.0
 50
350.37554999999838
 51
352.62448999999958
  0
ARC
  5
36E5
  8
AM_0
 10
1080.315885985799
 20
432.21496303534718
 30
0.0
 40
10.0
 50
315.0
 51
45.000001000003799
  0
ARC
  5
36E6
  8
AM_0
 10
950.31587098579905
 20
432.21496303534718
 30
0.0
 40
124.5
 50
7.1014839000006411
 51
172.89851999999871
  0
ARC
  5
36E7
  8
AM_0
 10
1015.3158709857991
 20
544.7982580353472
 30
0.0
 40
10.0
 50
15.000000000000741
 51
105.00000000000161
  0
LINE
  5
36E8
  8
AM_0
 10
623.28579107612745
 20
449.21496303534718
 30
0.0
 11
693.28579107612745
 21
449.21496303534718
 31
0.0
  0
LINE
  5
36E9
  8
AM_0
 10
637.28579107612757
 20
494.21496303534718
 30
0.0
 11
693.28579107612745
 21
494.21496303534718
 31
0.0
  0
LINE
  5
36EA
  8
AM_0
 10
623.28579107612745
 20
491.21499303534711
 30
0.0
 11
693.28579107612745
 21
491.21499303534711
 31
0.0
  0
LINE
  5
36EB
  8
AM_0
 10
613.28579107612745
 20
470.21496303534718
 30
0.0
 11
613.28579107612745
 21
527.21495803534685
 31
0.0
  0
LINE
  5
36EC
  8
AM_0
 10
614.16449107612755
 20
516.33625803534721
 30
0.0
 11
618.40719107612745
 21
512.09360803534707
 31
0.0
  0
LINE
  5
36ED
  8
AM_0
 10
623.28579107612745
 20
447.71496303534718
 30
0.0
 11
623.28579107612745
 21
492.7149630353473
 31
0.0
  0
LINE
  5
36EE
  8
AM_0
 10
619.28584107612755
 20
470.21496303534718
 30
0.0
 11
619.28584107612755
 21
509.9723580353471
 31
0.0
  0
LINE
  5
36EF
  8
AM_0
 10
619.28584107612755
 20
447.71496303534718
 30
0.0
 11
623.28579107612745
 21
447.71496303534718
 31
0.0
  0
LINE
  5
36F0
  8
AM_0
 10
619.28584107612755
 20
492.7149630353473
 30
0.0
 11
623.28579107612745
 21
492.7149630353473
 31
0.0
  0
ARC
  5
36F1
  8
AM_0
 10
616.28579107612745
 20
509.9723580353471
 30
0.0
 40
3.0000000500000001
 50
0.0
 51
45.000001000003799
  0
LINE
  5
36F2
  8
AM_0
 10
637.28579107612757
 20
494.21496303534718
 30
0.0
 11
637.28579107612757
 21
491.21499303534711
 31
0.0
  0
ARC
  5
36F3
  8
AM_0
 10
583.28579107612745
 20
546.06035803534724
 30
0.0
 40
8.0
 50
0.0
 51
88.000000000002899
  0
LINE
  5
36F4
  8
AM_0
 10
599.28584107612755
 20
530.21495803534708
 30
0.0
 11
610.28579107612745
 21
530.21495803534708
 31
0.0
  0
ARC
  5
36F5
  8
AM_0
 10
599.28584107612755
 20
538.21495803534719
 30
0.0
 40
8.0
 50
180.00001000000091
 51
270.0
  0
LINE
  5
36F6
  8
AM_0
 10
586.34404107612761
 20
514.38780803534723
 30
0.0
 11
581.28579107612745
 21
514.38780803534723
 31
0.0
  0
ARC
  5
36F7
  8
AM_0
 10
610.28579107612745
 20
527.21495803534685
 30
0.0
 40
3.0000000500000001
 50
0.0
 51
90.00000299999769
  0
ARC
  5
36F8
  8
AM_0
 10
616.28579107612745
 20
518.45755803534723
 30
0.0
 40
3.0000000500000001
 50
179.9999899999988
 51
225.0
  0
LINE
  5
36F9
  8
AM_0
 10
693.28579107612745
 20
449.21496303534718
 30
0.0
 11
693.28579107612745
 21
494.21496303534718
 31
0.0
  0
LINE
  5
36FA
  8
AM_0
 10
954.31587098579894
 20
599.21495803534719
 30
0.0
 11
954.31587098579894
 21
565.71495803534719
 31
0.0
  0
LINE
  5
36FB
  8
AM_0
 10
946.31587098579894
 20
599.21495803534719
 30
0.0
 11
946.31587098579894
 21
565.71495803534719
 31
0.0
  0
ARC
  5
36FC
  8
AM_0
 10
950.31587098579905
 20
432.21496303534718
 30
0.0
 40
130.0
 50
67.375506000002574
 51
112.62449000000299
  0
LINE
  5
36FD
  8
ﾁｭｳｼﾝｾﾝ
 10
877.82643655287654
 20
470.21496303534718
 30
0.0
 11
1022.699996803724
 21
470.21496303534718
 31
0.0
  0
ARC
  5
36FE
  8
AM_0
 10
950.31587098579905
 20
432.21496303534718
 30
0.0
 40
130.0
 50
127.3755000000037
 51
172.6244899999997
  0
ARC
  5
36FF
  8
AM_0
 10
823.04914598579899
 20
456.1614630353472
 30
0.0
 40
5.0
 50
315.0
 51
349.34382000000329
  0
ARC
  5
3700
  8
AM_0
 10
816.43285598579882
 20
449.54513303534708
 30
0.0
 40
5.0
 50
315.0
 51
352.62448999999958
  0
ARC
  5
3701
  8
AM_0
 10
885.31586598579895
 20
544.7982580353472
 30
0.0
 40
10.0
 50
74.99999899999662
 51
164.99998999999869
  0
LINE
  5
3702
  8
AM_0
 10
875.656625985799
 20
547.386458035347
 30
0.0
 11
870.77390598579882
 21
529.1638080353473
 31
0.0
  0
ARC
  5
3703
  8
AM_0
 10
865.94422598579865
 20
530.45785803534704
 30
0.0
 40
5.0
 50
310.6561800000004
 51
344.99999999999909
  0
ARC
  5
3704
  8
AM_0
 10
868.36600598579923
 20
539.49595803534714
 30
0.0
 40
5.0
 50
307.37551000000269
 51
344.99999999999909
  0
LINE
  5
3705
  8
AM_0
 10
887.90409598579879
 20
554.45750803534713
 30
0.0
 11
906.12669098579875
 21
549.57480803534725
 31
0.0
  0
ARC
  5
3706
  8
AM_0
 10
898.38273098579873
 20
556.82615803534725
 30
0.0
 40
5.0
 50
254.99999999999821
 51
292.62449000000288
  0
ARC
  5
3707
  8
AM_0
 10
907.42078598579917
 20
554.40440803534705
 30
0.0
 40
5.0
 50
254.99999999999821
 51
289.34382000000068
  0
ARC
  5
3708
  8
AM_0
 10
950.31587098579905
 20
470.21496303534718
 30
0.0
 40
20.9999985
 50
106.6015499999988
 51
73.398451999997818
  0
CIRCLE
  5
3709
  8
AM_5
 10
950.31587098579905
 20
470.21496303534718
 30
0.0
 40
5.0
  0
CIRCLE
  5
370A
  8
AM_0
 10
950.31587098579905
 20
470.21496303534718
 30
0.0
 40
3.5000000500000001
  0
LINE
  5
370B
  8
AM_0
 10
944.31587098579871
 20
494.21496303534718
 30
0.0
 11
944.31587098579871
 21
486.21499303534722
 31
0.0
  0
LINE
  5
370C
  8
AM_0
 10
956.31587098579882
 20
494.21496303534718
 30
0.0
 11
956.31587098579882
 21
486.21499303534722
 31
0.0
  0
LINE
  5
370D
  8
AM_0
 10
944.31587098579871
 20
486.21499303534722
 30
0.0
 11
956.31587098579882
 21
486.21499303534722
 31
0.0
  0
LINE
  5
370E
  8
AM_0
 10
944.31587098579871
 20
494.21496303534718
 30
0.0
 11
956.31587098579882
 21
494.21496303534718
 31
0.0
  0
LINE
  5
370F
  8
AM_0
 10
940.34730098579882
 20
561.83220803534709
 30
0.0
 11
942.02812098579909
 21
568.10505803534716
 31
0.0
  0
LINE
  5
3710
  8
AM_0
 10
960.2844659857991
 20
561.83220803534709
 30
0.0
 11
958.60365098579882
 21
568.10510803534714
 31
0.0
  0
ARC
  5
3711
  8
AM_0
 10
956.31587098579882
 20
565.71495803534719
 30
0.0
 40
2.0000000500000001
 50
179.9999899999988
 51
270.0
  0
ARC
  5
3712
  8
AM_0
 10
944.31587098579871
 20
565.71495803534719
 30
0.0
 40
2.0000000500000001
 50
270.0
 51
0.0
  0
LINE
  5
3713
  8
AM_0
 10
954.31587098579894
 20
569.47645803534715
 30
0.0
 11
957.8192559857988
 21
568.82965803534717
 31
0.0
  0
LINE
  5
3714
  8
AM_0
 10
946.31587098579894
 20
569.47645803534715
 30
0.0
 11
942.81245098579893
 21
568.82960803534706
 31
0.0
  0
ARC
  5
3715
  8
AM_0
 10
942.99403098579899
 20
567.8462080353471
 30
0.0
 40
1.0
 50
100.4607200000025
 51
164.99998999999869
  0
ARC
  5
3716
  8
AM_0
 10
957.63773598579871
 20
567.8462080353471
 30
0.0
 40
1.0
 50
15.000000000000741
 51
79.539281000002589
  0
LINE
  5
3717
  8
AM_0
 10
1012.727705985799
 20
554.45745803534714
 30
0.0
 11
994.50504598579903
 21
549.57475803534714
 31
0.0
  0
ARC
  5
3718
  8
AM_0
 10
993.21098098579921
 20
554.40440803534705
 30
0.0
 40
5.0
 50
250.65617999999921
 51
285.00000000000148
  0
ARC
  5
3719
  8
AM_0
 10
1002.249005985799
 20
556.82615803534725
 30
0.0
 40
5.0
 50
247.37550999999681
 51
285.00000000000148
  0
ARC
  5
371A
  8
AM_0
 10
950.31587098579905
 20
599.21495803534719
 30
0.0
 40
4.000000049999997
 50
359.999989999999
 51
179.9999899999988
  0
ARC
  5
371B
  8
AM_0
 10
950.31587098579905
 20
432.21496303534718
 30
0.0
 40
130.0
 50
7.375507199997366
 51
52.624493999996417
  0
ARC
  5
371C
  8
AM_0
 10
1084.198895985799
 20
449.54513303534708
 30
0.0
 40
5.0
 50
187.37550999999999
 51
225.0
  0
ARC
  5
371D
  8
AM_0
 10
1077.582595985798
 20
456.1614630353472
 30
0.0
 40
5.0
 50
190.6561799999964
 51
225.0
  0
LINE
  5
371E
  8
AM_0
 10
1024.975140985799
 20
547.38640803534724
 30
0.0
 11
1029.8578609857991
 21
529.1638080353473
 31
0.0
  0
ARC
  5
371F
  8
AM_0
 10
1034.687510985799
 20
530.45785803534704
 30
0.0
 40
5.0
 50
195.00001000000111
 51
229.34381999999951
  0
ARC
  5
3720
  8
AM_0
 10
1032.265760985799
 20
539.49595803534714
 30
0.0
 40
5.0
 50
195.00001000000111
 51
232.62449999999609
  0
LINE
  5
3721
  8
AM_0
 10
340.78575107612772
 20
1004.171937925417
 30
0.0
 11
340.78575107612772
 21
857.17193792541741
 31
0.0
  0
LINE
  5
3722
  8
AM_0
 10
320.78575107612772
 20
1007.171937925417
 30
0.0
 11
320.78575107612772
 21
707.17193792541752
 31
0.0
  0
LINE
  5
3723
  8
AM_0
 10
340.78575107612772
 20
710.17193792541752
 30
0.0
 11
340.78575107612772
 21
857.17193792541741
 31
0.0
  0
LINE
  5
3724
  8
AM_0
 10
343.74846607612778
 20
760.49156692541749
 30
0.0
 11
368.51875307612761
 21
771.54342792541763
 31
0.0
  0
LINE
  5
3725
  8
AM_0
 10
398.78636107612772
 20
772.96617892541747
 30
0.0
 11
398.78636107612772
 21
757.40982892541763
 31
0.0
  0
LINE
  5
3726
  8
AM_0
 10
371.78575107612772
 20
758.45097992541764
 30
0.0
 11
371.78575107612772
 21
769.9311819254176
 31
0.0
  0
LINE
  5
3727
  8
AM_0
 10
401.78575107612772
 20
739.17193786546522
 30
0.0
 11
345.6548670761278
 21
737.70209892541766
 31
0.0
  0
LINE
  5
3728
  8
AM_0
 10
370.38154107612769
 20
756.41791092541723
 30
0.0
 11
398.78636107612772
 21
757.40982892541763
 31
0.0
  0
LINE
  5
3729
  8
AM_0
 10
320.78575107612772
 20
707.17193792541752
 30
0.0
 11
337.78575107612772
 21
707.17193792541752
 31
0.0
  0
ARC
  5
372A
  8
AM_0
 10
337.78575107612772
 20
710.17193792541752
 30
0.0
 40
3.0
 50
270.0
 51
0.0
  0
LINE
  5
372B
  8
AM_0
 10
343.74846607612778
 20
744.93521692541754
 30
0.0
 11
368.51875307612761
 21
755.98707892541745
 31
0.0
  0
ARC
  5
372C
  8
AM_0
 10
345.78575107612772
 20
740.36909592541713
 30
0.0
 40
5.0
 50
114.0451930000017
 51
180.0
  0
ARC
  5
372D
  8
AM_0
 10
345.78575107612772
 20
732.70381292541765
 30
0.0
 40
5.0
 50
91.499999999996206
 51
180.0
  0
ARC
  5
372E
  8
AM_0
 10
345.78575107612772
 20
755.92544492541765
 30
0.0
 40
5.0
 50
114.0451930000017
 51
180.0
  0
ARC
  5
372F
  8
AM_0
 10
370.55603907612749
 20
751.42095692541761
 30
0.0
 40
5.0
 50
91.999999999997087
 51
114.0451930000017
  0
LINE
  5
3730
  8
AM_0
 10
398.78636107612772
 20
757.40982892541763
 30
0.0
 11
399.78575107612778
 21
758.44472892541762
 31
0.0
  0
LINE
  5
3731
  8
AM_0
 10
398.0887590761277
 20
782.63817792541784
 30
0.0
 11
345.6548670761278
 21
781.26514792541764
 31
0.0
  0
LINE
  5
3732
  8
AM_0
 10
398.78636107612772
 20
772.96617892541747
 30
0.0
 11
370.38154107612769
 21
771.97425992541764
 31
0.0
  0
ARC
  5
3733
  8
AM_0
 10
345.78575107612772
 20
776.26686092541763
 30
0.0
 40
5.0
 50
91.499999999996206
 51
150.7208910000015
  0
ARC
  5
3734
  8
AM_0
 10
370.55603907612749
 20
766.97730592541745
 30
0.0
 40
5.0
 50
91.999999999997087
 51
114.0451930000017
  0
LINE
  5
3735
  8
AM_0
 10
398.78636107612772
 20
772.96617892541747
 30
0.0
 11
399.78575107612778
 21
774.00107792541712
 31
0.0
  0
LINE
  5
3736
  8
AM_0
 10
398.78636107612772
 20
941.37769792541758
 30
0.0
 11
370.38154107612769
 21
942.36961592541752
 31
0.0
  0
LINE
  5
3737
  8
AM_0
 10
370.38154107612769
 20
957.92596492541759
 30
0.0
 11
398.78636107612772
 21
956.93404692541765
 31
0.0
  0
LINE
  5
3738
  8
AM_0
 10
398.0887590761277
 20
931.70569892541755
 30
0.0
 11
345.6548670761278
 21
933.07872892541764
 31
0.0
  0
LINE
  5
3739
  8
AM_0
 10
401.78575107612772
 20
975.1719379853696
 30
0.0
 11
345.6548670761278
 21
976.6417769254175
 31
0.0
  0
LINE
  5
373A
  8
AM_0
 10
343.74846607612778
 20
969.40865892541763
 30
0.0
 11
368.51875307612761
 21
958.3567979254176
 31
0.0
  0
LINE
  5
373B
  8
AM_0
 10
343.74846607612778
 20
953.85230992541756
 30
0.0
 11
368.51875307612761
 21
942.80044892541764
 31
0.0
  0
ARC
  5
373C
  8
AM_0
 10
345.78575107612772
 20
938.07701492541776
 30
0.0
 40
5.0
 50
209.2791089999985
 51
268.4999999999971
  0
ARC
  5
373D
  8
AM_0
 10
345.78575107612772
 20
958.41843192541751
 30
0.0
 40
5.0
 50
180.0
 51
245.9548069999982
  0
ARC
  5
373E
  8
AM_0
 10
370.55603907612749
 20
947.36656992541782
 30
0.0
 40
5.0
 50
245.9548069999982
 51
268.0000000000029
  0
ARC
  5
373F
  8
AM_0
 10
370.55603907612749
 20
962.92291892541766
 30
0.0
 40
5.0
 50
245.9548069999982
 51
268.0000000000029
  0
LINE
  5
3740
  8
AM_0
 10
371.78575107612772
 20
955.89289592541741
 30
0.0
 11
371.78575107612772
 21
944.41269492541755
 31
0.0
  0
ARC
  5
3741
  8
AM_0
 10
345.78575107612772
 20
981.64006392541762
 30
0.0
 40
5.0
 50
180.0
 51
268.4999999999971
  0
ARC
  5
3742
  8
AM_0
 10
345.78575107612772
 20
973.97478092541758
 30
0.0
 40
5.0
 50
180.0
 51
245.9548069999982
  0
LINE
  5
3743
  8
AM_0
 10
320.78575107612772
 20
1007.171937925417
 30
0.0
 11
337.78575107612772
 21
1007.171937925417
 31
0.0
  0
ARC
  5
3744
  8
AM_0
 10
337.78575107612772
 20
1004.171937925417
 30
0.0
 40
3.0
 50
0.0
 51
90.0
  0
LINE
  5
3745
  8
AM_0
 10
398.78636107612772
 20
941.37769792541758
 30
0.0
 11
398.78636107612772
 21
956.93404692541765
 31
0.0
  0
LINE
  5
3746
  8
AM_0
 10
398.78636107612772
 20
941.37769792541758
 30
0.0
 11
399.78575107612778
 21
940.34279892541758
 31
0.0
  0
LINE
  5
3747
  8
AM_0
 10
398.78636107612772
 20
956.93404692541765
 30
0.0
 11
399.78575107612778
 21
955.89914792541765
 31
0.0
  0
LINE
  5
3748
  8
AM_0
 10
399.78575107612778
 20
774.00107792541712
 30
0.0
 11
399.78575107612778
 21
758.44472892541762
 31
0.0
  0
LINE
  5
3749
  8
AM_0
 10
399.78575107612778
 20
781.14843092541776
 30
0.0
 11
399.78575107612778
 21
774.00107792541712
 31
0.0
  0
LINE
  5
374A
  8
AM_0
 10
399.78575107612778
 20
940.34279892541758
 30
0.0
 11
399.78575107612778
 21
955.89914792541765
 31
0.0
  0
LINE
  5
374B
  8
AM_0
 10
399.78575107612778
 20
933.19544492541741
 30
0.0
 11
399.78575107612778
 21
940.34279892541758
 31
0.0
  0
TEXT
  5
392C
  8
AM_0
 10
834.95886403260499
 20
911.2546572362337
 30
0.0
 40
20.0
  1
VX55-003A~VX55-010A
  0
ENDSEC
  0
EOF
