  0
SECTION
  2
HEADER
  9
$ACADVER
  1
AC1009
  9
$INSBASE
 10
0.0
 20
0.0
 30
0.0
  9
$EXTMIN
 10
277.46303921852132
 20
261.6442222668361
 30
-0.0000000349181948
  9
$EXTMAX
 10
1231.642420997543
 20
1094.786368628909
 30
0.0000000814935747
  9
$LIMMIN
 10
0.0
 20
0.0
  9
$LIMMAX
 10
1422.5
 20
925.0
  9
$ORTHOMODE
 70
     0
  9
$REGENMODE
 70
     1
  9
$FILLMODE
 70
     1
  9
$QTEXTMODE
 70
     0
  9
$MIRRTEXT
 70
     1
  9
$DRAGMODE
 70
     2
  9
$LTSCALE
 40
5.0
  9
$OSMODE
 70
   551
  9
$ATTMODE
 70
     1
  9
$TEXTSIZE
 40
2.5
  9
$TRACEWID
 40
1.0
  9
$TEXTSTYLE
  7
STANDARD
  9
$CLAYER
  8
AM_0
  9
$CELTYPE
  6
BYLAYER
  9
$CECOLOR
 62
   256
  9
$DIMSCALE
 40
1.0
  9
$DIMASZ
 40
2.5
  9
$DIMEXO
 40
1.0
  9
$DIMDLI
 40
8.0
  9
$DIMRND
 40
0.0
  9
$DIMDLE
 40
0.0
  9
$DIMEXE
 40
0.6
  9
$DIMTP
 40
0.1
  9
$DIMTM
 40
0.1
  9
$DIMTXT
 40
2.5
  9
$DIMCEN
 40
0.0
  9
$DIMTSZ
 40
0.0
  9
$DIMTOL
 70
     0
  9
$DIMLIM
 70
     0
  9
$DIMTIH
 70
     0
  9
$DIMTOH
 70
     0
  9
$DIMSE1
 70
     0
  9
$DIMSE2
 70
     0
  9
$DIMTAD
 70
     1
  9
$DIMZIN
 70
     8
  9
$DIMBLK
  1

  9
$DIMASO
 70
     1
  9
$DIMSHO
 70
     1
  9
$DIMPOST
  1

  9
$DIMAPOST
  1
"
  9
$DIMALT
 70
     0
  9
$DIMALTD
 70
     2
  9
$DIMALTF
 40
0.0393701
  9
$DIMLFAC
 40
1.0
  9
$DIMTOFL
 70
     1
  9
$DIMTVP
 40
0.0
  9
$DIMTIX
 70
     0
  9
$DIMSOXD
 70
     0
  9
$DIMSAH
 70
     0
  9
$DIMBLK1
  1

  9
$DIMBLK2
  1

  9
$DIMSTYLE
  2
AM_ISO
  9
$DIMCLRD
 70
   256
  9
$DIMCLRE
 70
   256
  9
$DIMCLRT
 70
     4
  9
$DIMTFAC
 40
0.71
  9
$DIMGAP
 40
0.8
  9
$LUNITS
 70
     2
  9
$LUPREC
 70
     2
  9
$SKETCHINC
 40
1.0
  9
$FILLETRAD
 40
25.0
  9
$AUNITS
 70
     0
  9
$AUPREC
 70
     0
  9
$MENU
  1
.
  9
$ELEVATION
 40
0.0
  9
$PELEVATION
 40
0.0
  9
$THICKNESS
 40
0.0
  9
$LIMCHECK
 70
     0
  9
$BLIPMODE
 70
     0
  9
$CHAMFERA
 40
10.0
  9
$CHAMFERB
 40
5.0
  9
$SKPOLY
 70
     0
  9
$TDCREATE
 40
2452066.775565139
  9
$TDUPDATE
 40
2458541.4787192708
  9
$TDINDWG
 40
0.0797355093
  9
$TDUSRTIMER
 40
0.0797353009
  9
$USRTIMER
 70
     1
  9
$ANGBASE
 50
0.0
  9
$ANGDIR
 70
     0
  9
$PDMODE
 70
     0
  9
$PDSIZE
 40
0.0
  9
$PLINEWID
 40
0.0
  9
$COORDS
 70
     1
  9
$SPLFRAME
 70
     0
  9
$SPLINETYPE
 70
     6
  9
$SPLINESEGS
 70
     8
  9
$ATTDIA
 70
     1
  9
$ATTREQ
 70
     1
  9
$HANDLING
 70
     1
  9
$HANDSEED
  5
36B0
  9
$SURFTAB1
 70
     6
  9
$SURFTAB2
 70
     6
  9
$SURFTYPE
 70
     6
  9
$SURFU
 70
     6
  9
$SURFV
 70
     6
  9
$UCSNAME
  2

  9
$UCSORG
 10
0.0
 20
0.0
 30
0.0
  9
$UCSXDIR
 10
1.0
 20
0.0
 30
0.0
  9
$UCSYDIR
 10
0.0
 20
1.0
 30
0.0
  9
$PUCSNAME
  2

  9
$PUCSORG
 10
0.0
 20
0.0
 30
0.0
  9
$PUCSXDIR
 10
1.0
 20
0.0
 30
0.0
  9
$PUCSYDIR
 10
0.0
 20
1.0
 30
0.0
  9
$USERI1
 70
     0
  9
$USERI2
 70
     0
  9
$USERI3
 70
     0
  9
$USERI4
 70
     0
  9
$USERI5
 70
     0
  9
$USERR1
 40
0.0
  9
$USERR2
 40
0.0
  9
$USERR3
 40
0.0
  9
$USERR4
 40
0.0
  9
$USERR5
 40
0.0
  9
$WORLDVIEW
 70
     1
  9
$SHADEDGE
 70
     3
  9
$SHADEDIF
 70
    70
  9
$TILEMODE
 70
     1
  9
$MAXACTVP
 70
    64
  9
$PLIMCHECK
 70
     0
  9
$PEXTMIN
 10
1.0000000000000000E+020
 20
1.0000000000000000E+020
 30
1.0000000000000000E+020
  9
$PEXTMAX
 10
-1.0000000000000000E+020
 20
-1.0000000000000000E+020
 30
-1.0000000000000000E+020
  9
$PLIMMIN
 10
0.0
 20
0.0
  9
$PLIMMAX
 10
420.0
 20
297.0
  9
$UNITMODE
 70
     0
  9
$VISRETAIN
 70
     1
  9
$PLINEGEN
 70
     0
  9
$PSLTSCALE
 70
     1
  0
ENDSEC
  0
SECTION
  2
TABLES
  0
TABLE
  2
VPORT
 70
     1
  0
VPORT
  2
*ACTIVE
 70
     0
 10
0.0
 20
0.0
 11
1.0
 21
1.0
 12
754.55273010803205
 22
678.21529544787279
 13
0.0
 23
0.0
 14
12.5
 24
12.5
 15
50.0
 25
50.0
 16
0.0
 26
0.0
 36
1.0
 17
0.0
 27
0.0
 37
0.0
 40
838.86165766433021
 41
1.7571592210767459
 42
50.0
 43
0.0
 44
0.0
 50
0.0
 51
0.0
 71
     0
 72
   100
 73
     1
 74
     3
 75
     0
 76
     0
 77
     0
 78
     0
  0
ENDTAB
  0
TABLE
  2
LTYPE
 70
    27
  0
LTYPE
  2
CONTINUOUS
 70
     0
  3
Solid line
 72
    65
 73
     0
 40
0.0
  0
LTYPE
  2
AM_ISO02W050
 70
     0
  3
__ __ __ __ __ __ __ __ __ __ __ __ __ __ __
 72
    65
 73
     2
 40
7.5
 49
6.0
 49
-1.5
  0
LTYPE
  2
AM_ISO08W050
 70
     0
  3
____ . ____ . ____ . ____ . ____ . ____ . ____
 72
    65
 73
     4
 40
18.0
 49
12.0
 49
-1.5
 49
3.0
 49
-1.5
  0
LTYPE
  2
AM_ISO09W050
 70
     0
  3
_____ . . _____ . . _____ . . ____ .. ____
 72
    65
 73
     6
 40
22.5
 49
12.0
 49
-1.5
 49
3.0
 49
-1.5
 49
3.0
 49
-1.5
  0
LTYPE
  2
AMCONSTR
 70
     0
  3
_______________________
 72
    65
 73
     2
 40
9999.0
 49
9999.0
 49
0.0
  0
LTYPE
  2
AM_ISO08W050X2
 70
     0
  3
__ . __ . __ . __ . __ . __
 72
    65
 73
     4
 40
9.0
 49
6.0
 49
-0.75
 49
1.5
 49
-0.75
  0
LTYPE
  2
AM_ISO02W050X2
 70
     0
  3
 _ _ _ _ _ _ _ _ _ _ _ _
 72
    65
 73
     2
 40
3.75
 49
3.0
 49
-0.75
  0
LTYPE
  2
AMZIGZAG
 70
     0
  3
/\/-/\/-/\/-/\/-/\/-/\/
 72
    65
 73
     2
 40
11.000099999999991
 49
0.0001
 49
-11.0
  0
LTYPE
  2
ACISOWELD
 70
     0
  3
_ _ _ _ _
 72
    65
 73
     2
 40
2.0
 49
2.0
 49
-1.0
  0
LTYPE
  2
ACISOTGB
 70
     0
  3
__ . . __ . .
 72
    65
 73
     6
 40
9.0
 49
4.0
 49
-1.0
 49
1.0
 49
-1.0
 49
1.0
 49
-1.0
  0
LTYPE
  2
ACISOTGL
 70
     0
  3
_ _ _ _ _
 72
    65
 73
     2
 40
3.0
 49
2.0
 49
-1.0
  0
LTYPE
  2
CENTER
 70
     0
  3
__ . __
 72
    65
 73
     4
 40
7.0
 49
4.0
 49
-1.0
 49
1.0
 49
-1.0
  0
LTYPE
  2
PHANTOM2
 70
     0
  3
Phantom (.5x) ___ _ _ ___ _ _ ___ _ _ ___ _ _
 72
    65
 73
     6
 40
31.75
 49
15.875
 49
-3.174999999999998
 49
3.174999999999998
 49
-3.174999999999998
 49
3.174999999999998
 49
-3.174999999999998
  0
LTYPE
  2
ACANSTGBM
 70
     0
  3
__ . . __ . .
 72
    65
 73
     6
 40
9.0
 49
4.0
 49
-1.0
 49
1.0
 49
-1.0
 49
1.0
 49
-1.0
  0
LTYPE
  2
ACANSTGLM
 70
     0
  3
_ _ _ _ _
 72
    65
 73
     2
 40
3.0
 49
2.0
 49
-1.0
  0
LTYPE
  2
GEN7
 70
     0
  3
____ . ____ . ____ . ____ . ____ . ____ . ____
 72
    65
 73
     4
 40
14.25
 49
9.75
 49
-1.5
 49
1.5
 49
-1.5
  0
LTYPE
  2
GEN3B
 70
     0
  3
 - - - - -
 72
    65
 73
     2
 40
1.0
 49
0.5
 49
-0.5
  0
LTYPE
  2
GEN7A
 70
     0
  3
__ . __ . __
 72
    65
 73
     4
 40
7.375
 49
4.75
 49
-0.875
 49
0.875
 49
-0.875
  0
LTYPE
  2
ACJISTGB
 70
     0
  3
__ . . __ . .
 72
    65
 73
     6
 40
9.0
 49
4.0
 49
-1.0
 49
1.0
 49
-1.0
 49
1.0
 49
-1.0
  0
LTYPE
  2
ACJISTGL
 70
     0
  3
_ _ _ _ _
 72
    65
 73
     2
 40
3.0
 49
2.0
 49
-1.0
  0
LTYPE
  2
HIDDEN
 70
     0
  3
Hidden __ __ __ __ __ __ __ __ __ __ __ __ __ _
 72
    65
 73
     2
 40
0.375
 49
0.25
 49
-0.125
  0
LTYPE
  2
CENTER2
 70
     0
  3
Center (.5x) ___ _ ___ _ ___ _ ___ _ ___ _ ___
 72
    65
 73
     4
 40
1.125
 49
0.75
 49
-0.125
 49
0.125
 49
-0.125
  0
LTYPE
  2
HIDDEN2
 70
     0
  3
Hidden (.5x) _ _ _ _ _ _ _ _ _ _ _ _ _ _ _ _ _
 72
    65
 73
     2
 40
0.1875
 49
0.125
 49
-0.0625
  0
LTYPE
  2
AMZIGZAG2
 70
     0
  3
/\/-/\/-/\/-/\/-/\/-/\/
 72
    65
 73
     2
 40
0.4401
 49
0.0001
 49
-0.4400000000000002
  0
LTYPE
  2
ACANSTGB
 70
     0
  3
__ . . __ . .
 72
    65
 73
     6
 40
0.35433070866
 49
0.15748031496
 49
-0.03937007874
 49
0.03937007874
 49
-0.03937007874
 49
0.03937007874
 49
-0.03937007874
  0
LTYPE
  2
ACANSTGL
 70
     0
  3
_ _ _ _ _
 72
    65
 73
     2
 40
0.11811023622
 49
0.07874015748
 49
-0.03937007874
  0
ENDTAB
  0
TABLE
  2
LAYER
 70
     7
  0
LAYER
  2
0
 70
     0
 62
     7
  6
CONTINUOUS
  0
LAYER
  2
AM_0
 70
     0
 62
     7
  6
CONTINUOUS
  0
LAYER
  2
AM_5
 70
     0
 62
     2
  6
CONTINUOUS
  0
LAYER
  2
DEFPOINTS
 70
     0
 62
     7
  6
CONTINUOUS
  0
LAYER
  2
ｶｸﾚｾﾝ2
 70
     0
 62
     3
  6
GEN3B
  0
LAYER
  2
ﾁｭｳｼﾝｾﾝ
 70
     0
 62
     1
  6
GEN7
  0
LAYER
  2
ﾁｭｳｼﾝｾﾝ1
 70
     0
 62
     1
  6
GEN7A
  0
ENDTAB
  0
TABLE
  2
STYLE
 70
     9
  0
STYLE
  2
STANDARD
 70
     0
 40
0.0
 41
0.8299999999999999
 50
0.0
 71
     0
 42
2.5
  3
txt.shx
  4
bigfont.shx
  0
STYLE
  2
ANNOTATIVE
 70
     0
 40
0.0
 41
1.0
 50
0.0
 71
     0
 42
0.2
  3
txt
  4

  0
STYLE
  2

 70
     1
 40
0.0
 41
1.0
 50
0.0
 71
     0
 42
2.5
  3
ltypeshp.shx
  4

  0
STYLE
  2
ACISOTS
 70
     0
 40
1.0
 41
1.0
 50
0.0
 71
     0
 42
2.5
  3
isocp.shx
  4
extfont.shx
  0
STYLE
  2
ACISOGDT
 70
     0
 40
0.0
 41
1.0
 50
0.0
 71
     0
 42
2.5
  3
amgdt.shx
  4

  0
STYLE
  2
ACANSTS
 70
     0
 40
1.0
 41
1.0
 50
0.0
 71
     0
 42
2.5
  3
romans.shx
  4
bigfont.shx
  0
STYLE
  2
ACANSGDT
 70
     0
 40
0.0
 41
1.0
 50
0.0
 71
     0
 42
2.5
  3
amgdt.shx
  4

  0
STYLE
  2
ACJISTS
 70
     0
 40
1.0
 41
1.0
 50
0.0
 71
     0
 42
2.5
  3
isocp.shx
  4
bigfont.shx
  0
STYLE
  2
ACJISGDT
 70
     0
 40
0.0
 41
1.0
 50
0.0
 71
     0
 42
2.5
  3
amgdt.shx
  4

  0
ENDTAB
  0
TABLE
  2
VIEW
 70
     6
  0
VIEW
  2
AM_VIEW1
 70
     0
 40
462.5
 10
416.07965009208078
 20
693.75
 41
832.15930018416213
 11
0.0
 21
0.0
 31
1.0
 12
0.0
 22
0.0
 32
0.0
 42
50.0
 43
0.0
 44
0.0
 50
0.0
 71
     0
  0
VIEW
  2
AM_VIEW2
 70
     0
 40
462.5
 10
1006.420349907918
 20
693.75
 41
832.15930018416213
 11
0.0
 21
0.0
 31
1.0
 12
0.0
 22
0.0
 32
0.0
 42
50.0
 43
0.0
 44
0.0
 50
0.0
 71
     0
  0
VIEW
  2
AM_VIEW3
 70
     0
 40
462.5
 10
416.07965009208078
 20
231.25
 41
832.15930018416213
 11
0.0
 21
0.0
 31
1.0
 12
0.0
 22
0.0
 32
0.0
 42
50.0
 43
0.0
 44
0.0
 50
0.0
 71
     0
  0
VIEW
  2
AM_VIEW4
 70
     0
 40
462.5
 10
1006.420349907918
 20
231.25
 41
832.15930018416213
 11
0.0
 21
0.0
 31
1.0
 12
0.0
 22
0.0
 32
0.0
 42
50.0
 43
0.0
 44
0.0
 50
0.0
 71
     0
  0
VIEW
  2
AM_VIEW5
 70
     0
 40
462.5
 10
711.24999999999966
 20
462.5
 41
832.15930018416179
 11
0.0
 21
0.0
 31
1.0
 12
0.0
 22
0.0
 32
0.0
 42
50.0
 43
0.0
 44
0.0
 50
0.0
 71
     0
  0
VIEW
  2
AM_VIEW6
 70
     0
 40
924.99075000000005
 10
711.24999999999966
 20
462.5
 41
1664.3019571823199
 11
0.0
 21
0.0
 31
1.0
 12
0.0
 22
0.0
 32
0.0
 42
50.0
 43
0.0
 44
0.0
 50
0.0
 71
     0
  0
ENDTAB
  0
TABLE
  2
UCS
 70
     0
  0
ENDTAB
  0
TABLE
  2
APPID
 70
    95
  0
APPID
  2
ACAD
 70
     0
  0
APPID
  2
ACADANNOTATIVE
 70
     0
  0
APPID
  2
MCAD_NO_VIS
 70
     0
  0
APPID
  2
ACAD_TEMP_GRAPHIC
 70
     0
  0
APPID
  2
ACATTRIBSERVICES
 70
     0
  0
APPID
  2
GENIUS_GENREC_14
 70
     0
  0
APPID
  2
GENIUS_GENOBJ-N-REC_13
 70
     0
  0
APPID
  2
GENIUS_GENODEF_13
 70
     0
  0
APPID
  2
GENIUS_GENOLIS_13
 70
     0
  0
APPID
  2
GENIUS_GENOBJ-N-TIT_13
 70
     0
  0
APPID
  2
GENIUS_GENOENT_13
 70
     0
  0
APPID
  2
GENIUS_GENTITLE_13
 70
     0
  0
APPID
  2
GENIUS_GENOREF_13
 70
     0
  0
APPID
  2
GENIUS_GENSCREG_15
 70
     0
  0
APPID
  2
GENIUS_GENOBJ-N-SDF_13
 70
     0
  0
APPID
  2
GENIUS_GENFIL_13
 70
     0
  0
APPID
  2
GENIUS_GENOBJ-N-CHA_13
 70
     0
  0
APPID
  2
GENIUS_GENDTOL_13
 70
     0
  0
APPID
  2
GENIUS_GENOBJ-N-FIL_13
 70
     0
  0
APPID
  2
AD_DRAW
 70
     0
  0
APPID
  2
DESIGNERASSEMBLIES
 70
     0
  0
APPID
  2
ASURF_PCURVE_APPNAME
 70
     0
  0
APPID
  2
GENIUS_GE3SECT_13
 70
     0
  0
APPID
  2
GENIUS_GENCFG_13
 70
     0
  0
APPID
  2
GENIUS_GE3CFG0_13
 70
     0
  0
APPID
  2
GENIUS_GENCFG0_13
 70
     0
  0
APPID
  2
GENIUS_GENCFG1_13
 70
     0
  0
APPID
  2
GENIUS_GENCFG2_13
 70
     0
  0
APPID
  2
GENIUS_GENCFG3_13
 70
     0
  0
APPID
  2
GENIUS_GENCFG4_13
 70
     0
  0
APPID
  2
GENIUS_GEVCFG0_13
 70
     0
  0
APPID
  2
GENIUS_GENHINW_13
 70
     0
  0
APPID
  2
GENIUS_FIRSTVISTXT_14
 70
     0
  0
APPID
  2
GENIUS_GENOBJ-N-LEADER_13
 70
     0
  0
APPID
  2
GEV_VCCNULL_SWITCH_OFF
 70
     0
  0
APPID
  2
GENIUS_GEFCFG0_13
 70
     0
  0
APPID
  2
GENIUS_GENZVEED_13
 70
     0
  0
APPID
  2
GENIUS_GENSCREG_13
 70
     0
  0
APPID
  2
GENIUS_DUMCFG0_13
 70
     0
  0
APPID
  2
GEVID936201362
 70
     0
  0
APPID
  2
GEVDC
 70
     0
  0
APPID
  2
GEVCON
 70
     0
  0
APPID
  2
VCC
 70
     0
  0
APPID
  2
GEVPT
 70
     0
  0
APPID
  2
GEVIT
 70
     0
  0
APPID
  2
GENBH
 70
     0
  0
APPID
  2
GEVMK
 70
     0
  0
APPID
  2
GENIUS_GENBH_13
 70
     0
  0
APPID
  2
GENIUS_GENOBJ-NBEHI-BHF_13
 70
     0
  0
APPID
  2
GENIUS_GENOBJ-NBEHI-BHB_13
 70
     0
  0
APPID
  2
GENIUS_GENOBJ-F-DESC_13
 70
     0
  0
APPID
  2
GENIUS_GEFDESC_14
 70
     0
  0
APPID
  2
GENIUS_GENOBJ-F-PART_13
 70
     0
  0
APPID
  2
GENIUS_GEFSTDP_13
 70
     0
  0
APPID
  2
GENIUS_GEFPARTINS_13
 70
     0
  0
APPID
  2
GENIUS_GENTRA_14
 70
     0
  0
APPID
  2
GENIUS_GENINF13_13
 70
     0
  0
APPID
  2
GENIUS_GENOBJ-N-INFOPT_13
 70
     0
  0
APPID
  2
GENIUS_GENOBJ-N-RSSYM_13
 70
     0
  0
APPID
  2
GENIUS_GENSYMENT_13
 70
     0
  0
APPID
  2
GENIUS_GENSCSYM_13
 70
     0
  0
APPID
  2
GENIUS_GEFINFNAM_13
 70
     0
  0
APPID
  2
GENIUS_GENOBJ-N-CEN_13
 70
     0
  0
APPID
  2
GENIUS_GENOBJ-N-CRS_13
 70
     0
  0
APPID
  2
GENIUS_GENOBJ-N-CRC_13
 70
     0
  0
APPID
  2
GENIUS_GENCRC_14
 70
     0
  0
APPID
  2
GEVID942827039
 70
     0
  0
APPID
  2
GEVID942827040
 70
     0
  0
APPID
  2
GEVID942827041
 70
     0
  0
APPID
  2
GENIUS_GENOBJ-F-SCPASSM_13
 70
     0
  0
APPID
  2
GENIUS_GENDIMSH_14
 70
     0
  0
APPID
  2
GEVID942827042
 70
     0
  0
APPID
  2
GEVID946020473
 70
     0
  0
APPID
  2
GEVID946020474
 70
     0
  0
APPID
  2
GEVID946020475
 70
     0
  0
APPID
  2
GENIUS_GENOBJ-N-HTC_13
 70
     0
  0
APPID
  2
GENIUS_GENHATCH_13
 70
     0
  0
APPID
  2
GEVID948854295
 70
     0
  0
APPID
  2
GEVID939402019
 70
     0
  0
APPID
  2
GEVID952919491
 70
     0
  0
APPID
  2
GEVID952919492
 70
     0
  0
APPID
  2
GENIUS_GEFWELD_13
 70
     0
  0
APPID
  2
GENIUS_GENOBJ-F-WELS_13
 70
     0
  0
APPID
  2
GEVID952919493
 70
     0
  0
APPID
  2
GENIUS_GENOBJ-N-RSBK_13
 70
     0
  0
APPID
  2
GENIUS_GENOBJ-N-LIB_13
 70
     0
  0
APPID
  2
GENIUS_GENSCALE_13
 70
     0
  0
APPID
  2
GEVID986376691
 70
     0
  0
APPID
  2
DCO15
 70
     0
  0
APPID
  2
ACAD_DSTYLE_DIMBREAK
 70
     0
  0
APPID
  2
ACAD_DSTYLE_DIMJAG
 70
     0
  0
APPID
  2
ACAD_NAV_VCDISPLAY
 70
     0
  0
APPID
  2
ACADANNOPO
 70
     0
  0
APPID
  2
ACAD_EXEMPT_FROM_CAD_STANDARDS
 70
     0
  0
APPID
  2
ACAD_MLEADERVER
 70
     0
  0
ENDTAB
  0
TABLE
  2
DIMSTYLE
 70
    22
  0
DIMSTYLE
  2
STANDARD
 70
     0
  3

  4

  5

  6

  7

 40
1.0
 41
0.18
 42
0.0625
 43
0.38
 44
0.18
 45
0.0
 46
0.0
 47
0.0
 48
0.0
140
0.18
141
0.09
142
0.0
143
25.399999999999999
144
1.0
145
0.0
146
1.0
147
0.09
 71
     0
 72
     0
 73
     1
 74
     1
 75
     0
 76
     0
 77
     0
 78
     0
170
     0
171
     2
172
     0
173
     0
174
     0
175
     0
176
     0
177
     0
178
     0
  0
DIMSTYLE
  2
ANNOTATIVE
 70
     0
  3

  4

  5

  6

  7

 40
1.0
 41
0.18
 42
0.0625
 43
0.38
 44
0.18
 45
0.0
 46
0.0
 47
0.0
 48
0.0
140
0.18
141
0.09
142
0.0
143
25.399999999999999
144
1.0
145
0.0
146
1.0
147
0.09
 71
     0
 72
     0
 73
     1
 74
     1
 75
     0
 76
     0
 77
     0
 78
     0
170
     0
171
     2
172
     0
173
     0
174
     0
175
     0
176
     0
177
     0
178
     0
  0
DIMSTYLE
  2
AM_ISO
 70
     0
  3

  4
"
  5

  6

  7

 40
1.0
 41
2.5
 42
1.0
 43
8.0
 44
0.6
 45
0.0
 46
0.0
 47
0.1
 48
0.1
140
2.5
141
0.0
142
0.0
143
0.0393701
144
1.0
145
0.0
146
0.71
147
0.8
 71
     0
 72
     0
 73
     0
 74
     0
 75
     0
 76
     0
 77
     1
 78
     8
170
     0
171
     2
172
     1
173
     0
174
     0
175
     0
176
   256
177
   256
178
     4
  0
DIMSTYLE
  2
AM_ISO$3
 70
     0
  3

  4
"
  5

  6

  7

 40
1.0
 41
2.5
 42
1.0
 43
8.0
 44
0.6
 45
0.0
 46
0.0
 47
0.1
 48
0.1
140
2.5
141
0.0
142
0.0
143
0.0393701
144
1.0
145
0.0
146
0.71
147
0.8
 71
     0
 72
     0
 73
     0
 74
     1
 75
     0
 76
     0
 77
     1
 78
     8
170
     0
171
     2
172
     0
173
     0
174
     0
175
     0
176
   256
177
   256
178
     4
  0
DIMSTYLE
  2
AM_ISO$4
 70
     0
  3

  4
"
  5

  6

  7

 40
1.0
 41
2.5
 42
1.0
 43
8.0
 44
0.6
 45
0.0
 46
0.0
 47
0.1
 48
0.1
140
2.5
141
0.0
142
0.0
143
0.0393701
144
1.0
145
0.0
146
0.71
147
0.8
 71
     0
 72
     0
 73
     0
 74
     1
 75
     0
 76
     0
 77
     1
 78
     8
170
     0
171
     2
172
     0
173
     0
174
     0
175
     0
176
   256
177
   256
178
     4
  0
DIMSTYLE
  2
AM_ISO$6
 70
     0
  3

  4
"
  5

  6

  7

 40
1.0
 41
2.5
 42
1.0
 43
8.0
 44
0.6
 45
0.0
 46
0.0
 47
0.1
 48
0.1
140
2.5
141
0.0
142
0.0
143
0.0393701
144
1.0
145
0.0
146
0.71
147
0.8
 71
     0
 72
     0
 73
     0
 74
     0
 75
     0
 76
     0
 77
     0
 78
     8
170
     0
171
     2
172
     1
173
     0
174
     0
175
     0
176
   256
177
   256
178
     4
  0
DIMSTYLE
  2
AM_ISO$7
 70
     0
  3

  4
"
  5

  6

  7

 40
1.0
 41
2.5
 42
1.0
 43
8.0
 44
0.6
 45
0.0
 46
0.0
 47
0.1
 48
0.1
140
2.5
141
0.0
142
0.0
143
0.0393701
144
1.0
145
0.0
146
0.71
147
0.8
 71
     0
 72
     0
 73
     0
 74
     0
 75
     0
 76
     0
 77
     1
 78
     8
170
     0
171
     2
172
     1
173
     0
174
     0
175
     0
176
   256
177
   256
178
     4
  0
DIMSTYLE
  2
AM_ISO$SF
 70
     0
  3

  4
"
  5

  6

  7

 40
1.0
 41
2.5
 42
1.0
 43
10.0
 44
1.0
 45
0.0
 46
0.0
 47
0.1
 48
0.1
140
3.5
141
0.0
142
0.0
143
0.0393701
144
1.0
145
0.0
146
0.71
147
1.5
 71
     0
 72
     0
 73
     0
 74
     0
 75
     1
 76
     1
 77
     1
 78
     8
170
     0
171
     2
172
     1
173
     0
174
     0
175
     0
176
   256
177
   256
178
     2
  0
DIMSTYLE
  2
AM_ISO$SH
 70
     0
  3

  4
"
  5

  6

  7

 40
1.0
 41
2.5
 42
1.0
 43
10.0
 44
1.0
 45
0.0
 46
0.0
 47
0.1
 48
0.1
140
3.5
141
0.0
142
0.0
143
0.0393701
144
2.0
145
0.0
146
0.71
147
1.5
 71
     0
 72
     0
 73
     0
 74
     0
 75
     1
 76
     1
 77
     1
 78
     8
170
     0
171
     2
172
     1
173
     1
174
     0
175
     0
176
   256
177
   256
178
     2
  0
DIMSTYLE
  2
AM_JIS
 70
     0
  3

  4
"
  5

  6

  7

 40
1.0
 41
2.5
 42
1.0
 43
7.0
 44
1.0
 45
0.0
 46
0.0
 47
0.1
 48
0.1000000001
140
2.5
141
0.0
142
0.0
143
0.0393701
144
1.0
145
0.0
146
0.71
147
1.0
 71
     0
 72
     0
 73
     0
 74
     0
 75
     0
 76
     0
 77
     3
 78
     8
170
     0
171
     2
172
     1
173
     0
174
     0
175
     0
176
   256
177
   256
178
     4
  0
DIMSTYLE
  2
AM_JIS$3
 70
     0
  3

  4
"
  5

  6

  7

 40
1.0
 41
2.5
 42
1.0
 43
7.0
 44
1.0
 45
0.0
 46
0.0
 47
0.1
 48
0.1000000001
140
2.5
141
0.0
142
0.0
143
0.0393701
144
1.0
145
0.0
146
0.71
147
1.0
 71
     0
 72
     0
 73
     0
 74
     1
 75
     0
 76
     0
 77
     3
 78
     8
170
     0
171
     2
172
     0
173
     0
174
     0
175
     0
176
   256
177
   256
178
     4
  0
DIMSTYLE
  2
AM_JIS$4
 70
     0
  3

  4
"
  5

  6

  7

 40
1.0
 41
2.5
 42
1.0
 43
7.0
 44
1.0
 45
0.0
 46
0.0
 47
0.1
 48
0.1000000001
140
2.5
141
0.0
142
0.0
143
0.0393701
144
1.0
145
0.0
146
0.71
147
1.0
 71
     0
 72
     0
 73
     0
 74
     0
 75
     0
 76
     0
 77
     3
 78
     8
170
     0
171
     2
172
     0
173
     0
174
     0
175
     0
176
   256
177
   256
178
     4
  0
DIMSTYLE
  2
AM_JIS$6
 70
     0
  3

  4
"
  5

  6

  7

 40
1.0
 41
2.5
 42
1.0
 43
7.0
 44
1.0
 45
0.0
 46
0.0
 47
0.1
 48
0.1000000001
140
2.5
141
0.0
142
0.0
143
0.0393701
144
1.0
145
0.0
146
0.71
147
1.0
 71
     0
 72
     0
 73
     0
 74
     0
 75
     0
 76
     0
 77
     0
 78
     8
170
     0
171
     2
172
     1
173
     0
174
     0
175
     0
176
   256
177
   256
178
     4
  0
DIMSTYLE
  2
AM_JIS$7
 70
     0
  3

  4
"
  5

  6

  7

 40
1.0
 41
2.5
 42
1.0
 43
7.0
 44
1.0
 45
0.0
 46
0.0
 47
0.1
 48
0.1000000001
140
2.5
141
0.0
142
0.0
143
0.0393701
144
1.0
145
0.0
146
0.71
147
1.0
 71
     0
 72
     0
 73
     0
 74
     0
 75
     0
 76
     0
 77
     3
 78
     8
170
     0
171
     2
172
     1
173
     0
174
     0
175
     0
176
   256
177
   256
178
     4
  0
DIMSTYLE
  2
AM_JIS$SF
 70
     0
  3

  4
"
  5

  6

  7

 40
1.0
 41
2.5
 42
1.0
 43
10.0
 44
1.0
 45
0.0
 46
0.0
 47
0.1
 48
0.1
140
3.5
141
0.0
142
0.0
143
0.0393701
144
1.0
145
0.0
146
0.71
147
1.5
 71
     0
 72
     0
 73
     0
 74
     0
 75
     1
 76
     1
 77
     3
 78
     8
170
     0
171
     2
172
     1
173
     0
174
     0
175
     0
176
   256
177
   256
178
     4
  0
DIMSTYLE
  2
AM_JIS$SH
 70
     0
  3

  4
"
  5

  6

  7

 40
1.0
 41
2.5
 42
1.0
 43
10.0
 44
1.0
 45
0.0
 46
0.0
 47
0.1
 48
0.1
140
3.5
141
0.0
142
0.0
143
0.0393701
144
1.0
145
0.0
146
0.71
147
1.5
 71
     0
 72
     0
 73
     0
 74
     0
 75
     1
 76
     0
 77
     3
 78
     8
170
     0
171
     2
172
     1
173
     1
174
     0
175
     0
176
   256
177
   256
178
     4
  0
DIMSTYLE
  2
AM_ANSI
 70
     0
  3

  4
mm
  5

  6

  7

 40
1.0
 41
0.1
 42
0.05
 43
0.5
 44
0.1
 45
0.0
 46
0.0
 47
0.1
 48
0.1
140
0.12
141
0.0
142
0.0
143
25.399999999999999
144
1.0
145
0.0
146
0.71
147
0.06
 71
     0
 72
     0
 73
     1
 74
     1
 75
     0
 76
     0
 77
     0
 78
     7
170
     0
171
     2
172
     0
173
     0
174
     0
175
     0
176
   256
177
   256
178
     2
  0
DIMSTYLE
  2
AM_ANSI$3
 70
     0
  3

  4
mm
  5

  6

  7

 40
1.0
 41
0.1
 42
0.05
 43
0.5
 44
0.1
 45
0.0
 46
0.0
 47
0.1
 48
0.1
140
0.12
141
0.0
142
0.0
143
25.399999999999999
144
1.0
145
0.0
146
0.71
147
0.06
 71
     0
 72
     0
 73
     1
 74
     1
 75
     0
 76
     0
 77
     0
 78
     7
170
     0
171
     2
172
     0
173
     0
174
     0
175
     0
176
   256
177
   256
178
     2
  0
DIMSTYLE
  2
AM_ANSI$4
 70
     0
  3

  4
mm
  5

  6

  7

 40
1.0
 41
0.1
 42
0.05
 43
0.5
 44
0.1
 45
0.0
 46
0.0
 47
0.1
 48
0.1
140
0.12
141
0.0
142
0.0
143
25.399999999999999
144
1.0
145
0.0
146
0.71
147
0.06
 71
     0
 72
     0
 73
     1
 74
     1
 75
     0
 76
     0
 77
     0
 78
     7
170
     0
171
     2
172
     0
173
     0
174
     0
175
     0
176
   256
177
   256
178
     2
  0
DIMSTYLE
  2
AM_ANSI$7
 70
     0
  3

  4
mm
  5

  6

  7

 40
1.0
 41
0.1
 42
0.05
 43
0.5
 44
0.1
 45
0.0
 46
0.0
 47
0.1
 48
0.1
140
0.24
141
0.0
142
0.0
143
25.399999999999999
144
1.0
145
0.0
146
0.71
147
0.06
 71
     0
 72
     0
 73
     1
 74
     1
 75
     0
 76
     0
 77
     0
 78
     7
170
     0
171
     2
172
     0
173
     0
174
     0
175
     0
176
   256
177
   256
178
     2
  0
DIMSTYLE
  2
AM_ANSI$SF
 70
     0
  3

  4
mm
  5

  6

  7

 40
1.0
 41
0.1
 42
0.05
 43
0.5
 44
0.1
 45
0.0
 46
0.0
 47
0.1
 48
0.1
140
0.12
141
0.0
142
0.0
143
25.399999999999999
144
1.0
145
0.0
146
0.71
147
0.06
 71
     0
 72
     0
 73
     1
 74
     1
 75
     1
 76
     1
 77
     0
 78
     7
170
     0
171
     2
172
     0
173
     0
174
     0
175
     0
176
   256
177
   256
178
     2
  0
DIMSTYLE
  2
AM_ANSI$SH
 70
     0
  3

  4
mm
  5

  6

  7

 40
1.0
 41
0.1
 42
0.05
 43
0.5
 44
0.1
 45
0.0
 46
0.0
 47
0.1
 48
0.1
140
0.12
141
0.0
142
0.0
143
25.399999999999999
144
1.0
145
0.0
146
0.71
147
0.06
 71
     0
 72
     0
 73
     1
 74
     1
 75
     1
 76
     1
 77
     0
 78
     7
170
     0
171
     2
172
     0
173
     1
174
     0
175
     0
176
   256
177
   256
178
     2
  0
ENDTAB
  0
ENDSEC
  0
SECTION
  2
BLOCKS
  0
BLOCK
  8
0
  2
$MODEL_SPACE
 70
     0
 10
0.0
 20
0.0
 30
0.0
  3
$MODEL_SPACE
  1

  0
ENDBLK
  5
3522
  8
0
  0
BLOCK
 67
     1
  8
0
  2
$PAPER_SPACE
 70
     0
 10
0.0
 20
0.0
 30
0.0
  3
$PAPER_SPACE
  1

  0
ENDBLK
  5
351E
 67
     1
  8
0
  0
BLOCK
  8
0
  2
GENAXEH
 70
     0
 10
0.0
 20
0.0
 30
0.0
  3
GENAXEH
  1

  0
LINE
  5
32B8
  8
0
 10
-1.0
 20
0.0
 30
0.0
 11
1.0
 21
0.0
 31
0.0
  0
ENDBLK
  5
32B9
  8
0
  0
BLOCK
  8
0
  2
_OPEN30
 70
     0
 10
0.0
 20
0.0
 30
0.0
  3
_OPEN30
  1

  0
LINE
  5
32BC
  8
0
 62
     0
 10
-1.0
 20
0.26794919
 30
0.0
 11
0.0
 21
0.0
 31
0.0
  0
LINE
  5
32BD
  8
0
 62
     0
 10
0.0
 20
0.0
 30
0.0
 11
-1.0
 21
-0.26794919
 31
0.0
  0
LINE
  5
32BE
  8
0
 62
     0
 10
0.0
 20
0.0
 30
0.0
 11
-1.0
 21
0.0
 31
0.0
  0
ENDBLK
  5
32BF
  8
0
  0
BLOCK
  8
0
  2
_NONE
 70
     0
 10
0.0
 20
0.0
 30
0.0
  3
_NONE
  1

  0
ENDBLK
  5
32C2
  8
0
  0
BLOCK
  8
0
  2
_ACMFILLEDHALF
 70
     0
 10
0.0
 20
0.0
 30
0.0
  3
_ACMFILLEDHALF
  1

  0
TRACE
  5
361A
  8
AM_0
 62
     0
 10
-0.8
 20
0.0
 30
0.0
 11
-1.0
 21
0.166666666
 31
0.0
 12
0.0
 22
0.0
 32
0.0
 13
0.0
 23
0.0
 33
0.0
  0
LINE
  5
361B
  8
AM_0
 62
     0
 10
-1.0
 20
0.0
 30
0.0
 11
-0.8
 21
0.0
 31
0.0
  0
ENDBLK
  5
3619
  8
0
  0
ENDSEC
  0
SECTION
  2
ENTITIES
  0
ARC
  5
32C4
  8
AM_0
 10
587.92471732972672
 20
838.38787613290629
 30
0.0
 40
8.0
 50
271.9999999999971
 51
0.0
  0
ARC
  5
32C5
  8
AM_0
 10
587.92471732972672
 20
1021.051146132906
 30
0.0
 40
8.0
 50
0.0
 51
88.000000000002785
  0
LINE
  5
32C6
  8
AM_0
 10
458.92471732972672
 20
764.7195461329062
 30
0.0
 11
596.09921732972668
 21
769.50976613290629
 31
0.0
  0
LINE
  5
32C7
  8
AM_0
 10
458.92471732972672
 20
1094.719486132906
 30
0.0
 11
596.09921732972668
 21
1089.9292561329059
 31
0.0
  0
LINE
  5
32C8
  8
ﾁｭｳｼﾝｾﾝ
 10
277.48399468460582
 20
929.7195461329062
 30
0.0
 11
699.54190732972654
 21
929.7195461329062
 31
0.0
  0
ARC
  5
32C9
  8
AM_0
 10
435.92471732972672
 20
929.7195461329062
 30
0.0
 40
12.5
 50
23.578179999997531
 51
156.42182000000241
  0
ARC
  5
32CA
  8
AM_0
 10
435.92471732972672
 20
929.7195461329062
 30
0.0
 40
15.0
 50
90.000146000002943
 51
160.52876999999901
  0
LINE
  5
32CB
  8
AM_0
 10
374.92471732972672
 20
1049.7195461329061
 30
0.0
 11
374.92471732972672
 21
809.71954613290609
 31
0.0
  0
LINE
  5
32CC
  8
AM_0
 10
387.92465732972693
 20
1047.7195461329061
 30
0.0
 11
387.92465732972693
 21
811.7195461329062
 31
0.0
  0
LINE
  5
32CD
  8
AM_0
 10
478.92465732972681
 20
797.59252613290573
 30
0.0
 11
478.92465732972681
 21
1061.8464961329059
 31
0.0
  0
LINE
  5
32CE
  8
AM_0
 10
568.92471732972672
 20
821.59741613290635
 30
0.0
 11
568.92471732972672
 21
1037.841616132906
 31
0.0
  0
LINE
  5
32CF
  8
AM_0
 10
453.92471732972672
 20
1062.7195461329061
 30
0.0
 11
453.92471732972672
 21
934.71954613290632
 31
0.0
  0
LINE
  5
32D0
  8
AM_0
 10
374.92471732972672
 20
809.71954613290609
 30
0.0
 11
385.92471732972672
 21
809.71954613290609
 31
0.0
  0
LINE
  5
32D1
  8
AM_0
 10
374.92471732972672
 20
829.99230613290615
 30
0.0
 11
385.92471732972672
 21
829.99230613290615
 31
0.0
  0
LINE
  5
32D2
  8
AM_0
 10
374.92471732972672
 20
845.54864613290624
 30
0.0
 11
385.92471732972672
 21
845.54864613290624
 31
0.0
  0
LINE
  5
32D3
  8
AM_0
 10
375.90359732972678
 20
855.28259613290595
 30
0.0
 11
386.93246732972682
 21
855.28259613290595
 31
0.0
  0
LINE
  5
32D4
  8
AM_0
 10
458.92471732972672
 20
764.7195461329062
 30
0.0
 11
375.75015732972662
 21
767.62402613290624
 31
0.0
  0
LINE
  5
32D5
  8
AM_0
 10
370.92471732972672
 20
772.62103613290583
 30
0.0
 11
370.92471732972672
 21
811.61478738567826
 31
0.0
  0
ARC
  5
32D6
  8
AM_0
 10
375.92471732972672
 20
772.62103613290583
 30
0.0
 40
5.0
 50
180.00001000000091
 51
268.00000000000261
  0
ARC
  5
32D7
  8
AM_0
 10
428.92471732972672
 20
780.72125613290621
 30
0.0
 40
3.0
 50
180.00001000000091
 51
289.47202999999712
  0
LINE
  5
32D8
  8
AM_0
 10
535.92471732972683
 20
772.58605613290615
 30
0.0
 11
535.92471732972683
 21
801.1312861329061
 31
0.0
  0
LINE
  5
32D9
  8
AM_0
 10
458.92471732972672
 20
779.66094613290613
 30
0.0
 11
458.92471732972672
 21
796.89410613290624
 31
0.0
  0
LINE
  5
32DA
  8
AM_0
 10
429.92471732972672
 20
777.89282613290618
 30
0.0
 11
456.92477732972662
 21
787.43920613290618
 31
0.0
  0
LINE
  5
32DB
  8
AM_0
 10
426.4609673297266
 20
766.06152613290624
 30
0.0
 11
456.92471732972672
 21
776.83257613290573
 31
0.0
  0
ARC
  5
32DC
  8
AM_0
 10
455.92471732972678
 20
779.66094613290613
 30
0.0
 40
3.0
 50
289.47202000000181
 51
0.0
  0
ARC
  5
32DD
  8
AM_0
 10
540.92471732972683
 20
772.58605613290615
 30
0.0
 40
5.0
 50
180.00001000000091
 51
271.99999000000139
  0
LINE
  5
32DE
  8
AM_0
 10
478.92465732972681
 20
797.59252613290573
 30
0.0
 11
483.06942732972658
 21
801.73730613290616
 31
0.0
  0
LINE
  5
32DF
  8
AM_0
 10
434.42471732972678
 20
829.29058613290624
 30
0.0
 11
434.42471732972678
 21
910.80523613290609
 31
0.0
  0
LINE
  5
32E0
  8
AM_0
 10
443.92465732972693
 20
799.96581613290618
 30
0.0
 11
443.92465732972693
 21
906.71954613290609
 31
0.0
  0
LINE
  5
32E1
  8
AM_0
 10
453.92471732972672
 20
924.71954613290609
 30
0.0
 11
453.92471732972672
 21
796.7195461329062
 31
0.0
  0
LINE
  5
32E2
  8
AM_0
 10
387.92465732972693
 20
843.04461613290562
 30
0.0
 11
434.42471732972678
 21
843.04461613290562
 31
0.0
  0
LINE
  5
32E3
  8
AM_0
 10
389.92471732972672
 20
817.71954613290609
 30
0.0
 11
441.92465732972681
 21
817.71954613290609
 31
0.0
  0
CIRCLE
  5
32E4
  8
AM_0
 10
400.92471732972672
 20
797.2195461329062
 30
0.0
 40
9.5
  0
ARC
  5
32E5
  8
AM_0
 10
389.92471732972672
 20
815.71954613290609
 30
0.0
 40
2.0
 50
90.00000299999769
 51
180.00001000000091
  0
ARC
  5
32E6
  8
AM_0
 10
385.92471732972672
 20
811.7195461329062
 30
0.0
 40
2.0
 50
269.999989999999
 51
0.0000006832495047
  0
ARC
  5
32E7
  8
AM_0
 10
385.92471732972672
 20
831.99224613290619
 30
0.0
 40
2.0
 50
269.999989999999
 51
0.0000006832495047
  0
ARC
  5
32E8
  8
AM_0
 10
385.92471732972672
 20
847.54864613290624
 30
0.0
 40
2.0
 50
269.999989999999
 51
0.0000006832495047
  0
LINE
  5
32E9
  8
AM_0
 10
442.46017732972678
 20
819.18401613290632
 30
0.0
 11
435.88912732972688
 21
825.75500613290615
 31
0.0
  0
LINE
  5
32EA
  8
AM_0
 10
453.92465732972681
 20
796.71948613290624
 30
0.0
 11
478.92471732972672
 21
797.59252613290573
 31
0.0
  0
ARC
  5
32EB
  8
AM_0
 10
446.92465732972681
 20
799.96581613290618
 30
0.0
 40
3.0
 50
180.00001000000091
 51
268.00000000000261
  0
LINE
  5
32EC
  8
AM_0
 10
453.92471732972672
 20
796.7195461329062
 30
0.0
 11
446.81997732972678
 21
796.96764613290622
 31
0.0
  0
ARC
  5
32ED
  8
AM_0
 10
441.92465732972681
 20
815.71954613290609
 30
0.0
 40
2.0
 50
0.0
 51
90.00000299999769
  0
ARC
  5
32EE
  8
AM_0
 10
438.92465732972693
 20
815.64849613290573
 30
0.0
 40
5.0
 50
0.0
 51
44.999998000001611
  0
ARC
  5
32EF
  8
AM_0
 10
455.92471732972678
 20
790.2676361329062
 30
0.0
 40
3.0
 50
289.47202000000181
 51
0.0
  0
ARC
  5
32F0
  8
AM_0
 10
439.42471732972678
 20
829.29058613290624
 30
0.0
 40
5.0
 50
180.00001000000091
 51
225.0
  0
ARC
  5
32F1
  8
AM_0
 10
435.92471732972672
 20
929.7195461329062
 30
0.0
 40
15.0
 50
199.4712300000005
 51
269.99984999999782
  0
ARC
  5
32F2
  8
AM_0
 10
435.92471732972672
 20
929.7195461329062
 30
0.0
 40
12.5
 50
203.5781799999973
 51
336.42183000000068
  0
LINE
  5
32F3
  8
AM_0
 10
387.92465732972693
 20
858.78668613290574
 30
0.0
 11
434.42471732972678
 21
858.78668613290574
 31
0.0
  0
LINE
  5
32F4
  8
AM_0
 10
415.9247173297266
 20
934.71954613290632
 30
0.0
 11
455.92471732972678
 21
934.71954613290632
 31
0.0
  0
LINE
  5
32F5
  8
AM_0
 10
415.9247173297266
 20
924.71954613290609
 30
0.0
 11
455.92471732972678
 21
924.71954613290609
 31
0.0
  0
ARC
  5
32F6
  8
AM_0
 10
415.9247173297266
 20
929.7195461329062
 30
0.0
 40
5.0
 50
90.00000299999769
 51
270.0
  0
ARC
  5
32F7
  8
AM_0
 10
455.92471732972678
 20
929.7195461329062
 30
0.0
 40
5.0
 50
270.0
 51
90.00000299999769
  0
ARC
  5
32F8
  8
AM_0
 10
435.92465732972681
 20
906.71954613290609
 30
0.0
 40
8.0
 50
0.0
 51
89.999858999997556
  0
ARC
  5
32F9
  8
AM_0
 10
429.42471732972672
 20
910.80523613290609
 30
0.0
 40
5.0
 50
0.0
 51
71.034342999998159
  0
ARC
  5
32FA
  8
AM_0
 10
532.59011732972681
 20
808.46966613290613
 30
0.0
 40
5.0
 50
271.9999999999971
 51
334.42648000000293
  0
ARC
  5
32FB
  8
AM_0
 10
547.92471732972683
 20
801.1312861329061
 30
0.0
 40
12.0
 50
91.999998000000545
 51
180.00001000000091
  0
LINE
  5
32FC
  8
AM_0
 10
483.06942732972658
 20
801.73724613290619
 30
0.0
 11
532.76467732972685
 21
803.4726561329062
 31
0.0
  0
ARC
  5
32FD
  8
AM_0
 10
560.92471732972683
 20
821.59741613290635
 30
0.0
 40
8.0
 50
271.9999999999971
 51
0.0
  0
CIRCLE
  5
32FE
  8
AM_0
 10
570.92471732972672
 20
797.2195461329062
 30
0.0
 40
9.5
  0
LINE
  5
32FF
  8
ﾁｭｳｼﾝｾﾝ1
 10
551.42471732972683
 20
797.2195461329062
 30
0.0
 11
590.42471732972672
 21
797.2195461329062
 31
0.0
  0
LINE
  5
3300
  8
AM_0
 10
547.50588732972676
 20
813.12396613290593
 30
0.0
 11
561.20394732972682
 21
813.60229613290574
 31
0.0
  0
LINE
  5
3301
  8
ﾁｭｳｼﾝｾﾝ1
 10
570.92471732972672
 20
777.71954613290609
 30
0.0
 11
570.92471732972672
 21
816.71954613290609
 31
0.0
  0
ARC
  5
3302
  8
AM_0
 10
576.92471732972672
 20
821.99401613290615
 30
0.0
 40
8.0
 50
91.999998000000545
 51
180.00001000000091
  0
LINE
  5
3303
  8
AM_0
 10
576.64553732972684
 20
829.98913613290574
 30
0.0
 11
588.20388732972685
 21
830.39275613290636
 31
0.0
  0
LINE
  5
3304
  8
AM_0
 10
374.92471732972672
 20
1049.7195461329061
 30
0.0
 11
385.92471732972672
 21
1049.7195461329061
 31
0.0
  0
LINE
  5
3305
  8
AM_0
 10
375.90359732972678
 20
1004.156496132906
 30
0.0
 11
386.93246732972682
 21
1004.156496132906
 31
0.0
  0
LINE
  5
3306
  8
AM_0
 10
374.92471732972672
 20
1029.4467161329051
 30
0.0
 11
385.92471732972672
 21
1029.4467161329051
 31
0.0
  0
LINE
  5
3307
  8
AM_0
 10
374.92471732972672
 20
1013.890376132905
 30
0.0
 11
385.92471732972672
 21
1013.890376132905
 31
0.0
  0
LINE
  5
3308
  8
AM_0
 10
458.92471732972672
 20
1094.7195461329061
 30
0.0
 11
375.75015732972662
 21
1091.8150061329061
 31
0.0
  0
ARC
  5
3309
  8
AM_0
 10
375.92471732972672
 20
1086.8180561329059
 30
0.0
 40
5.0
 50
91.999998000000545
 51
180.00001000000091
  0
LINE
  5
330A
  8
AM_0
 10
370.92471732972672
 20
1086.8180561329059
 30
0.0
 11
370.92471732972672
 21
1047.824274880134
 31
0.0
  0
ARC
  5
330B
  8
AM_0
 10
540.92471732972683
 20
1086.852966132906
 30
0.0
 40
5.0
 50
88.000000000002785
 51
180.00001000000091
  0
LINE
  5
330C
  8
AM_0
 10
426.4609673297266
 20
1093.3775061329061
 30
0.0
 11
456.92477732972662
 21
1082.6064461329061
 31
0.0
  0
LINE
  5
330D
  8
AM_0
 10
478.92471732972672
 20
1061.8464961329059
 30
0.0
 11
483.06936732972662
 21
1057.7017861329059
 31
0.0
  0
ARC
  5
330E
  8
AM_0
 10
385.92471732972672
 20
1011.890316132906
 30
0.0
 40
2.0
 50
0.0
 51
90.00000299999769
  0
LINE
  5
330F
  8
AM_0
 10
434.42471732972678
 20
948.63378613290604
 30
0.0
 11
434.42471732972678
 21
1030.1484961329061
 31
0.0
  0
LINE
  5
3310
  8
AM_0
 10
443.92465732972693
 20
952.7195461329062
 30
0.0
 11
443.92465732972693
 21
1059.473266132906
 31
0.0
  0
LINE
  5
3311
  8
AM_0
 10
387.92465732972693
 20
1000.652346132905
 30
0.0
 11
434.42471732972678
 21
1000.652346132905
 31
0.0
  0
ARC
  5
3312
  8
AM_0
 10
435.92465732972681
 20
952.7195461329062
 30
0.0
 40
8.0
 50
270.0001500000019
 51
0.0
  0
ARC
  5
3313
  8
AM_0
 10
429.42471732972672
 20
948.63378613290604
 30
0.0
 40
5.0
 50
288.96566000000053
 51
0.0
  0
ARC
  5
3314
  8
AM_0
 10
428.92471732972672
 20
1078.717776132906
 30
0.0
 40
3.0
 50
70.527972999999633
 51
180.00001000000091
  0
LINE
  5
3315
  8
AM_0
 10
387.92465732972693
 20
1016.394406132905
 30
0.0
 11
434.42471732972678
 21
1016.394406132905
 31
0.0
  0
LINE
  5
3316
  8
AM_0
 10
389.92471732972672
 20
1041.7194861329051
 30
0.0
 11
441.92465732972681
 21
1041.7194861329051
 31
0.0
  0
ARC
  5
3317
  8
AM_0
 10
385.92471732972672
 20
1027.4467161329051
 30
0.0
 40
2.0
 50
0.0
 51
90.00000299999769
  0
ARC
  5
3318
  8
AM_0
 10
389.92471732972672
 20
1043.7194861329051
 30
0.0
 40
2.0
 50
179.9999899999988
 51
270.0
  0
ARC
  5
3319
  8
AM_0
 10
385.92471732972672
 20
1047.7195461329061
 30
0.0
 40
2.0
 50
0.0
 51
90.00000299999769
  0
CIRCLE
  5
331A
  8
AM_0
 10
400.92471732972672
 20
1062.2195461329061
 30
0.0
 40
9.5
  0
ARC
  5
331B
  8
AM_0
 10
439.42471732972678
 20
1030.1484961329061
 30
0.0
 40
5.0
 50
135.0
 51
180.00001000000091
  0
ARC
  5
331C
  8
AM_0
 10
441.92465732972681
 20
1043.7194861329051
 30
0.0
 40
2.0
 50
270.0
 51
0.0
  0
LINE
  5
331D
  8
AM_0
 10
435.88919732972681
 20
1033.684016132906
 30
0.0
 11
442.46023732972662
 21
1040.255066132906
 31
0.0
  0
ARC
  5
331E
  8
AM_0
 10
438.92465732972693
 20
1043.7905861329059
 30
0.0
 40
5.0
 50
315.0
 51
0.0
  0
LINE
  5
331F
  8
AM_0
 10
429.92477732972679
 20
1081.546206132906
 30
0.0
 11
456.92477732972662
 21
1071.9998161329061
 31
0.0
  0
LINE
  5
3320
  8
AM_0
 10
453.92471732972672
 20
1062.7195461329061
 30
0.0
 11
478.92471732972672
 21
1061.8464961329059
 31
0.0
  0
ARC
  5
3321
  8
AM_0
 10
446.92465732972681
 20
1059.473266132906
 30
0.0
 40
3.0
 50
91.999998000000545
 51
180.00001000000091
  0
LINE
  5
3322
  8
AM_0
 10
453.92465732972681
 20
1062.7195461329061
 30
0.0
 11
446.81997732972678
 21
1062.4714361329061
 31
0.0
  0
ARC
  5
3323
  8
AM_0
 10
455.92471732972678
 20
1069.171386132906
 30
0.0
 40
3.0
 50
0.0
 51
70.527972999999633
  0
LINE
  5
3324
  8
AM_0
 10
458.92471732972672
 20
1079.7780761329061
 30
0.0
 11
458.92471732972672
 21
1062.5449261329061
 31
0.0
  0
ARC
  5
3325
  8
AM_0
 10
455.92471732972678
 20
1079.7780761329061
 30
0.0
 40
3.0
 50
0.0
 51
70.527972999999633
  0
ARC
  5
3326
  8
AM_0
 10
532.59011732972681
 20
1050.9694161329051
 30
0.0
 40
5.0
 50
25.5735169999985
 51
88.000000000002785
  0
ARC
  5
3327
  8
AM_0
 10
547.92471732972683
 20
1058.3077961329061
 30
0.0
 40
12.0
 50
180.00001000000091
 51
268.00000000000261
  0
LINE
  5
3328
  8
AM_0
 10
483.06942732972658
 20
1057.7017861329059
 30
0.0
 11
532.76467732972685
 21
1055.966366132905
 31
0.0
  0
ARC
  5
3329
  8
AM_0
 10
560.92471732972683
 20
1037.841616132906
 30
0.0
 40
8.0
 50
0.0
 51
88.000000000002785
  0
LINE
  5
332A
  8
AM_0
 10
547.50588732972676
 20
1046.315126132906
 30
0.0
 11
561.20394732972682
 21
1045.8367961329061
 31
0.0
  0
ARC
  5
332B
  8
AM_0
 10
576.92471732972672
 20
1037.445006132906
 30
0.0
 40
8.0
 50
180.00001000000091
 51
268.00000000000261
  0
LINE
  5
332C
  8
AM_0
 10
576.64553732972684
 20
1029.4498861329059
 30
0.0
 11
588.20388732972685
 21
1029.0462661329061
 31
0.0
  0
CIRCLE
  5
332D
  8
AM_0
 10
570.92471732972672
 20
1062.2195461329061
 30
0.0
 40
9.5
  0
LINE
  5
332E
  8
AM_0
 10
535.92471732972683
 20
1086.852966132906
 30
0.0
 11
535.92471732972683
 21
1058.3077961329061
 31
0.0
  0
ARC
  5
332F
  8
AM_0
 10
626.92471732972672
 20
929.71948613290624
 30
0.0
 40
8.0000113999999982
 50
90.00000299999769
 51
270.0
  0
LINE
  5
3330
  8
AM_0
 10
595.92471732972672
 20
1027.090516132906
 30
0.0
 11
595.92471732972672
 21
832.34857613290615
 31
0.0
  0
LINE
  5
3331
  8
AM_0
 10
600.92471732972672
 20
987.78814613290569
 30
0.0
 11
600.92471732972672
 21
871.65093613290594
 31
0.0
  0
LINE
  5
3332
  8
AM_0
 10
606.92465732972676
 20
959.71954613290632
 30
0.0
 11
606.92465732972676
 21
899.71954613290609
 31
0.0
  0
LINE
  5
3333
  8
AM_0
 10
688.92465732972687
 20
957.2195461329062
 30
0.0
 11
688.92465732972687
 21
902.2195461329062
 31
0.0
  0
LINE
  5
3334
  8
AM_0
 10
626.92465732972687
 20
937.7195461329062
 30
0.0
 11
626.92465732972687
 21
921.71948613290624
 31
0.0
  0
LINE
  5
3335
  8
AM_0
 10
600.92471732972672
 20
774.50671613290615
 30
0.0
 11
600.92471732972672
 21
824.93231613290618
 31
0.0
  0
ARC
  5
3336
  8
AM_0
 10
595.92471732972672
 20
774.50671613290615
 30
0.0
 40
5.0
 50
271.9999999999971
 51
0.0
  0
ARC
  5
3337
  8
AM_0
 10
598.9247173297266
 20
832.34857613290615
 30
0.0
 40
3.0
 50
180.00001000000091
 51
247.97569000000061
  0
ARC
  5
3338
  8
AM_0
 10
595.92471732972672
 20
824.93231613290618
 30
0.0
 40
5.0
 50
0.0
 51
67.975688999996393
  0
LINE
  5
3339
  8
AM_0
 10
626.92471732972672
 20
921.71948613290624
 30
0.0
 11
688.92465732972687
 21
921.71948613290624
 31
0.0
  0
LINE
  5
333A
  8
AM_0
 10
606.92465732972676
 20
902.2195461329062
 30
0.0
 11
688.92465732972687
 21
902.2195461329062
 31
0.0
  0
ARC
  5
333B
  8
AM_0
 10
598.9247173297266
 20
871.65093613290594
 30
0.0
 40
2.0
 50
271.9999999999971
 51
0.0
  0
ARC
  5
333C
  8
AM_0
 10
597.92471732972672
 20
867.61358613290611
 30
0.0
 40
2.0
 50
91.999998000000545
 51
180.00001000000091
  0
LINE
  5
333D
  8
AM_0
 10
597.85488732972669
 20
869.61230613290593
 30
0.0
 11
598.99453732972688
 21
869.65209613290619
 31
0.0
  0
LINE
  5
333E
  8
AM_0
 10
600.92471732972672
 20
899.71954613290609
 30
0.0
 11
606.92465732972676
 21
899.71954613290609
 31
0.0
  0
LINE
  5
333F
  8
AM_0
 10
626.92471732972672
 20
937.7195461329062
 30
0.0
 11
688.92465732972687
 21
937.7195461329062
 31
0.0
  0
LINE
  5
3340
  8
AM_0
 10
606.92465732972676
 20
957.2195461329062
 30
0.0
 11
688.92465732972687
 21
957.2195461329062
 31
0.0
  0
LINE
  5
3341
  8
AM_0
 10
600.92471732972672
 20
959.71954613290632
 30
0.0
 11
606.92465732972676
 21
959.71954613290632
 31
0.0
  0
ARC
  5
3342
  8
AM_0
 10
597.92471732972672
 20
991.82549613290576
 30
0.0
 40
2.0
 50
180.00001000000091
 51
268.00000000000261
  0
ARC
  5
3343
  8
AM_0
 10
598.9247173297266
 20
987.78814613290569
 30
0.0
 40
2.0
 50
0.0
 51
88.000000000002785
  0
LINE
  5
3344
  8
AM_0
 10
597.85488732972669
 20
989.8267161329062
 30
0.0
 11
598.99453732972688
 21
989.78692613290593
 31
0.0
  0
LINE
  5
3345
  8
AM_0
 10
600.92471732972672
 20
1084.932316132906
 30
0.0
 11
600.92471732972672
 21
1034.5067161329059
 31
0.0
  0
ARC
  5
3346
  8
AM_0
 10
595.92471732972672
 20
1034.5067161329059
 30
0.0
 40
5.0
 50
292.02430999999922
 51
0.0
  0
ARC
  5
3347
  8
AM_0
 10
598.9247173297266
 20
1027.090516132906
 30
0.0
 40
3.0
 50
112.0243099999992
 51
180.00001000000091
  0
ARC
  5
3348
  8
AM_0
 10
595.92471732972672
 20
1084.932316132906
 30
0.0
 40
5.0
 50
0.0
 51
88.000000000002785
  0
LINE
  5
3349
  8
ﾁｭｳｼﾝｾﾝ1
 10
400.92471732972672
 20
777.71954613290609
 30
0.0
 11
400.92471732972672
 21
816.71954613290609
 31
0.0
  0
LINE
  5
334A
  8
ﾁｭｳｼﾝｾﾝ1
 10
381.42471732972678
 20
797.2195461329062
 30
0.0
 11
420.4247173297266
 21
797.2195461329062
 31
0.0
  0
LINE
  5
334B
  8
ﾁｭｳｼﾝｾﾝ1
 10
400.92471732972672
 20
1042.7195461329061
 30
0.0
 11
400.92471732972672
 21
1081.7195461329061
 31
0.0
  0
LINE
  5
334C
  8
ﾁｭｳｼﾝｾﾝ1
 10
381.42471732972678
 20
1062.2195461329061
 30
0.0
 11
420.4247173297266
 21
1062.2195461329061
 31
0.0
  0
LINE
  5
334D
  8
ﾁｭｳｼﾝｾﾝ1
 10
570.92471732972672
 20
1042.7195461329061
 30
0.0
 11
570.92471732972672
 21
1081.7195461329061
 31
0.0
  0
LINE
  5
334E
  8
ﾁｭｳｼﾝｾﾝ1
 10
551.42471732972683
 20
1062.2195461329061
 30
0.0
 11
590.42471732972672
 21
1062.2195461329061
 31
0.0
  0
LINE
  5
334F
  8
ﾁｭｳｼﾝｾﾝ
 10
416.51635732972682
 20
467.68970319081433
 30
0.0
 11
694.35350732972699
 21
467.68970319081433
 31
0.0
  0
LINE
  5
3350
  8
AM_0
 10
370.9246573297267
 20
267.6896981908144
 30
0.0
 11
600.92465732972676
 21
267.6896981908144
 31
0.0
  0
ARC
  5
3351
  8
AM_0
 10
600.92465732972676
 20
301.34994819081447
 30
0.0
 40
5.0
 50
179.9999899999988
 51
240.00000999999969
  0
ARC
  5
3352
  8
AM_0
 10
595.92465732972676
 20
292.68969819081451
 30
0.0
 40
5.0
 50
0.0
 51
90.00000299999769
  0
ARC
  5
3353
  8
AM_0
 10
597.92465732972676
 20
405.58374319081452
 30
0.0
 40
2.0000000500000001
 50
91.999998000000545
 51
180.00001000000091
  0
ARC
  5
3354
  8
AM_0
 10
597.92465732972676
 20
529.79568819081453
 30
0.0
 40
2.0000000500000001
 50
179.9999899999988
 51
268.00000999999861
  0
LINE
  5
3355
  8
AM_0
 10
434.4246573297267
 20
552.23953819081464
 30
0.0
 11
434.4246573297267
 21
315.72000319081451
 31
0.0
  0
LINE
  5
3356
  8
AM_0
 10
374.9247073297268
 20
542.68973819081464
 30
0.0
 11
374.9247073297268
 21
302.68969819081451
 31
0.0
  0
LINE
  5
3357
  8
AM_0
 10
387.9246573297267
 20
540.68968819081454
 30
0.0
 11
387.9246573297267
 21
304.68966819081447
 31
0.0
  0
LINE
  5
3358
  8
AM_0
 10
443.92465732972693
 20
587.40908819081426
 30
0.0
 11
443.92465732972693
 21
335.87152319081429
 31
0.0
  0
LINE
  5
3359
  8
AM_0
 10
453.92465732972681
 20
589.68968819081454
 30
0.0
 11
453.92465732972681
 21
357.08361819081438
 31
0.0
  0
LINE
  5
335A
  8
AM_0
 10
535.92465732972676
 20
504.64733819081448
 30
0.0
 11
535.92465732972676
 21
307.68969819081451
 31
0.0
  0
LINE
  5
335B
  8
AM_0
 10
568.92465732972676
 20
572.01688819081426
 30
0.0
 11
568.92465732972676
 21
323.9967081908145
 31
0.0
  0
LINE
  5
335C
  8
AM_0
 10
458.92465732972681
 20
459.79568819081447
 30
0.0
 11
458.92465732972681
 21
369.92868319081452
 31
0.0
  0
LINE
  5
335D
  8
AM_0
 10
595.92465732972676
 20
548.10798819081435
 30
0.0
 11
595.92465732972676
 21
301.34994819081447
 31
0.0
  0
LINE
  5
335E
  8
AM_0
 10
293.9247073297268
 20
572.68970319081427
 30
0.0
 11
293.9247073297268
 21
272.68970319081461
 31
0.0
  0
LINE
  5
335F
  8
AM_0
 10
313.92470732972691
 20
569.6897031908145
 30
0.0
 11
313.92470732972691
 21
422.68970319081461
 31
0.0
  0
LINE
  5
3360
  8
ﾁｭｳｼﾝｾﾝ
 10
277.48399468460582
 20
422.68970319081433
 30
0.0
 11
439.49770688558158
 21
422.68970319081433
 31
0.0
  0
LINE
  5
3361
  8
AM_0
 10
374.9247073297268
 20
302.68969819081451
 30
0.0
 11
385.9246573297267
 21
302.68969819081451
 31
0.0
  0
ARC
  5
3362
  8
AM_0
 10
375.9246573297267
 20
292.68969819081451
 30
0.0
 40
5.0
 50
90.00000299999769
 51
180.00001000000091
  0
LINE
  5
3363
  8
AM_0
 10
374.9247073297268
 20
322.96249819081447
 30
0.0
 11
385.9246573297267
 21
322.96249819081447
 31
0.0
  0
LINE
  5
3364
  8
AM_0
 10
374.9247073297268
 20
338.51883319081452
 30
0.0
 11
385.9246573297267
 21
338.51883319081452
 31
0.0
  0
LINE
  5
3365
  8
AM_0
 10
313.92470732972691
 20
275.68970319081461
 30
0.0
 11
313.92470732972691
 21
422.68970319081461
 31
0.0
  0
ARC
  5
3366
  8
AM_0
 10
318.92470732972691
 20
305.88686119081461
 30
0.0
 40
5.0
 50
114.0451930000017
 51
180.0
  0
LINE
  5
3367
  8
AM_0
 10
374.9247073297268
 20
304.68970313086231
 30
0.0
 11
318.79382332972682
 21
303.21986419081452
 31
0.0
  0
LINE
  5
3368
  8
AM_0
 10
293.9247073297268
 20
272.68970319081461
 30
0.0
 11
310.92470732972691
 21
272.68970319081461
 31
0.0
  0
ARC
  5
3369
  8
AM_0
 10
310.92470732972691
 20
275.68970319081461
 30
0.0
 40
3.0
 50
270.0
 51
0.0
  0
ARC
  5
336A
  8
AM_0
 10
318.92470732972691
 20
298.22157819081463
 30
0.0
 40
5.0
 50
91.499999999996206
 51
180.0
  0
LINE
  5
336B
  8
AM_0
 10
370.9246573297267
 20
292.68969819081451
 30
0.0
 11
370.9246573297267
 21
267.6896981908144
 31
0.0
  0
LINE
  5
336C
  8
AM_0
 10
316.8874223297268
 20
326.00933219081452
 30
0.0
 11
341.65770932972657
 21
337.06119319081461
 31
0.0
  0
LINE
  5
336D
  8
AM_0
 10
316.8874223297268
 20
310.45298219081462
 30
0.0
 11
341.65770932972657
 21
321.50484419081448
 31
0.0
  0
LINE
  5
336E
  8
AM_0
 10
371.22771532972672
 20
348.15594319081453
 30
0.0
 11
318.79382332972682
 21
346.78291319081461
 31
0.0
  0
ARC
  5
336F
  8
AM_0
 10
318.92470732972691
 20
321.44321019081463
 30
0.0
 40
5.0
 50
114.0451930000017
 51
180.0
  0
ARC
  5
3370
  8
AM_0
 10
318.92470732972691
 20
341.78462619081461
 30
0.0
 40
5.0
 50
91.499999999996206
 51
150.7208909999986
  0
LINE
  5
3371
  8
AM_0
 10
372.9247073297268
 20
346.66619619081462
 30
0.0
 11
372.9247073297268
 21
339.51884319081461
 31
0.0
  0
LINE
  5
3372
  8
AM_0
 10
343.52049732972682
 20
321.9356761908146
 30
0.0
 11
371.92531732972679
 21
322.9275941908146
 31
0.0
  0
LINE
  5
3373
  8
AM_0
 10
371.92531732972679
 20
338.48394419081461
 30
0.0
 11
343.52049732972682
 21
337.49202519081462
 31
0.0
  0
LINE
  5
3374
  8
AM_0
 10
344.92470732972669
 20
323.96874519081462
 30
0.0
 11
344.92470732972669
 21
335.44894719081452
 31
0.0
  0
ARC
  5
3375
  8
AM_0
 10
343.69499532972679
 20
316.93872219081459
 30
0.0
 40
5.0
 50
91.999999999997087
 51
114.0451930000017
  0
ARC
  5
3376
  8
AM_0
 10
343.69499532972679
 20
332.4950711908146
 30
0.0
 40
5.0
 50
91.999999999997087
 51
114.0451930000017
  0
LINE
  5
3377
  8
AM_0
 10
371.92531732972679
 20
338.48394419081461
 30
0.0
 11
371.92531732972679
 21
322.9275941908146
 31
0.0
  0
LINE
  5
3378
  8
AM_0
 10
372.9247073297268
 20
339.51884319081461
 30
0.0
 11
372.9247073297268
 21
323.96249419081471
 31
0.0
  0
LINE
  5
3379
  8
AM_0
 10
371.92531732972679
 20
322.9275941908146
 30
0.0
 11
372.9247073297268
 21
323.96249419081471
 31
0.0
  0
LINE
  5
337A
  8
AM_0
 10
371.92531732972679
 20
338.48394419081461
 30
0.0
 11
372.9247073297268
 21
339.51884319081461
 31
0.0
  0
ARC
  5
337B
  8
AM_0
 10
545.92465732972676
 20
307.68969819081451
 30
0.0
 40
10.0
 50
179.9999899999988
 51
270.0
  0
LINE
  5
337C
  8
AM_0
 10
427.27665732972702
 20
300.5575881908145
 30
0.0
 11
457.96995732972681
 21
365.66449319081431
 31
0.0
  0
LINE
  5
337D
  8
ｶｸﾚｾﾝ2
 10
391.42465732972681
 20
297.68969819081451
 30
0.0
 11
391.42465732972681
 21
267.6896981908144
 31
0.0
  0
LINE
  5
337E
  8
ｶｸﾚｾﾝ2
 10
410.4246573297267
 20
297.68969819081451
 30
0.0
 11
410.4246573297267
 21
267.6896981908144
 31
0.0
  0
LINE
  5
337F
  8
ﾁｭｳｼﾝｾﾝ1
 10
400.92465732972647
 20
301.59756819081463
 30
0.0
 11
400.92465732972647
 21
264.6896981908144
 31
0.0
  0
LINE
  5
3380
  8
AM_0
 10
375.9246573297267
 20
297.68969819081451
 30
0.0
 11
422.75405732972661
 21
297.68969819081451
 31
0.0
  0
ARC
  5
3381
  8
AM_0
 10
385.9246573297267
 20
304.68966819081447
 30
0.0
 40
2.0000000500000001
 50
270.0
 51
0.0
  0
ARC
  5
3382
  8
AM_0
 10
422.75405732972661
 20
302.68969819081451
 30
0.0
 40
5.0
 50
270.0
 51
334.7594700000011
  0
LINE
  5
3383
  8
ﾁｭｳｼﾝｾﾝ1
 10
570.92465732972676
 20
301.59756819081451
 30
0.0
 11
570.92465732972676
 21
264.6896981908144
 31
0.0
  0
LINE
  5
3384
  8
ｶｸﾚｾﾝ2
 10
561.42465732972676
 20
297.68969819081451
 30
0.0
 11
561.42465732972676
 21
267.6896981908144
 31
0.0
  0
LINE
  5
3385
  8
ｶｸﾚｾﾝ2
 10
580.42465732972676
 20
297.68969819081451
 30
0.0
 11
580.42465732972676
 21
267.6896981908144
 31
0.0
  0
LINE
  5
3386
  8
AM_0
 10
545.92465732972676
 20
297.68969819081451
 30
0.0
 11
595.92465732972676
 21
297.68969819081451
 31
0.0
  0
LINE
  5
3387
  8
AM_0
 10
387.9246573297267
 20
336.01480319081452
 30
0.0
 11
434.4246573297267
 21
336.01480319081452
 31
0.0
  0
LINE
  5
3388
  8
AM_0
 10
387.9246573297267
 20
351.7568981908143
 30
0.0
 11
434.4246573297267
 21
351.7568981908143
 31
0.0
  0
LINE
  5
3389
  8
AM_0
 10
389.9247073297268
 20
310.68969819081451
 30
0.0
 11
432.0532073297266
 21
310.68969819081451
 31
0.0
  0
ARC
  5
338A
  8
AM_0
 10
389.9247073297268
 20
308.68969819081451
 30
0.0
 40
2.0000000500000001
 50
90.00000299999769
 51
180.00001000000091
  0
ARC
  5
338B
  8
AM_0
 10
385.9246573297267
 20
324.9624631908145
 30
0.0
 40
2.0000000500000001
 50
270.0
 51
0.0
  0
ARC
  5
338C
  8
AM_0
 10
385.9246573297267
 20
340.51883319081429
 30
0.0
 40
2.0000000500000001
 50
270.0
 51
0.0
  0
LINE
  5
338D
  8
AM_0
 10
375.90355732972671
 20
348.25274819081449
 30
0.0
 11
386.93245732972707
 21
348.25274819081449
 31
0.0
  0
ARC
  5
338E
  8
AM_0
 10
448.9246573297267
 20
369.92868319081452
 30
0.0
 40
10.0
 50
334.7594700000011
 51
0.0
  0
LINE
  5
338F
  8
AM_0
 10
535.92465732972676
 20
313.9967081908145
 30
0.0
 11
558.92465732972676
 21
313.9967081908145
 31
0.0
  0
ARC
  5
3390
  8
AM_0
 10
558.92465732972676
 20
323.9967081908145
 30
0.0
 40
10.0
 50
270.0
 51
0.0
  0
LINE
  5
3391
  8
AM_0
 10
374.9247073297268
 20
506.86053819081428
 30
0.0
 11
385.9246573297267
 21
506.86053819081428
 31
0.0
  0
LINE
  5
3392
  8
AM_0
 10
374.9247073297268
 20
522.41688819081457
 30
0.0
 11
385.9246573297267
 21
522.41688819081457
 31
0.0
  0
LINE
  5
3393
  8
AM_0
 10
374.9247073297268
 20
542.68973819081464
 30
0.0
 11
385.9246573297267
 21
542.68973819081464
 31
0.0
  0
LINE
  5
3394
  8
AM_0
 10
316.8874223297268
 20
534.92642419081426
 30
0.0
 11
341.65770932972657
 21
523.87456319081457
 31
0.0
  0
LINE
  5
3395
  8
AM_0
 10
316.8874223297268
 20
519.37007519081465
 30
0.0
 11
341.65770932972657
 21
508.3182141908145
 31
0.0
  0
LINE
  5
3396
  8
AM_0
 10
371.22771532972672
 20
497.22346419081452
 30
0.0
 11
318.79382332972682
 21
498.5964941908145
 31
0.0
  0
ARC
  5
3397
  8
AM_0
 10
318.92470732972691
 20
503.59478019081462
 30
0.0
 40
5.0
 50
209.27910900000131
 51
268.4999999999971
  0
ARC
  5
3398
  8
AM_0
 10
318.92470732972691
 20
523.93619719081426
 30
0.0
 40
5.0
 50
180.0
 51
245.9548069999982
  0
LINE
  5
3399
  8
AM_0
 10
343.52049732972682
 20
523.44373019081445
 30
0.0
 11
371.92531732972679
 21
522.45181219081462
 31
0.0
  0
LINE
  5
339A
  8
AM_0
 10
371.92531732972679
 20
506.8954631908145
 30
0.0
 11
343.52049732972682
 21
507.88738119081438
 31
0.0
  0
LINE
  5
339B
  8
AM_0
 10
344.92470732972669
 20
521.41066119081415
 30
0.0
 11
344.92470732972669
 21
509.93046019081447
 31
0.0
  0
ARC
  5
339C
  8
AM_0
 10
343.69499532972679
 20
512.88433519081445
 30
0.0
 40
5.0
 50
245.9548069999982
 51
268.0000000000029
  0
ARC
  5
339D
  8
AM_0
 10
343.69499532972679
 20
528.44068419081452
 30
0.0
 40
5.0
 50
245.9548069999982
 51
268.0000000000029
  0
LINE
  5
339E
  8
AM_0
 10
372.9247073297268
 20
505.86056419081473
 30
0.0
 11
372.9247073297268
 21
521.41691319081463
 31
0.0
  0
LINE
  5
339F
  8
AM_0
 10
371.92531732972679
 20
506.8954631908145
 30
0.0
 11
372.9247073297268
 21
505.86056419081473
 31
0.0
  0
LINE
  5
33A0
  8
AM_0
 10
372.9247073297268
 20
498.71321019081438
 30
0.0
 11
372.9247073297268
 21
505.86056419081473
 31
0.0
  0
LINE
  5
33A1
  8
AM_0
 10
371.92531732972679
 20
506.8954631908145
 30
0.0
 11
371.92531732972679
 21
522.45181219081462
 31
0.0
  0
LINE
  5
33A2
  8
AM_0
 10
371.92531732972679
 20
522.45181219081462
 30
0.0
 11
372.9247073297268
 21
521.41691319081463
 31
0.0
  0
LINE
  5
33A3
  8
AM_0
 10
374.9247073297268
 20
540.68970325076691
 30
0.0
 11
318.79382332972682
 21
542.1595421908147
 31
0.0
  0
ARC
  5
33A4
  8
AM_0
 10
318.92470732972691
 20
547.15782919081425
 30
0.0
 40
5.0
 50
180.0
 51
268.4999999999971
  0
ARC
  5
33A5
  8
AM_0
 10
318.92470732972691
 20
539.49254619081455
 30
0.0
 40
5.0
 50
180.0
 51
245.9548069999982
  0
LINE
  5
33A6
  8
AM_0
 10
293.9247073297268
 20
572.68970319081427
 30
0.0
 11
310.92470732972691
 21
572.68970319081427
 31
0.0
  0
ARC
  5
33A7
  8
AM_0
 10
310.92470732972691
 20
569.6897031908145
 30
0.0
 40
3.0
 50
0.0
 51
90.0
  0
ARC
  5
33A8
  8
AM_0
 10
435.92465732972681
 20
615.68968819081454
 30
0.0
 40
25.000000499999999
 50
306.46672000000012
 51
233.53329000000139
  0
LINE
  5
33A9
  8
AM_0
 10
448.42465732972681
 20
589.68968819081454
 30
0.0
 11
446.1742073297267
 21
598.08853819081435
 31
0.0
  0
LINE
  5
33AA
  8
AM_0
 10
423.21005732972702
 20
588.88858819081429
 30
0.0
 11
425.67520732972679
 21
598.08858819081445
 31
0.0
  0
LINE
  5
33AB
  8
AM_0
 10
481.95295732972681
 20
584.71088819081456
 30
0.0
 11
559.27370732972702
 21
582.01083819081452
 31
0.0
  0
LINE
  5
33AC
  8
AM_0
 10
478.92465732972681
 20
583.98823819081451
 30
0.0
 11
478.92465732972681
 21
459.79568819081447
 31
0.0
  0
LINE
  5
33AD
  8
AM_0
 10
387.9246573297267
 20
493.62253319081452
 30
0.0
 11
434.4246573297267
 21
493.62253319081452
 31
0.0
  0
LINE
  5
33AE
  8
AM_0
 10
387.9246573297267
 20
509.36458819081452
 30
0.0
 11
434.4246573297267
 21
509.36458819081452
 31
0.0
  0
ARC
  5
33AF
  8
AM_0
 10
385.9246573297267
 20
504.86053819081451
 30
0.0
 40
2.0000000500000001
 50
0.0
 51
90.00000299999769
  0
LINE
  5
33B0
  8
AM_0
 10
375.90355732972671
 20
497.12665319081452
 30
0.0
 11
386.93245732972707
 21
497.12665319081452
 31
0.0
  0
ARC
  5
33B1
  8
AM_0
 10
385.9246573297267
 20
520.41688819081435
 30
0.0
 40
2.0000000500000001
 50
0.0
 51
90.00000299999769
  0
LINE
  5
33B2
  8
AM_0
 10
458.92465732972681
 20
459.79568819081447
 30
0.0
 11
478.92465732972681
 21
459.79568819081447
 31
0.0
  0
LINE
  5
33B3
  8
AM_0
 10
425.92465732972647
 20
589.68968819081454
 30
0.0
 11
453.6246573297268
 21
589.68968819081454
 31
0.0
  0
LINE
  5
33B4
  8
AM_0
 10
418.92465732972693
 20
534.68968819081454
 30
0.0
 11
432.4247073297268
 21
534.68968819081454
 31
0.0
  0
LINE
  5
33B5
  8
AM_0
 10
420.92465732972647
 20
584.68968819081454
 30
0.0
 11
420.92465732972647
 21
536.68968819081454
 31
0.0
  0
LINE
  5
33B6
  8
AM_0
 10
389.9247073297268
 20
534.68968819081454
 30
0.0
 11
418.92465732972693
 21
534.68968819081454
 31
0.0
  0
ARC
  5
33B7
  8
AM_0
 10
385.9246573297267
 20
540.68968819081454
 30
0.0
 40
2.0000000500000001
 50
0.0
 51
90.00000299999769
  0
ARC
  5
33B8
  8
AM_0
 10
389.9247073297268
 20
536.68968819081454
 30
0.0
 40
2.0000000500000001
 50
179.9999899999988
 51
270.0
  0
ARC
  5
33B9
  8
AM_0
 10
418.92465732972693
 20
536.68968819081454
 30
0.0
 40
2.0000000500000001
 50
270.0
 51
0.0
  0
ARC
  5
33BA
  8
AM_0
 10
417.4996073297267
 20
590.75943819081408
 30
0.0
 40
6.0
 50
349.72994999999878
 51
53.533291000002919
  0
ARC
  5
33BB
  8
AM_0
 10
425.92465732972647
 20
584.68968819081454
 30
0.0
 40
5.0
 50
90.00000299999769
 51
180.00001000000091
  0
LINE
  5
33BC
  8
AM_0
 10
443.14875732972678
 20
567.4645881908142
 30
0.0
 11
435.20060732972678
 21
554.91478819081453
 31
0.0
  0
ARC
  5
33BD
  8
AM_0
 10
432.4247073297268
 20
536.68968819081454
 30
0.0
 40
2.0000000500000001
 50
270.0
 51
0.0
  0
ARC
  5
33BE
  8
AM_0
 10
439.4246573297267
 20
552.23953819081464
 30
0.0
 40
5.0
 50
147.65256000000051
 51
180.00001000000091
  0
LINE
  5
33BF
  8
AM_0
 10
453.92465732972681
 20
589.68968819081454
 30
0.0
 11
474.09915732972672
 21
588.9851381908145
 31
0.0
  0
ARC
  5
33C0
  8
AM_0
 10
438.92465732972693
 20
570.13988819081453
 30
0.0
 40
5.0
 50
327.65256000000051
 51
0.0
  0
ARC
  5
33C1
  8
AM_0
 10
445.92465732972647
 20
587.40908819081426
 30
0.0
 40
2.0000000500000001
 50
91.999998000000545
 51
180.00001000000091
  0
ARC
  5
33C2
  8
AM_0
 10
454.34965732972671
 20
590.75943819081408
 30
0.0
 40
6.0
 50
126.46669999999671
 51
190.27005999999909
  0
LINE
  5
33C3
  8
AM_0
 10
445.85490732972693
 20
589.40788819081445
 30
0.0
 11
453.6246573297268
 21
589.67918819081433
 31
0.0
  0
LINE
  5
33C4
  8
AM_0
 10
453.6246573297268
 20
589.68968819081454
 30
0.0
 11
453.92465732972681
 21
589.68968819081454
 31
0.0
  0
ARC
  5
33C5
  8
AM_0
 10
473.9246573297267
 20
583.98823819081451
 30
0.0
 40
5.0
 50
34.887349999999799
 51
88.000000000002899
  0
ARC
  5
33C6
  8
AM_0
 10
482.12745732972678
 20
589.70783819081419
 30
0.0
 40
5.0
 50
214.88733999999911
 51
268.0000000000029
  0
ARC
  5
33C7
  8
AM_0
 10
550.92465732972676
 20
504.64733819081448
 30
0.0
 40
15.0
 50
90.00000299999769
 51
180.00001000000091
  0
LINE
  5
33C8
  8
AM_0
 10
550.92465732972676
 20
519.64733819081459
 30
0.0
 11
568.92465732972676
 21
519.64733819081459
 31
0.0
  0
ARC
  5
33C9
  8
AM_0
 10
578.92465732972676
 20
564.21518819081427
 30
0.0
 40
10.0
 50
179.9999899999988
 51
265.00000000000028
  0
LINE
  5
33CA
  8
AM_0
 10
578.0530573297267
 20
554.2532881908146
 30
0.0
 11
591.36040732972685
 21
553.08903819081445
 31
0.0
  0
ARC
  5
33CB
  8
AM_0
 10
590.92465732972676
 20
548.10798819081435
 30
0.0
 40
5.0
 50
0.0
 51
84.999996999998572
  0
ARC
  5
33CC
  8
AM_0
 10
558.92465732972676
 20
572.01688819081426
 30
0.0
 40
10.0
 50
0.0
 51
88.000000000002899
  0
LINE
  5
33CD
  8
AM_0
 10
426.13060732972679
 20
598.68968819081454
 30
0.0
 11
445.71865732972708
 21
598.68968819081454
 31
0.0
  0
CIRCLE
  5
33CE
  8
AM_0
 10
435.92465732972681
 20
615.68968819081454
 30
0.0
 40
15.0
  0
LINE
  5
33CF
  8
AM_0
 10
426.44660732972687
 20
598.81063819081453
 30
0.0
 11
435.92470732972657
 21
600.68968819081454
 31
0.0
  0
ARC
  5
33D0
  8
AM_0
 10
426.64110732972711
 20
597.8297881908145
 30
0.0
 40
1.0
 50
101.213289999998
 51
164.99999000000179
  0
LINE
  5
33D1
  8
AM_0
 10
435.92465732972681
 20
600.68968819081454
 30
0.0
 11
445.4027073297267
 21
598.81068819081429
 31
0.0
  0
ARC
  5
33D2
  8
AM_0
 10
445.20830732972712
 20
597.8297881908145
 30
0.0
 40
1.0
 50
15.000000000000741
 51
78.786710000001847
  0
ARC
  5
33D3
  8
AM_0
 10
1007.909929024142
 20
467.68970319081433
 30
0.0
 40
60.0
 50
270.0
 51
90.00000299999769
  0
ARC
  5
33D4
  8
AM_0
 10
1007.909929024142
 20
467.68970319081433
 30
0.0
 40
60.0
 50
90.00000299999769
 51
270.0
  0
ARC
  5
33D5
  8
AM_0
 10
1007.909929024142
 20
467.68970319081433
 30
0.0
 40
27.500000499999999
 50
106.9123899999975
 51
73.087596999998908
  0
LINE
  5
33D6
  8
AM_0
 10
1172.909919024142
 20
297.68969819081451
 30
0.0
 11
1134.712559024141
 21
494.1980331908145
 31
0.0
  0
LINE
  5
33D7
  8
AM_0
 10
1124.9098990241421
 20
374.65359819081431
 30
0.0
 11
1124.9098990241421
 21
518.62348819081456
 31
0.0
  0
LINE
  5
33D8
  8
AM_0
 10
1107.9098990241421
 20
309.68966819081447
 30
0.0
 11
1107.9098990241421
 21
452.6897031908145
 31
0.0
  0
LINE
  5
33D9
  8
AM_0
 10
842.90990902414217
 20
297.68969819081451
 30
0.0
 11
881.10728402414202
 21
494.19800319081452
 31
0.0
  0
LINE
  5
33DA
  8
AM_0
 10
890.90989902414208
 20
374.65359819081431
 30
0.0
 11
890.90989902414208
 21
518.62348819081456
 31
0.0
  0
LINE
  5
33DB
  8
ﾁｭｳｼﾝｾﾝ
 10
1007.909929024142
 20
261.6896981908144
 30
0.0
 11
1007.909929024142
 21
642.7976381908145
 31
0.0
  0
LINE
  5
33DC
  8
AM_0
 10
907.90992902414234
 20
309.68966819081447
 30
0.0
 11
907.90992902414234
 21
452.6897031908145
 31
0.0
  0
ARC
  5
33DD
  8
AM_0
 10
1007.909929024142
 20
422.68970319081433
 30
0.0
 40
150.0
 50
150.9216365801318
 51
191.95926182301031
  0
ARC
  5
33DE
  8
AM_0
 10
1007.909929024142
 20
422.68970319081433
 30
0.0
 40
150.0
 50
348.04071891006248
 51
29.078436675075451
  0
LINE
  5
33DF
  8
AM_0
 10
600.92465732972676
 20
525.75833819081436
 30
0.0
 11
600.92465732972676
 21
409.62109819081422
 31
0.0
  0
LINE
  5
33E0
  8
AM_0
 10
606.92465732972676
 20
497.68970319081433
 30
0.0
 11
606.92465732972676
 21
437.6897031908145
 31
0.0
  0
LINE
  5
33E1
  8
AM_0
 10
688.92465732972676
 20
499.1897031908145
 30
0.0
 11
688.92465732972676
 21
440.1897031908145
 31
0.0
  0
LINE
  5
33E2
  8
ﾁｭｳｼﾝｾﾝ
 10
873.17232753324538
 20
422.68970319081433
 30
0.0
 11
1142.181518320026
 21
422.68970319081433
 31
0.0
  0
LINE
  5
33E3
  8
AM_0
 10
1007.909929024142
 20
274.6896981908144
 30
0.0
 11
1097.9098990241421
 21
274.6896981908144
 31
0.0
  0
LINE
  5
33E4
  8
AM_0
 10
1099.980974024141
 20
280.61862319081439
 30
0.0
 11
1091.7904840241411
 21
288.80911319081451
 31
0.0
  0
LINE
  5
33E5
  8
AM_0
 10
912.90992902414234
 20
267.6896981908144
 30
0.0
 11
842.90990902414217
 21
267.6896981908144
 31
0.0
  0
LINE
  5
33E6
  8
AM_0
 10
907.90992902414234
 20
297.68969819081451
 30
0.0
 11
847.90990902414205
 21
297.68969819081451
 31
0.0
  0
LINE
  5
33E7
  8
AM_0
 10
600.92465732972676
 20
292.68969819081451
 30
0.0
 11
600.92465732972676
 21
267.6896981908144
 31
0.0
  0
LINE
  5
33E8
  8
AM_0
 10
842.90990902414217
 20
297.68969819081451
 30
0.0
 11
842.90990902414217
 21
267.6896981908144
 31
0.0
  0
LINE
  5
33E9
  8
ｶｸﾚｾﾝ2
 10
865.90989902414208
 20
297.68969819081451
 30
0.0
 11
865.90989902414208
 21
267.6896981908144
 31
0.0
  0
ARC
  5
33EA
  8
AM_0
 10
847.90990902414205
 20
292.68969819081451
 30
0.0
 40
5.0
 50
90.00000299999769
 51
180.00001000000091
  0
LINE
  5
33EB
  8
AM_0
 10
606.92465732972676
 20
440.1897031908145
 30
0.0
 11
688.92465732972676
 21
440.1897031908145
 31
0.0
  0
ARC
  5
33EC
  8
AM_0
 10
598.92465732972676
 20
409.62109819081422
 30
0.0
 40
2.0000000500000001
 50
271.99999999999687
 51
0.0
  0
LINE
  5
33ED
  8
AM_0
 10
597.854857329727
 20
407.58249319081449
 30
0.0
 11
598.99440732972687
 21
407.62228819081452
 31
0.0
  0
LINE
  5
33EE
  8
AM_0
 10
600.92465732972676
 20
437.6897031908145
 30
0.0
 11
606.92465732972676
 21
437.6897031908145
 31
0.0
  0
ARC
  5
33EF
  8
AM_0
 10
895.90989902414231
 20
309.68966819081447
 30
0.0
 40
12.0
 50
270.0
 51
0.0
  0
LINE
  5
33F0
  8
AM_0
 10
1007.909929024142
 20
283.68969819081451
 30
0.0
 11
948.90058902414216
 21
283.68969819081451
 31
0.0
  0
LINE
  5
33F1
  8
AM_0
 10
1007.909929024142
 20
274.6896981908144
 30
0.0
 11
917.90992902414223
 21
274.6896981908144
 31
0.0
  0
ARC
  5
33F2
  8
AM_0
 10
931.10038902414215
 20
281.73803819081451
 30
0.0
 40
10.0
 50
54.999999000001559
 51
135.0
  0
LINE
  5
33F3
  8
ｶｸﾚｾﾝ2
 10
884.90989902414219
 20
297.68969819081451
 30
0.0
 11
884.90989902414219
 21
267.6896981908144
 31
0.0
  0
LINE
  5
33F4
  8
ﾁｭｳｼﾝｾﾝ1
 10
875.40992902414234
 20
302.35095319081438
 30
0.0
 11
875.40992902414234
 21
264.6896981908144
 31
0.0
  0
ARC
  5
33F5
  8
AM_0
 10
917.90992902414223
 20
269.6896981908144
 30
0.0
 40
5.0
 50
90.00000299999769
 51
180.00001000000091
  0
LINE
  5
33F6
  8
AM_0
 10
912.90992902414234
 20
292.68969819081451
 30
0.0
 11
912.90992902414234
 21
267.6896981908144
 31
0.0
  0
LINE
  5
33F7
  8
AM_0
 10
915.83885402414205
 20
280.61862319081439
 30
0.0
 11
924.02931402414231
 21
288.80911319081451
 31
0.0
  0
ARC
  5
33F8
  8
AM_0
 10
922.90992902414234
 20
273.5475481908145
 30
0.0
 40
10.0
 50
135.0
 51
180.00001000000091
  0
ARC
  5
33F9
  8
AM_0
 10
907.90992902414234
 20
292.68969819081451
 30
0.0
 40
5.0
 50
0.0
 51
90.00000299999769
  0
LINE
  5
33FA
  8
AM_0
 10
943.16481402414206
 20
285.49816819081423
 30
0.0
 11
936.83616902414212
 21
289.92956819081422
 31
0.0
  0
ARC
  5
33FB
  8
AM_0
 10
948.90058902414216
 20
293.68969819081423
 30
0.0
 40
10.0
 50
235.0000000000025
 51
270.0
  0
LINE
  5
33FC
  8
AM_0
 10
1007.909929024142
 20
283.68969819081451
 30
0.0
 11
1066.919239024141
 21
283.68969819081451
 31
0.0
  0
ARC
  5
33FD
  8
AM_0
 10
1066.919239024141
 20
293.68969819081423
 30
0.0
 40
10.0
 50
270.0
 51
304.99999999999739
  0
LINE
  5
33FE
  8
AM_0
 10
1072.655019024141
 20
285.49813819081459
 30
0.0
 11
1078.9836940241421
 21
289.9295381908143
 31
0.0
  0
ARC
  5
33FF
  8
AM_0
 10
1084.7194090241419
 20
281.73803819081451
 30
0.0
 40
10.0
 50
45.00000100000149
 51
124.9999999999972
  0
ARC
  5
3400
  8
AM_0
 10
1007.909929024142
 20
374.68966819081447
 30
0.0
 40
117.0
 50
179.9999899999988
 51
211.2732999999987
  0
ARC
  5
3401
  8
AM_0
 10
1119.9098990241421
 20
309.68966819081447
 30
0.0
 40
12.0
 50
180.00001000000091
 51
270.0
  0
LINE
  5
3402
  8
AM_0
 10
1102.9098990241421
 20
267.6896981908144
 30
0.0
 11
1172.909904024142
 21
267.6896981908144
 31
0.0
  0
LINE
  5
3403
  8
AM_0
 10
1107.9098990241421
 20
297.68969819081451
 30
0.0
 11
1167.909904024142
 21
297.68969819081451
 31
0.0
  0
ARC
  5
3404
  8
AM_0
 10
1097.9098990241421
 20
269.6896981908144
 30
0.0
 40
5.0
 50
0.0
 51
90.00000299999769
  0
LINE
  5
3405
  8
AM_0
 10
1102.9098990241421
 20
292.68969819081451
 30
0.0
 11
1102.9098990241421
 21
267.6896981908144
 31
0.0
  0
LINE
  5
3406
  8
ｶｸﾚｾﾝ2
 10
1130.909919024142
 20
297.68969819081451
 30
0.0
 11
1130.909919024142
 21
267.6896981908144
 31
0.0
  0
LINE
  5
3407
  8
ﾁｭｳｼﾝｾﾝ1
 10
1140.409904024141
 20
302.35095319081438
 30
0.0
 11
1140.409904024141
 21
264.6896981908144
 31
0.0
  0
LINE
  5
3408
  8
ｶｸﾚｾﾝ2
 10
1149.909904024142
 20
297.68969819081451
 30
0.0
 11
1149.909904024142
 21
267.6896981908144
 31
0.0
  0
ARC
  5
3409
  8
AM_0
 10
1092.9098990241421
 20
273.5475481908145
 30
0.0
 40
10.0
 50
0.0
 51
45.00000100000149
  0
ARC
  5
340A
  8
AM_0
 10
1107.9098990241421
 20
292.68969819081451
 30
0.0
 40
5.0
 50
90.00000299999769
 51
180.00001000000091
  0
LINE
  5
340B
  8
AM_0
 10
1172.909904024142
 20
297.68969819081451
 30
0.0
 11
1172.909904024142
 21
267.6896981908144
 31
0.0
  0
ARC
  5
340C
  8
AM_0
 10
1167.909904024142
 20
292.68969819081451
 30
0.0
 40
5.0
 50
0.0
 51
90.00000299999769
  0
ARC
  5
340D
  8
AM_0
 10
1007.909929024142
 20
374.68966819081447
 30
0.0
 40
117.0
 50
328.7267000000013
 51
0.0
  0
ARC
  5
340E
  8
AM_0
 10
1007.909929024142
 20
442.68970319081433
 30
0.0
 40
147.0
 50
45.402042999998848
 51
90.00000299999769
  0
ARC
  5
340F
  8
AM_0
 10
1007.909929024142
 20
442.68970319081433
 30
0.0
 40
142.0
 50
43.554364000000241
 51
90.00000299999769
  0
ARC
  5
3410
  8
AM_0
 10
1007.909929024142
 20
452.6897031908145
 30
0.0
 40
100.0
 50
0.0
 51
90.00000299999769
  0
ARC
  5
3411
  8
AM_0
 10
974.90989902414208
 20
476.15610319081429
 30
0.0
 40
100.0
 50
134.59796000000111
 51
180.00001000000091
  0
LINE
  5
3412
  8
AM_0
 10
606.92465732972676
 20
495.1897031908145
 30
0.0
 11
688.92465732972676
 21
495.1897031908145
 31
0.0
  0
LINE
  5
3413
  8
AM_0
 10
626.92465732972676
 20
499.1897031908145
 30
0.0
 11
688.92465732972676
 21
499.1897031908145
 31
0.0
  0
LINE
  5
3414
  8
AM_0
 10
600.92465732972676
 20
497.68970319081433
 30
0.0
 11
606.92465732972676
 21
497.68970319081433
 31
0.0
  0
LINE
  5
3415
  8
AM_0
 10
626.92465732972676
 20
499.1897031908145
 30
0.0
 11
626.92465732972676
 21
495.1897031908145
 31
0.0
  0
ARC
  5
3416
  8
AM_0
 10
598.92465732972676
 20
525.75833819081436
 30
0.0
 40
2.0000000500000001
 50
0.0
 51
88.000000000002899
  0
LINE
  5
3417
  8
AM_0
 10
597.8549073297271
 20
527.79683819081436
 30
0.0
 11
598.99450732972696
 21
527.75703819081446
 31
0.0
  0
LINE
  5
3418
  8
AM_0
 10
874.90989902414208
 20
476.15610319081429
 30
0.0
 11
874.90989902414208
 21
462.31540319081449
 31
0.0
  0
ARC
  5
3419
  8
AM_0
 10
1007.909929024142
 20
442.68970319081433
 30
0.0
 40
147.0
 50
90.00000299999769
 51
134.59796000000111
  0
LINE
  5
341A
  8
AM_0
 10
1002.909929024142
 20
635.68968819081454
 30
0.0
 11
1002.909929024142
 21
593.68968819081454
 31
0.0
  0
LINE
  5
341B
  8
AM_0
 10
1012.909929024142
 20
635.68968819081454
 30
0.0
 11
1012.909929024142
 21
593.68968819081454
 31
0.0
  0
LINE
  5
341C
  8
AM_0
 10
1020.555924024142
 20
589.14473819081445
 30
0.0
 11
1018.159444024142
 21
598.08853819081435
 31
0.0
  0
LINE
  5
341D
  8
AM_0
 10
995.26390402414233
 20
589.14473819081445
 30
0.0
 11
997.66041902414236
 21
598.08858819081445
 31
0.0
  0
LINE
  5
341E
  8
ﾁｭｳｼﾝｾﾝ
 10
1096.0656577071841
 20
467.68970319081461
 30
0.0
 11
919.98691436467038
 21
467.68970319081461
 31
0.0
  0
ARC
  5
341F
  8
AM_0
 10
1007.909929024142
 20
442.68970319081433
 30
0.0
 40
142.0
 50
90.00000299999769
 51
136.4456399999961
  0
ARC
  5
3420
  8
AM_0
 10
1007.909929024142
 20
452.6897031908145
 30
0.0
 40
100.0
 50
90.00000299999769
 51
180.00001000000091
  0
ARC
  5
3421
  8
AM_0
 10
972.39860902414227
 20
476.45279319081448
 30
0.0
 40
93.0
 50
136.4456399999961
 51
169.00000000000131
  0
ARC
  5
3422
  8
AM_0
 10
900.90989902414219
 20
518.62348819081456
 30
0.0
 40
10.0
 50
149.46391999999909
 51
180.00001000000091
  0
CIRCLE
  5
3423
  8
AM_0
 10
1007.909929024142
 20
467.68970319081433
 30
0.0
 40
4.500000049999997
  0
CIRCLE
  5
3424
  8
AM_5
 10
1007.909929024142
 20
467.68970319081433
 30
0.0
 40
6.0
  0
LINE
  5
3425
  8
AM_0
 10
999.90989902414208
 20
499.1897031908145
 30
0.0
 11
1015.9098990241411
 21
499.1897031908145
 31
0.0
  0
LINE
  5
3426
  8
AM_0
 10
999.90989902414208
 20
489.18970319081421
 30
0.0
 11
1015.9098990241411
 21
489.18970319081421
 31
0.0
  0
LINE
  5
3427
  8
AM_0
 10
999.90989902414208
 20
489.18970319081421
 30
0.0
 11
999.90989902414208
 21
499.1897031908145
 31
0.0
  0
LINE
  5
3428
  8
AM_0
 10
1015.9098990241411
 20
489.18970319081421
 30
0.0
 11
1015.9098990241411
 21
499.1897031908145
 31
0.0
  0
ARC
  5
3429
  8
AM_0
 10
1014.909899024142
 20
593.68968819081454
 30
0.0
 40
2.0000000500000001
 50
179.9999899999988
 51
270.0
  0
ARC
  5
342A
  8
AM_0
 10
1000.909899024142
 20
593.68968819081454
 30
0.0
 40
2.0000000500000001
 50
270.0
 51
0.0
  0
ARC
  5
342B
  8
AM_0
 10
1007.909929024142
 20
635.68968819081454
 30
0.0
 40
5.0
 50
359.999989999999
 51
179.9999899999988
  0
LINE
  5
342C
  8
AM_0
 10
1012.909929024142
 20
599.6985381908147
 30
0.0
 11
1017.387989024142
 21
598.81068819081429
 31
0.0
  0
LINE
  5
342D
  8
AM_0
 10
998.4318740241423
 20
598.81063819081453
 30
0.0
 11
1002.909899024142
 21
599.6983881908144
 31
0.0
  0
ARC
  5
342E
  8
AM_0
 10
998.62632902414214
 20
597.8297881908145
 30
0.0
 40
1.0
 50
101.213289999998
 51
164.99999000000179
  0
ARC
  5
342F
  8
AM_0
 10
1017.193469024141
 20
597.8297881908145
 30
0.0
 40
1.0
 50
15.000000000000741
 51
78.786710000001847
  0
ARC
  5
3430
  8
AM_0
 10
1040.9098990241421
 20
476.15610319081429
 30
0.0
 40
100.0
 50
0.0
 51
45.402042999998848
  0
ARC
  5
3431
  8
AM_0
 10
1043.421224024142
 20
476.45279319081448
 30
0.0
 40
93.0
 50
10.999999999998691
 51
43.554364000000241
  0
LINE
  5
3432
  8
AM_0
 10
1140.909919024142
 20
476.15610319081429
 30
0.0
 11
1140.909919024142
 21
462.31540319081449
 31
0.0
  0
ARC
  5
3433
  8
AM_0
 10
1114.9098990241421
 20
518.62348819081456
 30
0.0
 40
10.0
 50
0.0
 51
30.53608500000156
  0
LINE
  5
3434
  8
AM_0
 10
313.92471732972678
 20
1076.719531132906
 30
0.0
 11
313.92471732972678
 21
929.71953113290579
 31
0.0
  0
LINE
  5
3435
  8
AM_0
 10
293.92471732972678
 20
1079.719531132906
 30
0.0
 11
293.92471732972678
 21
779.71953113290624
 31
0.0
  0
LINE
  5
3436
  8
AM_0
 10
313.92471732972678
 20
782.71953113290624
 30
0.0
 11
313.92471732972678
 21
929.71953113290579
 31
0.0
  0
LINE
  5
3437
  8
AM_0
 10
293.92471732972678
 20
779.71953113290624
 30
0.0
 11
310.92471732972678
 21
779.71953113290624
 31
0.0
  0
ARC
  5
3438
  8
AM_0
 10
310.92471732972678
 20
782.71953113290624
 30
0.0
 40
3.0
 50
270.0
 51
0.0
  0
LINE
  5
3439
  8
AM_0
 10
371.22772532972658
 20
855.1857711329061
 30
0.0
 11
318.79383332972679
 21
853.81274113290624
 31
0.0
  0
LINE
  5
343A
  8
AM_0
 10
316.88743232972689
 20
817.48281013290625
 30
0.0
 11
341.65771932972677
 21
828.53467213290594
 31
0.0
  0
LINE
  5
343B
  8
AM_0
 10
316.88743232972689
 20
833.03916013290609
 30
0.0
 11
341.65771932972677
 21
844.09102113290635
 31
0.0
  0
LINE
  5
343C
  8
AM_0
 10
374.92471732972672
 20
811.71953107295383
 30
0.0
 11
318.79383332972679
 21
810.24969213290615
 31
0.0
  0
ARC
  5
343D
  8
AM_0
 10
318.92471732972678
 20
805.25140613290614
 30
0.0
 40
5.0
 50
91.499999999996206
 51
180.0
  0
ARC
  5
343E
  8
AM_0
 10
318.92471732972678
 20
812.91668913290584
 30
0.0
 40
5.0
 50
114.0451930000017
 51
180.0
  0
ARC
  5
343F
  8
AM_0
 10
318.92471732972678
 20
828.47303813290625
 30
0.0
 40
5.0
 50
114.0451930000017
 51
180.0
  0
ARC
  5
3440
  8
AM_0
 10
318.92471732972678
 20
848.81445413290612
 30
0.0
 40
5.0
 50
91.499999999996206
 51
150.7208909999986
  0
LINE
  5
3441
  8
AM_0
 10
344.92471732972672
 20
830.99857313290579
 30
0.0
 11
344.92471732972672
 21
842.47877513290609
 31
0.0
  0
LINE
  5
3442
  8
AM_0
 10
343.5205073297268
 20
828.96550413290618
 30
0.0
 11
371.92532732972671
 21
829.95742213290634
 31
0.0
  0
ARC
  5
3443
  8
AM_0
 10
343.6950053297266
 20
823.9685501329061
 30
0.0
 40
5.0
 50
91.999999999997087
 51
114.0451930000017
  0
LINE
  5
3444
  8
AM_0
 10
371.92532732972671
 20
845.51377213290618
 30
0.0
 11
343.5205073297268
 21
844.52185313290624
 31
0.0
  0
ARC
  5
3445
  8
AM_0
 10
343.6950053297266
 20
839.5248991329056
 30
0.0
 40
5.0
 50
91.999999999997087
 51
114.0451930000017
  0
LINE
  5
3446
  8
AM_0
 10
374.92471732972672
 20
1047.719531192856
 30
0.0
 11
318.79383332972679
 21
1049.1893701329061
 31
0.0
  0
LINE
  5
3447
  8
AM_0
 10
371.22772532972658
 20
1004.253292132906
 30
0.0
 11
318.79383332972679
 21
1005.626322132906
 31
0.0
  0
LINE
  5
3448
  8
AM_0
 10
316.88743232972689
 20
1026.399903132906
 30
0.0
 11
341.65771932972677
 21
1015.348042132906
 31
0.0
  0
LINE
  5
3449
  8
AM_0
 10
316.88743232972689
 20
1041.956252132906
 30
0.0
 11
341.65771932972677
 21
1030.9043911329061
 31
0.0
  0
ARC
  5
344A
  8
AM_0
 10
318.92471732972678
 20
1010.624608132905
 30
0.0
 40
5.0
 50
209.27910900000131
 51
268.4999999999971
  0
ARC
  5
344B
  8
AM_0
 10
318.92471732972678
 20
1030.966025132906
 30
0.0
 40
5.0
 50
180.0
 51
245.9548069999982
  0
ARC
  5
344C
  8
AM_0
 10
318.92471732972678
 20
1046.522374132906
 30
0.0
 40
5.0
 50
180.0
 51
245.9548069999982
  0
ARC
  5
344D
  8
AM_0
 10
318.92471732972678
 20
1054.187657132906
 30
0.0
 40
5.0
 50
180.0
 51
268.4999999999971
  0
LINE
  5
344E
  8
AM_0
 10
371.92532732972671
 20
1013.925291132906
 30
0.0
 11
343.5205073297268
 21
1014.917209132905
 31
0.0
  0
LINE
  5
344F
  8
AM_0
 10
343.5205073297268
 20
1030.473558132906
 30
0.0
 11
371.92532732972671
 21
1029.481640132906
 31
0.0
  0
ARC
  5
3450
  8
AM_0
 10
343.6950053297266
 20
1035.470512132905
 30
0.0
 40
5.0
 50
245.9548069999982
 51
268.0000000000029
  0
ARC
  5
3451
  8
AM_0
 10
343.6950053297266
 20
1019.914163132906
 30
0.0
 40
5.0
 50
245.9548069999982
 51
268.0000000000029
  0
LINE
  5
3452
  8
AM_0
 10
344.92471732972672
 20
1028.440489132905
 30
0.0
 11
344.92471732972672
 21
1016.960288132906
 31
0.0
  0
LINE
  5
3453
  8
AM_0
 10
293.92471732972678
 20
1079.719531132906
 30
0.0
 11
310.92471732972678
 21
1079.719531132906
 31
0.0
  0
ARC
  5
3454
  8
AM_0
 10
310.92471732972678
 20
1076.719531132906
 30
0.0
 40
3.0
 50
0.0
 51
90.0
  0
LINE
  5
3455
  8
AM_0
 10
371.92532732972671
 20
845.51377213290618
 30
0.0
 11
371.92532732972671
 21
829.95742213290634
 31
0.0
  0
LINE
  5
3456
  8
AM_0
 10
371.92532732972671
 20
829.95742213290634
 30
0.0
 11
372.92471732972672
 21
830.99232213290634
 31
0.0
  0
LINE
  5
3457
  8
AM_0
 10
371.92532732972671
 20
845.51377213290618
 30
0.0
 11
372.92471732972672
 21
846.54867113290584
 31
0.0
  0
LINE
  5
3458
  8
AM_0
 10
371.92532732972671
 20
1029.481640132906
 30
0.0
 11
372.92471732972672
 21
1028.446741132906
 31
0.0
  0
LINE
  5
3459
  8
AM_0
 10
371.92532732972671
 20
1013.925291132906
 30
0.0
 11
371.92532732972671
 21
1029.481640132906
 31
0.0
  0
LINE
  5
345A
  8
AM_0
 10
371.92532732972671
 20
1013.925291132906
 30
0.0
 11
372.92471732972672
 21
1012.890392132905
 31
0.0
  0
LINE
  5
345B
  8
AM_0
 10
372.92471732972672
 20
846.54867113290584
 30
0.0
 11
372.92471732972672
 21
830.99232213290634
 31
0.0
  0
LINE
  5
345C
  8
AM_0
 10
372.92471732972672
 20
853.69602413290625
 30
0.0
 11
372.92471732972672
 21
846.54867113290584
 31
0.0
  0
LINE
  5
345D
  8
AM_0
 10
372.92471732972672
 20
1005.743038132906
 30
0.0
 11
372.92471732972672
 21
1012.890392132905
 31
0.0
  0
LINE
  5
345E
  8
AM_0
 10
372.92471732972672
 20
1012.890392132905
 30
0.0
 11
372.92471732972672
 21
1028.446741132906
 31
0.0
  0
TEXT
  5
363F
  8
AM_0
 10
861.57235517284641
 20
980.67226303767825
 30
0.0
 40
20.0
  1
VX55-015A~VX55-030A
  0
ENDSEC
  0
EOF
