  0
SECTION
  2
HEADER
  9
$ACADVER
  1
AC1009
  9
$INSBASE
 10
0.0
 20
0.0
 30
0.0
  9
$EXTMIN
 10
326.83466011662358
 20
361.93341984361268
 30
-0.0000000349181948
  9
$EXTMAX
 10
1354.118594872205
 20
1277.487737095802
 30
0.0000000814935747
  9
$LIMMIN
 10
0.0
 20
0.0
  9
$LIMMAX
 10
1707.0
 20
1110.0
  9
$ORTHOMODE
 70
     0
  9
$REGENMODE
 70
     1
  9
$FILLMODE
 70
     1
  9
$QTEXTMODE
 70
     0
  9
$MIRRTEXT
 70
     1
  9
$DRAGMODE
 70
     2
  9
$LTSCALE
 40
6.0
  9
$OSMODE
 70
   551
  9
$ATTMODE
 70
     1
  9
$TEXTSIZE
 40
2.5
  9
$TRACEWID
 40
1.0
  9
$TEXTSTYLE
  7
STANDARD
  9
$CLAYER
  8
AM_0
  9
$CELTYPE
  6
BYLAYER
  9
$CECOLOR
 62
   256
  9
$DIMSCALE
 40
1.0
  9
$DIMASZ
 40
2.5
  9
$DIMEXO
 40
1.0
  9
$DIMDLI
 40
8.0
  9
$DIMRND
 40
0.0
  9
$DIMDLE
 40
0.0
  9
$DIMEXE
 40
0.6
  9
$DIMTP
 40
0.1
  9
$DIMTM
 40
0.1
  9
$DIMTXT
 40
2.5
  9
$DIMCEN
 40
0.0
  9
$DIMTSZ
 40
0.0
  9
$DIMTOL
 70
     0
  9
$DIMLIM
 70
     0
  9
$DIMTIH
 70
     0
  9
$DIMTOH
 70
     0
  9
$DIMSE1
 70
     0
  9
$DIMSE2
 70
     0
  9
$DIMTAD
 70
     1
  9
$DIMZIN
 70
     8
  9
$DIMBLK
  1

  9
$DIMASO
 70
     1
  9
$DIMSHO
 70
     1
  9
$DIMPOST
  1

  9
$DIMAPOST
  1
"
  9
$DIMALT
 70
     0
  9
$DIMALTD
 70
     2
  9
$DIMALTF
 40
0.0393701
  9
$DIMLFAC
 40
1.0
  9
$DIMTOFL
 70
     1
  9
$DIMTVP
 40
0.0
  9
$DIMTIX
 70
     0
  9
$DIMSOXD
 70
     0
  9
$DIMSAH
 70
     0
  9
$DIMBLK1
  1

  9
$DIMBLK2
  1

  9
$DIMSTYLE
  2
AM_ISO
  9
$DIMCLRD
 70
   256
  9
$DIMCLRE
 70
   256
  9
$DIMCLRT
 70
     4
  9
$DIMTFAC
 40
0.71
  9
$DIMGAP
 40
0.8
  9
$LUNITS
 70
     2
  9
$LUPREC
 70
     2
  9
$SKETCHINC
 40
1.0
  9
$FILLETRAD
 40
30.0
  9
$AUNITS
 70
     0
  9
$AUPREC
 70
     0
  9
$MENU
  1
.
  9
$ELEVATION
 40
0.0
  9
$PELEVATION
 40
0.0
  9
$THICKNESS
 40
0.0
  9
$LIMCHECK
 70
     0
  9
$BLIPMODE
 70
     0
  9
$CHAMFERA
 40
12.0
  9
$CHAMFERB
 40
6.0
  9
$SKPOLY
 70
     0
  9
$TDCREATE
 40
2452066.7850468289
  9
$TDUPDATE
 40
2458541.479118912
  9
$TDINDWG
 40
0.0917272685
  9
$TDUSRTIMER
 40
0.0917270833
  9
$USRTIMER
 70
     1
  9
$ANGBASE
 50
0.0
  9
$ANGDIR
 70
     0
  9
$PDMODE
 70
     0
  9
$PDSIZE
 40
0.0
  9
$PLINEWID
 40
0.0
  9
$COORDS
 70
     1
  9
$SPLFRAME
 70
     0
  9
$SPLINETYPE
 70
     6
  9
$SPLINESEGS
 70
     8
  9
$ATTDIA
 70
     1
  9
$ATTREQ
 70
     1
  9
$HANDLING
 70
     1
  9
$HANDSEED
  5
376F
  9
$SURFTAB1
 70
     6
  9
$SURFTAB2
 70
     6
  9
$SURFTYPE
 70
     6
  9
$SURFU
 70
     6
  9
$SURFV
 70
     6
  9
$UCSNAME
  2

  9
$UCSORG
 10
0.0
 20
0.0
 30
0.0
  9
$UCSXDIR
 10
1.0
 20
0.0
 30
0.0
  9
$UCSYDIR
 10
0.0
 20
1.0
 30
0.0
  9
$PUCSNAME
  2

  9
$PUCSORG
 10
0.0
 20
0.0
 30
0.0
  9
$PUCSXDIR
 10
1.0
 20
0.0
 30
0.0
  9
$PUCSYDIR
 10
0.0
 20
1.0
 30
0.0
  9
$USERI1
 70
     0
  9
$USERI2
 70
     0
  9
$USERI3
 70
     0
  9
$USERI4
 70
     0
  9
$USERI5
 70
     0
  9
$USERR1
 40
0.0
  9
$USERR2
 40
0.0
  9
$USERR3
 40
0.0
  9
$USERR4
 40
0.0
  9
$USERR5
 40
0.0
  9
$WORLDVIEW
 70
     1
  9
$SHADEDGE
 70
     3
  9
$SHADEDIF
 70
    70
  9
$TILEMODE
 70
     1
  9
$MAXACTVP
 70
    64
  9
$PLIMCHECK
 70
     0
  9
$PEXTMIN
 10
1.0000000000000000E+020
 20
1.0000000000000000E+020
 30
1.0000000000000000E+020
  9
$PEXTMAX
 10
-1.0000000000000000E+020
 20
-1.0000000000000000E+020
 30
-1.0000000000000000E+020
  9
$PLIMMIN
 10
0.0
 20
0.0
  9
$PLIMMAX
 10
420.0
 20
297.0
  9
$UNITMODE
 70
     0
  9
$VISRETAIN
 70
     1
  9
$PLINEGEN
 70
     0
  9
$PSLTSCALE
 70
     1
  0
ENDSEC
  0
SECTION
  2
TABLES
  0
TABLE
  2
VPORT
 70
     1
  0
VPORT
  2
*ACTIVE
 70
     0
 10
0.0
 20
0.0
 11
1.0
 21
1.0
 12
840.47662749441417
 22
819.71057846970746
 13
0.0
 23
0.0
 14
15.0
 24
15.0
 15
60.0
 25
60.0
 16
0.0
 26
0.0
 36
1.0
 17
0.0
 27
0.0
 37
0.0
 40
921.83958716467623
 41
1.7571592210767459
 42
50.0
 43
0.0
 44
0.0
 50
0.0
 51
0.0
 71
     0
 72
   100
 73
     1
 74
     3
 75
     0
 76
     0
 77
     0
 78
     0
  0
ENDTAB
  0
TABLE
  2
LTYPE
 70
    27
  0
LTYPE
  2
CONTINUOUS
 70
     0
  3
Solid line
 72
    65
 73
     0
 40
0.0
  0
LTYPE
  2
AM_ISO02W050
 70
     0
  3
__ __ __ __ __ __ __ __ __ __ __ __ __ __ __
 72
    65
 73
     2
 40
7.5
 49
6.0
 49
-1.5
  0
LTYPE
  2
AM_ISO08W050
 70
     0
  3
____ . ____ . ____ . ____ . ____ . ____ . ____
 72
    65
 73
     4
 40
18.0
 49
12.0
 49
-1.5
 49
3.0
 49
-1.5
  0
LTYPE
  2
AM_ISO09W050
 70
     0
  3
_____ . . _____ . . _____ . . ____ .. ____
 72
    65
 73
     6
 40
22.5
 49
12.0
 49
-1.5
 49
3.0
 49
-1.5
 49
3.0
 49
-1.5
  0
LTYPE
  2
AMCONSTR
 70
     0
  3
_______________________
 72
    65
 73
     2
 40
9999.0
 49
9999.0
 49
0.0
  0
LTYPE
  2
AM_ISO08W050X2
 70
     0
  3
__ . __ . __ . __ . __ . __
 72
    65
 73
     4
 40
9.0
 49
6.0
 49
-0.75
 49
1.5
 49
-0.75
  0
LTYPE
  2
AM_ISO02W050X2
 70
     0
  3
 _ _ _ _ _ _ _ _ _ _ _ _
 72
    65
 73
     2
 40
3.75
 49
3.0
 49
-0.75
  0
LTYPE
  2
AMZIGZAG
 70
     0
  3
/\/-/\/-/\/-/\/-/\/-/\/
 72
    65
 73
     2
 40
11.000099999999991
 49
0.0001
 49
-11.0
  0
LTYPE
  2
ACISOWELD
 70
     0
  3
_ _ _ _ _
 72
    65
 73
     2
 40
2.0
 49
2.0
 49
-1.0
  0
LTYPE
  2
ACISOTGB
 70
     0
  3
__ . . __ . .
 72
    65
 73
     6
 40
9.0
 49
4.0
 49
-1.0
 49
1.0
 49
-1.0
 49
1.0
 49
-1.0
  0
LTYPE
  2
ACISOTGL
 70
     0
  3
_ _ _ _ _
 72
    65
 73
     2
 40
3.0
 49
2.0
 49
-1.0
  0
LTYPE
  2
CENTER
 70
     0
  3
__ . __
 72
    65
 73
     4
 40
7.0
 49
4.0
 49
-1.0
 49
1.0
 49
-1.0
  0
LTYPE
  2
PHANTOM2
 70
     0
  3
Phantom (.5x) ___ _ _ ___ _ _ ___ _ _ ___ _ _
 72
    65
 73
     6
 40
31.75
 49
15.875
 49
-3.174999999999998
 49
3.174999999999998
 49
-3.174999999999998
 49
3.174999999999998
 49
-3.174999999999998
  0
LTYPE
  2
ACANSTGBM
 70
     0
  3
__ . . __ . .
 72
    65
 73
     6
 40
9.0
 49
4.0
 49
-1.0
 49
1.0
 49
-1.0
 49
1.0
 49
-1.0
  0
LTYPE
  2
ACANSTGLM
 70
     0
  3
_ _ _ _ _
 72
    65
 73
     2
 40
3.0
 49
2.0
 49
-1.0
  0
LTYPE
  2
GEN7
 70
     0
  3
____ . ____ . ____ . ____ . ____ . ____ . ____
 72
    65
 73
     4
 40
14.25
 49
9.75
 49
-1.5
 49
1.5
 49
-1.5
  0
LTYPE
  2
GEN3B
 70
     0
  3
 - - - - -
 72
    65
 73
     2
 40
1.0
 49
0.5
 49
-0.5
  0
LTYPE
  2
GEN7A
 70
     0
  3
__ . __ . __
 72
    65
 73
     4
 40
7.375
 49
4.75
 49
-0.875
 49
0.875
 49
-0.875
  0
LTYPE
  2
ACJISTGB
 70
     0
  3
__ . . __ . .
 72
    65
 73
     6
 40
9.0
 49
4.0
 49
-1.0
 49
1.0
 49
-1.0
 49
1.0
 49
-1.0
  0
LTYPE
  2
ACJISTGL
 70
     0
  3
_ _ _ _ _
 72
    65
 73
     2
 40
3.0
 49
2.0
 49
-1.0
  0
LTYPE
  2
HIDDEN
 70
     0
  3
Hidden __ __ __ __ __ __ __ __ __ __ __ __ __ _
 72
    65
 73
     2
 40
0.375
 49
0.25
 49
-0.125
  0
LTYPE
  2
CENTER2
 70
     0
  3
Center (.5x) ___ _ ___ _ ___ _ ___ _ ___ _ ___
 72
    65
 73
     4
 40
1.125
 49
0.75
 49
-0.125
 49
0.125
 49
-0.125
  0
LTYPE
  2
HIDDEN2
 70
     0
  3
Hidden (.5x) _ _ _ _ _ _ _ _ _ _ _ _ _ _ _ _ _
 72
    65
 73
     2
 40
0.1875
 49
0.125
 49
-0.0625
  0
LTYPE
  2
AMZIGZAG2
 70
     0
  3
/\/-/\/-/\/-/\/-/\/-/\/
 72
    65
 73
     2
 40
0.4401
 49
0.0001
 49
-0.4400000000000002
  0
LTYPE
  2
ACANSTGB
 70
     0
  3
__ . . __ . .
 72
    65
 73
     6
 40
0.35433070866
 49
0.15748031496
 49
-0.03937007874
 49
0.03937007874
 49
-0.03937007874
 49
0.03937007874
 49
-0.03937007874
  0
LTYPE
  2
ACANSTGL
 70
     0
  3
_ _ _ _ _
 72
    65
 73
     2
 40
0.11811023622
 49
0.07874015748
 49
-0.03937007874
  0
ENDTAB
  0
TABLE
  2
LAYER
 70
     7
  0
LAYER
  2
0
 70
     0
 62
     7
  6
CONTINUOUS
  0
LAYER
  2
AM_0
 70
     0
 62
     7
  6
CONTINUOUS
  0
LAYER
  2
AM_5
 70
     0
 62
     2
  6
CONTINUOUS
  0
LAYER
  2
DEFPOINTS
 70
     0
 62
     7
  6
CONTINUOUS
  0
LAYER
  2
ｶｸﾚｾﾝ2
 70
     0
 62
     3
  6
GEN3B
  0
LAYER
  2
ﾁｭｳｼﾝｾﾝ
 70
     0
 62
     1
  6
GEN7
  0
LAYER
  2
ﾁｭｳｼﾝｾﾝ1
 70
     0
 62
     1
  6
GEN7A
  0
ENDTAB
  0
TABLE
  2
STYLE
 70
     9
  0
STYLE
  2
STANDARD
 70
     0
 40
0.0
 41
0.8299999999999999
 50
0.0
 71
     0
 42
2.5
  3
txt.shx
  4
bigfont.shx
  0
STYLE
  2
ANNOTATIVE
 70
     0
 40
0.0
 41
1.0
 50
0.0
 71
     0
 42
0.2
  3
txt
  4

  0
STYLE
  2

 70
     1
 40
0.0
 41
1.0
 50
0.0
 71
     0
 42
2.5
  3
ltypeshp.shx
  4

  0
STYLE
  2
ACISOTS
 70
     0
 40
1.0
 41
1.0
 50
0.0
 71
     0
 42
2.5
  3
isocp.shx
  4
extfont.shx
  0
STYLE
  2
ACISOGDT
 70
     0
 40
0.0
 41
1.0
 50
0.0
 71
     0
 42
2.5
  3
amgdt.shx
  4

  0
STYLE
  2
ACANSTS
 70
     0
 40
1.0
 41
1.0
 50
0.0
 71
     0
 42
2.5
  3
romans.shx
  4
bigfont.shx
  0
STYLE
  2
ACANSGDT
 70
     0
 40
0.0
 41
1.0
 50
0.0
 71
     0
 42
2.5
  3
amgdt.shx
  4

  0
STYLE
  2
ACJISTS
 70
     0
 40
1.0
 41
1.0
 50
0.0
 71
     0
 42
2.5
  3
isocp.shx
  4
bigfont.shx
  0
STYLE
  2
ACJISGDT
 70
     0
 40
0.0
 41
1.0
 50
0.0
 71
     0
 42
2.5
  3
amgdt.shx
  4

  0
ENDTAB
  0
TABLE
  2
VIEW
 70
     6
  0
VIEW
  2
AM_VIEW1
 70
     0
 40
555.00000000000011
 10
499.2955801104971
 20
832.50000000000011
 41
998.59116022099431
 11
0.0
 21
0.0
 31
1.0
 12
0.0
 22
0.0
 32
0.0
 42
50.0
 43
0.0
 44
0.0
 50
0.0
 71
     0
  0
VIEW
  2
AM_VIEW2
 70
     0
 40
555.00000000000011
 10
1207.704419889501
 20
832.50000000000011
 41
998.59116022099431
 11
0.0
 21
0.0
 31
1.0
 12
0.0
 22
0.0
 32
0.0
 42
50.0
 43
0.0
 44
0.0
 50
0.0
 71
     0
  0
VIEW
  2
AM_VIEW3
 70
     0
 40
555.00000000000011
 10
499.2955801104971
 20
277.49999999999989
 41
998.59116022099431
 11
0.0
 21
0.0
 31
1.0
 12
0.0
 22
0.0
 32
0.0
 42
50.0
 43
0.0
 44
0.0
 50
0.0
 71
     0
  0
VIEW
  2
AM_VIEW4
 70
     0
 40
555.00000000000011
 10
1207.704419889501
 20
277.49999999999989
 41
998.59116022099431
 11
0.0
 21
0.0
 31
1.0
 12
0.0
 22
0.0
 32
0.0
 42
50.0
 43
0.0
 44
0.0
 50
0.0
 71
     0
  0
VIEW
  2
AM_VIEW5
 70
     0
 40
555.00000000000011
 10
853.5
 20
555.00000000000011
 41
998.59116022099431
 11
0.0
 21
0.0
 31
1.0
 12
0.0
 22
0.0
 32
0.0
 42
50.0
 43
0.0
 44
0.0
 50
0.0
 71
     0
  0
VIEW
  2
AM_VIEW6
 70
     0
 40
1109.9889000000001
 10
853.5
 20
555.0
 41
1997.162348618785
 11
0.0
 21
0.0
 31
1.0
 12
0.0
 22
0.0
 32
0.0
 42
50.0
 43
0.0
 44
0.0
 50
0.0
 71
     0
  0
ENDTAB
  0
TABLE
  2
UCS
 70
     0
  0
ENDTAB
  0
TABLE
  2
APPID
 70
    95
  0
APPID
  2
ACAD
 70
     0
  0
APPID
  2
ACADANNOTATIVE
 70
     0
  0
APPID
  2
MCAD_NO_VIS
 70
     0
  0
APPID
  2
ACAD_TEMP_GRAPHIC
 70
     0
  0
APPID
  2
ACATTRIBSERVICES
 70
     0
  0
APPID
  2
GENIUS_GENREC_14
 70
     0
  0
APPID
  2
GENIUS_GENOBJ-N-REC_13
 70
     0
  0
APPID
  2
GENIUS_GENODEF_13
 70
     0
  0
APPID
  2
GENIUS_GENOLIS_13
 70
     0
  0
APPID
  2
GENIUS_GENOBJ-N-TIT_13
 70
     0
  0
APPID
  2
GENIUS_GENOENT_13
 70
     0
  0
APPID
  2
GENIUS_GENTITLE_13
 70
     0
  0
APPID
  2
GENIUS_GENOREF_13
 70
     0
  0
APPID
  2
GENIUS_GENSCREG_15
 70
     0
  0
APPID
  2
GENIUS_GENOBJ-N-SDF_13
 70
     0
  0
APPID
  2
GENIUS_GENFIL_13
 70
     0
  0
APPID
  2
GENIUS_GENOBJ-N-CHA_13
 70
     0
  0
APPID
  2
GENIUS_GENDTOL_13
 70
     0
  0
APPID
  2
GENIUS_GENOBJ-N-FIL_13
 70
     0
  0
APPID
  2
AD_DRAW
 70
     0
  0
APPID
  2
DESIGNERASSEMBLIES
 70
     0
  0
APPID
  2
ASURF_PCURVE_APPNAME
 70
     0
  0
APPID
  2
GENIUS_GE3SECT_13
 70
     0
  0
APPID
  2
GENIUS_GENCFG_13
 70
     0
  0
APPID
  2
GENIUS_GE3CFG0_13
 70
     0
  0
APPID
  2
GENIUS_GENCFG0_13
 70
     0
  0
APPID
  2
GENIUS_GENCFG1_13
 70
     0
  0
APPID
  2
GENIUS_GENCFG2_13
 70
     0
  0
APPID
  2
GENIUS_GENCFG3_13
 70
     0
  0
APPID
  2
GENIUS_GENCFG4_13
 70
     0
  0
APPID
  2
GENIUS_GEVCFG0_13
 70
     0
  0
APPID
  2
GENIUS_GENHINW_13
 70
     0
  0
APPID
  2
GENIUS_FIRSTVISTXT_14
 70
     0
  0
APPID
  2
GENIUS_GENOBJ-N-LEADER_13
 70
     0
  0
APPID
  2
GEV_VCCNULL_SWITCH_OFF
 70
     0
  0
APPID
  2
GENIUS_GEFCFG0_13
 70
     0
  0
APPID
  2
GENIUS_GENZVEED_13
 70
     0
  0
APPID
  2
GENIUS_GENSCREG_13
 70
     0
  0
APPID
  2
GENIUS_DUMCFG0_13
 70
     0
  0
APPID
  2
GEVID936201362
 70
     0
  0
APPID
  2
GEVDC
 70
     0
  0
APPID
  2
GEVCON
 70
     0
  0
APPID
  2
VCC
 70
     0
  0
APPID
  2
GEVPT
 70
     0
  0
APPID
  2
GEVIT
 70
     0
  0
APPID
  2
GENBH
 70
     0
  0
APPID
  2
GEVMK
 70
     0
  0
APPID
  2
GENIUS_GENBH_13
 70
     0
  0
APPID
  2
GENIUS_GENOBJ-NBEHI-BHF_13
 70
     0
  0
APPID
  2
GENIUS_GENOBJ-NBEHI-BHB_13
 70
     0
  0
APPID
  2
GENIUS_GENOBJ-F-DESC_13
 70
     0
  0
APPID
  2
GENIUS_GEFDESC_14
 70
     0
  0
APPID
  2
GENIUS_GENOBJ-F-PART_13
 70
     0
  0
APPID
  2
GENIUS_GEFSTDP_13
 70
     0
  0
APPID
  2
GENIUS_GEFPARTINS_13
 70
     0
  0
APPID
  2
GENIUS_GENTRA_14
 70
     0
  0
APPID
  2
GENIUS_GENINF13_13
 70
     0
  0
APPID
  2
GENIUS_GENOBJ-N-INFOPT_13
 70
     0
  0
APPID
  2
GENIUS_GENOBJ-N-RSSYM_13
 70
     0
  0
APPID
  2
GENIUS_GENSYMENT_13
 70
     0
  0
APPID
  2
GENIUS_GENSCSYM_13
 70
     0
  0
APPID
  2
GENIUS_GEFINFNAM_13
 70
     0
  0
APPID
  2
GENIUS_GENOBJ-N-CEN_13
 70
     0
  0
APPID
  2
GENIUS_GENOBJ-N-CRS_13
 70
     0
  0
APPID
  2
GENIUS_GENOBJ-N-CRC_13
 70
     0
  0
APPID
  2
GENIUS_GENCRC_14
 70
     0
  0
APPID
  2
GEVID942827039
 70
     0
  0
APPID
  2
GEVID942827040
 70
     0
  0
APPID
  2
GEVID942827041
 70
     0
  0
APPID
  2
GENIUS_GENOBJ-F-SCPASSM_13
 70
     0
  0
APPID
  2
GENIUS_GENDIMSH_14
 70
     0
  0
APPID
  2
GEVID942827042
 70
     0
  0
APPID
  2
GEVID946020473
 70
     0
  0
APPID
  2
GEVID946020474
 70
     0
  0
APPID
  2
GEVID946020475
 70
     0
  0
APPID
  2
GENIUS_GENOBJ-N-HTC_13
 70
     0
  0
APPID
  2
GENIUS_GENHATCH_13
 70
     0
  0
APPID
  2
GEVID948854295
 70
     0
  0
APPID
  2
GEVID939402019
 70
     0
  0
APPID
  2
GEVID952919491
 70
     0
  0
APPID
  2
GEVID952919492
 70
     0
  0
APPID
  2
GENIUS_GEFWELD_13
 70
     0
  0
APPID
  2
GENIUS_GENOBJ-F-WELS_13
 70
     0
  0
APPID
  2
GEVID952919493
 70
     0
  0
APPID
  2
GENIUS_GENOBJ-N-RSBK_13
 70
     0
  0
APPID
  2
GENIUS_GENOBJ-N-LIB_13
 70
     0
  0
APPID
  2
GENIUS_GENSCALE_13
 70
     0
  0
APPID
  2
GEVID986376691
 70
     0
  0
APPID
  2
DCO15
 70
     0
  0
APPID
  2
ACAD_DSTYLE_DIMBREAK
 70
     0
  0
APPID
  2
ACAD_DSTYLE_DIMJAG
 70
     0
  0
APPID
  2
ACAD_NAV_VCDISPLAY
 70
     0
  0
APPID
  2
ACADANNOPO
 70
     0
  0
APPID
  2
ACAD_EXEMPT_FROM_CAD_STANDARDS
 70
     0
  0
APPID
  2
ACAD_MLEADERVER
 70
     0
  0
ENDTAB
  0
TABLE
  2
DIMSTYLE
 70
    22
  0
DIMSTYLE
  2
STANDARD
 70
     0
  3

  4

  5

  6

  7

 40
1.0
 41
0.18
 42
0.0625
 43
0.38
 44
0.18
 45
0.0
 46
0.0
 47
0.0
 48
0.0
140
0.18
141
0.09
142
0.0
143
25.399999999999999
144
1.0
145
0.0
146
1.0
147
0.09
 71
     0
 72
     0
 73
     1
 74
     1
 75
     0
 76
     0
 77
     0
 78
     0
170
     0
171
     2
172
     0
173
     0
174
     0
175
     0
176
     0
177
     0
178
     0
  0
DIMSTYLE
  2
ANNOTATIVE
 70
     0
  3

  4

  5

  6

  7

 40
1.0
 41
0.18
 42
0.0625
 43
0.38
 44
0.18
 45
0.0
 46
0.0
 47
0.0
 48
0.0
140
0.18
141
0.09
142
0.0
143
25.399999999999999
144
1.0
145
0.0
146
1.0
147
0.09
 71
     0
 72
     0
 73
     1
 74
     1
 75
     0
 76
     0
 77
     0
 78
     0
170
     0
171
     2
172
     0
173
     0
174
     0
175
     0
176
     0
177
     0
178
     0
  0
DIMSTYLE
  2
AM_ISO
 70
     0
  3

  4
"
  5

  6

  7

 40
1.0
 41
2.5
 42
1.0
 43
8.0
 44
0.6
 45
0.0
 46
0.0
 47
0.1
 48
0.1
140
2.5
141
0.0
142
0.0
143
0.0393701
144
1.0
145
0.0
146
0.71
147
0.8
 71
     0
 72
     0
 73
     0
 74
     0
 75
     0
 76
     0
 77
     1
 78
     8
170
     0
171
     2
172
     1
173
     0
174
     0
175
     0
176
   256
177
   256
178
     4
  0
DIMSTYLE
  2
AM_ISO$3
 70
     0
  3

  4
"
  5

  6

  7

 40
1.0
 41
2.5
 42
1.0
 43
8.0
 44
0.6
 45
0.0
 46
0.0
 47
0.1
 48
0.1
140
2.5
141
0.0
142
0.0
143
0.0393701
144
1.0
145
0.0
146
0.71
147
0.8
 71
     0
 72
     0
 73
     0
 74
     1
 75
     0
 76
     0
 77
     1
 78
     8
170
     0
171
     2
172
     0
173
     0
174
     0
175
     0
176
   256
177
   256
178
     4
  0
DIMSTYLE
  2
AM_ISO$4
 70
     0
  3

  4
"
  5

  6

  7

 40
1.0
 41
2.5
 42
1.0
 43
8.0
 44
0.6
 45
0.0
 46
0.0
 47
0.1
 48
0.1
140
2.5
141
0.0
142
0.0
143
0.0393701
144
1.0
145
0.0
146
0.71
147
0.8
 71
     0
 72
     0
 73
     0
 74
     1
 75
     0
 76
     0
 77
     1
 78
     8
170
     0
171
     2
172
     0
173
     0
174
     0
175
     0
176
   256
177
   256
178
     4
  0
DIMSTYLE
  2
AM_ISO$6
 70
     0
  3

  4
"
  5

  6

  7

 40
1.0
 41
2.5
 42
1.0
 43
8.0
 44
0.6
 45
0.0
 46
0.0
 47
0.1
 48
0.1
140
2.5
141
0.0
142
0.0
143
0.0393701
144
1.0
145
0.0
146
0.71
147
0.8
 71
     0
 72
     0
 73
     0
 74
     0
 75
     0
 76
     0
 77
     0
 78
     8
170
     0
171
     2
172
     1
173
     0
174
     0
175
     0
176
   256
177
   256
178
     4
  0
DIMSTYLE
  2
AM_ISO$7
 70
     0
  3

  4
"
  5

  6

  7

 40
1.0
 41
2.5
 42
1.0
 43
8.0
 44
0.6
 45
0.0
 46
0.0
 47
0.1
 48
0.1
140
2.5
141
0.0
142
0.0
143
0.0393701
144
1.0
145
0.0
146
0.71
147
0.8
 71
     0
 72
     0
 73
     0
 74
     0
 75
     0
 76
     0
 77
     1
 78
     8
170
     0
171
     2
172
     1
173
     0
174
     0
175
     0
176
   256
177
   256
178
     4
  0
DIMSTYLE
  2
AM_ISO$SF
 70
     0
  3

  4
"
  5

  6

  7

 40
1.0
 41
2.5
 42
1.0
 43
10.0
 44
1.0
 45
0.0
 46
0.0
 47
0.1
 48
0.1
140
3.5
141
0.0
142
0.0
143
0.0393701
144
1.0
145
0.0
146
0.71
147
1.5
 71
     0
 72
     0
 73
     0
 74
     0
 75
     1
 76
     1
 77
     1
 78
     8
170
     0
171
     2
172
     1
173
     0
174
     0
175
     0
176
   256
177
   256
178
     2
  0
DIMSTYLE
  2
AM_ISO$SH
 70
     0
  3

  4
"
  5

  6

  7

 40
1.0
 41
2.5
 42
1.0
 43
10.0
 44
1.0
 45
0.0
 46
0.0
 47
0.1
 48
0.1
140
3.5
141
0.0
142
0.0
143
0.0393701
144
2.0
145
0.0
146
0.71
147
1.5
 71
     0
 72
     0
 73
     0
 74
     0
 75
     1
 76
     1
 77
     1
 78
     8
170
     0
171
     2
172
     1
173
     1
174
     0
175
     0
176
   256
177
   256
178
     2
  0
DIMSTYLE
  2
AM_JIS
 70
     0
  3

  4
"
  5

  6

  7

 40
1.0
 41
2.5
 42
1.0
 43
7.0
 44
1.0
 45
0.0
 46
0.0
 47
0.1
 48
0.1000000001
140
2.5
141
0.0
142
0.0
143
0.0393701
144
1.0
145
0.0
146
0.71
147
1.0
 71
     0
 72
     0
 73
     0
 74
     0
 75
     0
 76
     0
 77
     3
 78
     8
170
     0
171
     2
172
     1
173
     0
174
     0
175
     0
176
   256
177
   256
178
     4
  0
DIMSTYLE
  2
AM_JIS$3
 70
     0
  3

  4
"
  5

  6

  7

 40
1.0
 41
2.5
 42
1.0
 43
7.0
 44
1.0
 45
0.0
 46
0.0
 47
0.1
 48
0.1000000001
140
2.5
141
0.0
142
0.0
143
0.0393701
144
1.0
145
0.0
146
0.71
147
1.0
 71
     0
 72
     0
 73
     0
 74
     1
 75
     0
 76
     0
 77
     3
 78
     8
170
     0
171
     2
172
     0
173
     0
174
     0
175
     0
176
   256
177
   256
178
     4
  0
DIMSTYLE
  2
AM_JIS$4
 70
     0
  3

  4
"
  5

  6

  7

 40
1.0
 41
2.5
 42
1.0
 43
7.0
 44
1.0
 45
0.0
 46
0.0
 47
0.1
 48
0.1000000001
140
2.5
141
0.0
142
0.0
143
0.0393701
144
1.0
145
0.0
146
0.71
147
1.0
 71
     0
 72
     0
 73
     0
 74
     0
 75
     0
 76
     0
 77
     3
 78
     8
170
     0
171
     2
172
     0
173
     0
174
     0
175
     0
176
   256
177
   256
178
     4
  0
DIMSTYLE
  2
AM_JIS$6
 70
     0
  3

  4
"
  5

  6

  7

 40
1.0
 41
2.5
 42
1.0
 43
7.0
 44
1.0
 45
0.0
 46
0.0
 47
0.1
 48
0.1000000001
140
2.5
141
0.0
142
0.0
143
0.0393701
144
1.0
145
0.0
146
0.71
147
1.0
 71
     0
 72
     0
 73
     0
 74
     0
 75
     0
 76
     0
 77
     0
 78
     8
170
     0
171
     2
172
     1
173
     0
174
     0
175
     0
176
   256
177
   256
178
     4
  0
DIMSTYLE
  2
AM_JIS$7
 70
     0
  3

  4
"
  5

  6

  7

 40
1.0
 41
2.5
 42
1.0
 43
7.0
 44
1.0
 45
0.0
 46
0.0
 47
0.1
 48
0.1000000001
140
2.5
141
0.0
142
0.0
143
0.0393701
144
1.0
145
0.0
146
0.71
147
1.0
 71
     0
 72
     0
 73
     0
 74
     0
 75
     0
 76
     0
 77
     3
 78
     8
170
     0
171
     2
172
     1
173
     0
174
     0
175
     0
176
   256
177
   256
178
     4
  0
DIMSTYLE
  2
AM_JIS$SF
 70
     0
  3

  4
"
  5

  6

  7

 40
1.0
 41
2.5
 42
1.0
 43
10.0
 44
1.0
 45
0.0
 46
0.0
 47
0.1
 48
0.1
140
3.5
141
0.0
142
0.0
143
0.0393701
144
1.0
145
0.0
146
0.71
147
1.5
 71
     0
 72
     0
 73
     0
 74
     0
 75
     1
 76
     1
 77
     3
 78
     8
170
     0
171
     2
172
     1
173
     0
174
     0
175
     0
176
   256
177
   256
178
     4
  0
DIMSTYLE
  2
AM_JIS$SH
 70
     0
  3

  4
"
  5

  6

  7

 40
1.0
 41
2.5
 42
1.0
 43
10.0
 44
1.0
 45
0.0
 46
0.0
 47
0.1
 48
0.1
140
3.5
141
0.0
142
0.0
143
0.0393701
144
1.0
145
0.0
146
0.71
147
1.5
 71
     0
 72
     0
 73
     0
 74
     0
 75
     1
 76
     0
 77
     3
 78
     8
170
     0
171
     2
172
     1
173
     1
174
     0
175
     0
176
   256
177
   256
178
     4
  0
DIMSTYLE
  2
AM_ANSI
 70
     0
  3

  4
mm
  5

  6

  7

 40
1.0
 41
0.1
 42
0.05
 43
0.5
 44
0.1
 45
0.0
 46
0.0
 47
0.1
 48
0.1
140
0.12
141
0.0
142
0.0
143
25.399999999999999
144
1.0
145
0.0
146
0.71
147
0.06
 71
     0
 72
     0
 73
     1
 74
     1
 75
     0
 76
     0
 77
     0
 78
     7
170
     0
171
     2
172
     0
173
     0
174
     0
175
     0
176
   256
177
   256
178
     2
  0
DIMSTYLE
  2
AM_ANSI$3
 70
     0
  3

  4
mm
  5

  6

  7

 40
1.0
 41
0.1
 42
0.05
 43
0.5
 44
0.1
 45
0.0
 46
0.0
 47
0.1
 48
0.1
140
0.12
141
0.0
142
0.0
143
25.399999999999999
144
1.0
145
0.0
146
0.71
147
0.06
 71
     0
 72
     0
 73
     1
 74
     1
 75
     0
 76
     0
 77
     0
 78
     7
170
     0
171
     2
172
     0
173
     0
174
     0
175
     0
176
   256
177
   256
178
     2
  0
DIMSTYLE
  2
AM_ANSI$4
 70
     0
  3

  4
mm
  5

  6

  7

 40
1.0
 41
0.1
 42
0.05
 43
0.5
 44
0.1
 45
0.0
 46
0.0
 47
0.1
 48
0.1
140
0.12
141
0.0
142
0.0
143
25.399999999999999
144
1.0
145
0.0
146
0.71
147
0.06
 71
     0
 72
     0
 73
     1
 74
     1
 75
     0
 76
     0
 77
     0
 78
     7
170
     0
171
     2
172
     0
173
     0
174
     0
175
     0
176
   256
177
   256
178
     2
  0
DIMSTYLE
  2
AM_ANSI$7
 70
     0
  3

  4
mm
  5

  6

  7

 40
1.0
 41
0.1
 42
0.05
 43
0.5
 44
0.1
 45
0.0
 46
0.0
 47
0.1
 48
0.1
140
0.24
141
0.0
142
0.0
143
25.399999999999999
144
1.0
145
0.0
146
0.71
147
0.06
 71
     0
 72
     0
 73
     1
 74
     1
 75
     0
 76
     0
 77
     0
 78
     7
170
     0
171
     2
172
     0
173
     0
174
     0
175
     0
176
   256
177
   256
178
     2
  0
DIMSTYLE
  2
AM_ANSI$SF
 70
     0
  3

  4
mm
  5

  6

  7

 40
1.0
 41
0.1
 42
0.05
 43
0.5
 44
0.1
 45
0.0
 46
0.0
 47
0.1
 48
0.1
140
0.12
141
0.0
142
0.0
143
25.399999999999999
144
1.0
145
0.0
146
0.71
147
0.06
 71
     0
 72
     0
 73
     1
 74
     1
 75
     1
 76
     1
 77
     0
 78
     7
170
     0
171
     2
172
     0
173
     0
174
     0
175
     0
176
   256
177
   256
178
     2
  0
DIMSTYLE
  2
AM_ANSI$SH
 70
     0
  3

  4
mm
  5

  6

  7

 40
1.0
 41
0.1
 42
0.05
 43
0.5
 44
0.1
 45
0.0
 46
0.0
 47
0.1
 48
0.1
140
0.12
141
0.0
142
0.0
143
25.399999999999999
144
1.0
145
0.0
146
0.71
147
0.06
 71
     0
 72
     0
 73
     1
 74
     1
 75
     1
 76
     1
 77
     0
 78
     7
170
     0
171
     2
172
     0
173
     1
174
     0
175
     0
176
   256
177
   256
178
     2
  0
ENDTAB
  0
ENDSEC
  0
SECTION
  2
BLOCKS
  0
BLOCK
  8
0
  2
$MODEL_SPACE
 70
     0
 10
0.0
 20
0.0
 30
0.0
  3
$MODEL_SPACE
  1

  0
ENDBLK
  5
35E1
  8
0
  0
BLOCK
 67
     1
  8
0
  2
$PAPER_SPACE
 70
     0
 10
0.0
 20
0.0
 30
0.0
  3
$PAPER_SPACE
  1

  0
ENDBLK
  5
35DD
 67
     1
  8
0
  0
BLOCK
  8
0
  2
GENAXEH
 70
     0
 10
0.0
 20
0.0
 30
0.0
  3
GENAXEH
  1

  0
LINE
  5
335D
  8
0
 10
-1.0
 20
0.0
 30
0.0
 11
1.0
 21
0.0
 31
0.0
  0
ENDBLK
  5
335E
  8
0
  0
BLOCK
  8
0
  2
_OPEN30
 70
     0
 10
0.0
 20
0.0
 30
0.0
  3
_OPEN30
  1

  0
LINE
  5
3361
  8
0
 62
     0
 10
-1.0
 20
0.26794919
 30
0.0
 11
0.0
 21
0.0
 31
0.0
  0
LINE
  5
3362
  8
0
 62
     0
 10
0.0
 20
0.0
 30
0.0
 11
-1.0
 21
-0.26794919
 31
0.0
  0
LINE
  5
3363
  8
0
 62
     0
 10
0.0
 20
0.0
 30
0.0
 11
-1.0
 21
0.0
 31
0.0
  0
ENDBLK
  5
3364
  8
0
  0
BLOCK
  8
0
  2
_NONE
 70
     0
 10
0.0
 20
0.0
 30
0.0
  3
_NONE
  1

  0
ENDBLK
  5
3367
  8
0
  0
BLOCK
  8
0
  2
_ACMFILLEDHALF
 70
     0
 10
0.0
 20
0.0
 30
0.0
  3
_ACMFILLEDHALF
  1

  0
TRACE
  5
36D9
  8
AM_0
 62
     0
 10
-0.8
 20
0.0
 30
0.0
 11
-1.0
 21
0.166666666
 31
0.0
 12
0.0
 22
0.0
 32
0.0
 13
0.0
 23
0.0
 33
0.0
  0
LINE
  5
36DA
  8
AM_0
 62
     0
 10
-1.0
 20
0.0
 30
0.0
 11
-0.8
 21
0.0
 31
0.0
  0
ENDBLK
  5
36D8
  8
0
  0
ENDSEC
  0
SECTION
  2
ENTITIES
  0
LINE
  5
3369
  8
AM_0
 10
727.98301969802912
 20
1106.4097630529641
 30
0.0
 11
808.98301969802901
 21
1106.4097630529641
 31
0.0
  0
LINE
  5
336A
  8
AM_0
 10
727.98301969802912
 20
1088.409803052964
 30
0.0
 11
808.98301969802901
 21
1088.409803052964
 31
0.0
  0
LINE
  5
336B
  8
AM_0
 10
703.98301969802901
 20
1067.4098030529631
 30
0.0
 11
808.98301969802901
 21
1067.4098030529631
 31
0.0
  0
LINE
  5
336C
  8
AM_0
 10
703.98301969802901
 20
1127.4097630529641
 30
0.0
 11
808.98301969802901
 21
1127.4097630529641
 31
0.0
  0
LINE
  5
336D
  8
ﾁｭｳｼﾝｾﾝ
 10
326.90704469802921
 20
1097.4097630529641
 30
0.0
 11
824.80595969802926
 21
1097.4097630529641
 31
0.0
  0
LINE
  5
336E
  8
AM_0
 10
585.48295969802905
 20
1255.3092630529641
 30
0.0
 11
585.48295969802905
 21
939.51045305296407
 31
0.0
  0
LINE
  5
336F
  8
AM_0
 10
480.48295969802888
 20
972.47840305296404
 30
0.0
 11
480.48295969802888
 21
1222.341163052964
 31
0.0
  0
LINE
  5
3370
  8
AM_0
 10
500.48295969802888
 20
945.21186305296408
 30
0.0
 11
500.48295969802888
 21
1092.4097630529641
 31
0.0
  0
LINE
  5
3371
  8
AM_0
 10
420.98305969802919
 20
1217.4097630529641
 30
0.0
 11
420.98305969802919
 21
977.40980305296409
 31
0.0
  0
LINE
  5
3372
  8
AM_0
 10
433.98295969802888
 20
1215.4097630529641
 30
0.0
 11
433.98295969802888
 21
979.40980305296421
 31
0.0
  0
LINE
  5
3373
  8
AM_0
 10
661.98301969802924
 20
977.06666305296415
 30
0.0
 11
661.98301969802924
 21
1217.7529630529641
 31
0.0
  0
LINE
  5
3374
  8
AM_0
 10
555.48301969802924
 20
1256.3568630529639
 30
0.0
 11
555.48301969802924
 21
938.46278305296391
 31
0.0
  0
LINE
  5
3375
  8
AM_0
 10
697.98301969802912
 20
1159.512663052963
 30
0.0
 11
697.98301969802912
 21
1035.3068930529639
 31
0.0
  0
LINE
  5
3376
  8
AM_0
 10
691.98301969802912
 20
1197.8746630529629
 30
0.0
 11
691.98301969802912
 21
996.94489305296418
 31
0.0
  0
LINE
  5
3377
  8
AM_0
 10
624.26219969802924
 20
940.864633052964
 30
0.0
 11
555.48301969802924
 21
938.46284305296444
 31
0.0
  0
LINE
  5
3378
  8
AM_0
 10
560.48301969802924
 20
917.40980305296409
 30
0.0
 11
693.1575196980292
 21
922.04292305296406
 31
0.0
  0
CIRCLE
  5
3379
  8
AM_0
 10
467.98301969802912
 20
952.40980305296409
 30
0.0
 40
12.0
  0
LINE
  5
337A
  8
AM_0
 10
433.98295969802888
 20
1010.734933052964
 30
0.0
 11
480.48295969802888
 21
1010.734933052964
 31
0.0
  0
LINE
  5
337B
  8
AM_0
 10
433.98295969802888
 20
1026.477003052963
 30
0.0
 11
480.48295969802888
 21
1026.477003052963
 31
0.0
  0
LINE
  5
337C
  8
AM_0
 10
435.98305969802919
 20
985.40980305296409
 30
0.0
 11
475.48295969802888
 21
985.40980305296409
 31
0.0
  0
LINE
  5
337D
  8
AM_0
 10
442.80835969802899
 20
921.51911305296414
 30
0.0
 11
560.48301969802924
 21
917.40986305296394
 31
0.0
  0
LINE
  5
337E
  8
AM_0
 10
437.98305969802908
 20
926.51606305296423
 30
0.0
 11
437.98305969802908
 21
982.11079305296425
 31
0.0
  0
ARC
  5
337F
  8
AM_0
 10
442.98305969802902
 20
926.51606305296423
 30
0.0
 40
5.0
 50
180.00001000000091
 51
268.00000000000301
  0
LINE
  5
3380
  8
AM_0
 10
420.98305969802919
 20
997.68256305296404
 30
0.0
 11
433.98295969802888
 21
997.68256305296404
 31
0.0
  0
LINE
  5
3381
  8
AM_0
 10
420.98305969802919
 20
977.40980305296409
 30
0.0
 11
431.98305969802919
 21
977.40980305296409
 31
0.0
  0
ARC
  5
3382
  8
AM_0
 10
435.98305969802919
 20
983.40980305296409
 30
0.0
 40
2.0
 50
90.00000299999769
 51
180.00001000000091
  0
ARC
  5
3383
  8
AM_0
 10
442.98305969802902
 20
982.11079305296425
 30
0.0
 40
5.0
 50
138.7152999999978
 51
180.00001000000091
  0
ARC
  5
3384
  8
AM_0
 10
431.98305969802919
 20
979.40980305296421
 30
0.0
 40
2.0
 50
270.0
 51
0.0
  0
LINE
  5
3385
  8
AM_0
 10
420.98305969802919
 20
1013.238903052964
 30
0.0
 11
433.98295969802888
 21
1013.238903052964
 31
0.0
  0
LINE
  5
3386
  8
AM_0
 10
420.98305969802919
 20
1021.413093052964
 30
0.0
 11
433.98295969802888
 21
1021.413093052964
 31
0.0
  0
ARC
  5
3387
  8
AM_0
 10
495.48295969802922
 20
961.78639305296394
 30
0.0
 40
5.0
 50
0.0
 51
86.16916099999878
  0
ARC
  5
3388
  8
AM_0
 10
505.48295969802888
 20
966.11018305296409
 30
0.0
 40
5.0
 50
180.00001000000091
 51
270.0
  0
ARC
  5
3389
  8
AM_0
 10
512.98301969802924
 20
932.97315305296422
 30
0.0
 40
5.0
 50
180.00001000000091
 51
279.35984999999653
  0
LINE
  5
338A
  8
AM_0
 10
505.48295969802888
 20
950.31977305296425
 30
0.0
 11
531.48301969802924
 21
950.31977305296425
 31
0.0
  0
LINE
  5
338B
  8
AM_0
 10
505.48295969802888
 20
961.1101830529642
 30
0.0
 11
531.48301969802924
 21
961.1101830529642
 31
0.0
  0
LINE
  5
338C
  8
AM_0
 10
555.48301969802924
 20
938.46284305296444
 30
0.0
 11
505.30845969802908
 21
940.21497305296407
 31
0.0
  0
LINE
  5
338D
  8
AM_0
 10
508.76835969802909
 20
919.34028305296442
 30
0.0
 11
551.71018969802924
 21
924.65028305296414
 31
0.0
  0
ARC
  5
338E
  8
AM_0
 10
505.48295969802888
 20
945.31977305296391
 30
0.0
 40
5.0
 50
90.00000299999769
 51
180.00001000000091
  0
ARC
  5
338F
  8
AM_0
 10
505.48295969802888
 20
945.21186305296408
 30
0.0
 40
5.0
 50
180.00001000000091
 51
268.00000999999878
  0
LINE
  5
3390
  8
AM_0
 10
556.29618969802925
 20
935.04499305296395
 30
0.0
 11
513.79618969802925
 21
928.03974305296413
 31
0.0
  0
ARC
  5
3391
  8
AM_0
 10
531.48301969802924
 20
959.11018305296409
 30
0.0
 40
2.0
 50
0.0
 51
90.00000299999769
  0
ARC
  5
3392
  8
AM_0
 10
531.48301969802924
 20
952.31977305296402
 30
0.0
 40
2.0
 50
270.0
 51
0.0
  0
LINE
  5
3393
  8
AM_0
 10
533.48301969802924
 20
952.31977305296402
 30
0.0
 11
533.48301969802924
 21
959.11018305296409
 31
0.0
  0
ARC
  5
3394
  8
AM_0
 10
550.48301969802924
 20
934.57472305296403
 30
0.0
 40
10.0
 50
277.0491999999964
 51
0.0
  0
ARC
  5
3395
  8
AM_0
 10
555.48301969802924
 20
939.97840305296415
 30
0.0
 40
5.0
 50
279.35985999999889
 51
344.36583000000519
  0
LINE
  5
3396
  8
AM_0
 10
560.48301969802924
 20
934.57472305296403
 30
0.0
 11
560.48301969802924
 21
938.63740305296415
 31
0.0
  0
LINE
  5
3397
  8
AM_0
 10
505.48295969802888
 20
1048.381233052964
 30
0.0
 11
531.48301969802924
 21
1048.381233052964
 31
0.0
  0
LINE
  5
3398
  8
AM_0
 10
505.48295969802888
 20
1002.4656530529639
 30
0.0
 11
531.48301969802924
 21
1002.4656530529639
 31
0.0
  0
ARC
  5
3399
  8
AM_0
 10
485.48295969802911
 20
972.47840305296404
 30
0.0
 40
5.0
 50
180.00001000000091
 51
266.1691699999995
  0
ARC
  5
339A
  8
AM_0
 10
475.48295969802888
 20
980.40980305296421
 30
0.0
 40
5.0
 50
0.0
 51
90.00000299999769
  0
LINE
  5
339B
  8
AM_0
 10
495.81699969802912
 20
966.77522305296407
 30
0.0
 11
485.14890969802917
 21
967.48957305296392
 31
0.0
  0
ARC
  5
339C
  8
AM_0
 10
505.48295969802888
 20
997.46565305296406
 30
0.0
 40
5.0
 50
90.00000299999769
 51
180.00001000000091
  0
ARC
  5
339D
  8
AM_0
 10
505.48295969802888
 20
1053.381233052964
 30
0.0
 40
5.0
 50
180.00001000000091
 51
270.0
  0
LINE
  5
339E
  8
AM_0
 10
533.48301969802924
 20
1004.4656530529639
 30
0.0
 11
533.48301969802924
 21
1046.381233052964
 31
0.0
  0
ARC
  5
339F
  8
AM_0
 10
531.48301969802924
 20
1004.4656530529639
 30
0.0
 40
2.0
 50
270.0
 51
0.0
  0
ARC
  5
33A0
  8
AM_0
 10
531.48301969802924
 20
1046.381233052964
 30
0.0
 40
2.0
 50
0.0
 51
90.00000299999769
  0
CIRCLE
  5
33A1
  8
AM_0
 10
667.98301969802924
 20
952.40980305296409
 30
0.0
 40
12.0
  0
LINE
  5
33A2
  8
AM_0
 10
684.26219969802924
 20
990.14014305296405
 30
0.0
 11
671.63401969802931
 21
989.69917305296406
 31
0.0
  0
LINE
  5
33A3
  8
ﾁｭｳｼﾝｾﾝ1
 10
645.98301969802924
 20
952.40980305296409
 30
0.0
 11
689.98301969802912
 21
952.40980305296409
 31
0.0
  0
ARC
  5
33A4
  8
AM_0
 10
646.98301969802924
 20
951.87684305296409
 30
0.0
 40
15.0
 50
91.999998000000787
 51
180.00001000000091
  0
LINE
  5
33A5
  8
ﾁｭｳｼﾝｾﾝ1
 10
667.98301969802924
 20
930.40980305296421
 30
0.0
 11
667.98301969802924
 21
974.40980305296421
 31
0.0
  0
LINE
  5
33A6
  8
AM_0
 10
631.98301969802924
 20
930.26191305296425
 30
0.0
 11
631.98301969802924
 21
951.87684305296409
 31
0.0
  0
ARC
  5
33A7
  8
AM_0
 10
641.98301969802924
 20
930.26191305296425
 30
0.0
 40
10.0
 50
180.00001000000091
 51
271.99999000000111
  0
ARC
  5
33A8
  8
AM_0
 10
623.98301969802924
 20
948.85975305296404
 30
0.0
 40
8.0
 50
271.99999999999682
 51
0.0
  0
ARC
  5
33A9
  8
AM_0
 10
671.98301969802924
 20
979.70527305296412
 30
0.0
 40
10.0
 50
91.999998000000787
 51
180.00001000000091
  0
ARC
  5
33AA
  8
AM_0
 10
651.98301969802924
 20
977.06666305296415
 30
0.0
 40
10.0
 50
271.99999999999682
 51
0.0
  0
LINE
  5
33AB
  8
AM_0
 10
652.33195969802921
 20
967.07282305296405
 30
0.0
 11
646.45951969802923
 21
966.86775305296419
 31
0.0
  0
LINE
  5
33AC
  8
AM_0
 10
697.98301969802912
 20
927.03986305296405
 30
0.0
 11
697.98301969802912
 21
987.77973305296405
 31
0.0
  0
ARC
  5
33AD
  8
AM_0
 10
692.98301969802912
 20
927.03986305296405
 30
0.0
 40
5.0
 50
271.99999999999682
 51
0.0
  0
ARC
  5
33AE
  8
AM_0
 10
683.98301969802924
 20
998.13532305296405
 30
0.0
 40
8.0
 50
271.99999999999682
 51
0.0
  0
ARC
  5
33AF
  8
AM_0
 10
692.98301969802912
 20
987.77973305296405
 30
0.0
 40
5.0
 50
0.0
 51
66.421821000003519
  0
ARC
  5
33B0
  8
AM_0
 10
696.98301969802912
 20
996.94489305296418
 30
0.0
 40
5.0
 50
180.00001000000091
 51
246.421820000005
  0
ARC
  5
33B1
  8
AM_0
 10
694.98301969802912
 20
1035.3068930529639
 30
0.0
 40
3.0
 50
271.99999999999682
 51
0.0
  0
ARC
  5
33B2
  8
AM_0
 10
694.98301969802912
 20
1029.3032330529641
 30
0.0
 40
3.0
 50
91.999998000000787
 51
180.00001000000091
  0
LINE
  5
33B3
  8
AM_0
 10
694.87834969802918
 20
1032.301343052962
 30
0.0
 11
695.08775969802923
 21
1032.308663052964
 31
0.0
  0
LINE
  5
33B4
  8
AM_0
 10
624.26219969802924
 20
1253.9550630529641
 30
0.0
 11
555.48301969802924
 21
1256.3568630529639
 31
0.0
  0
LINE
  5
33B5
  8
AM_0
 10
560.48295969802905
 20
1277.4097630529641
 30
0.0
 11
693.15745969802913
 21
1272.7766630529641
 31
0.0
  0
CIRCLE
  5
33B6
  8
AM_0
 10
467.98301969802912
 20
1242.4097630529641
 30
0.0
 40
12.0
  0
LINE
  5
33B7
  8
AM_0
 10
500.48295969802888
 20
1102.4097630529641
 30
0.0
 11
500.48295969802888
 21
1249.607663052964
 31
0.0
  0
LINE
  5
33B8
  8
AM_0
 10
533.48301969802924
 20
1242.499763052964
 30
0.0
 11
533.48301969802924
 21
1235.7093630529639
 31
0.0
  0
LINE
  5
33B9
  8
AM_0
 10
437.98305969802908
 20
1268.303563052963
 30
0.0
 11
437.98305969802908
 21
1212.708863052964
 31
0.0
  0
LINE
  5
33BA
  8
AM_0
 10
433.98295969802888
 20
1184.084763052964
 30
0.0
 11
480.48295969802888
 21
1184.084763052964
 31
0.0
  0
LINE
  5
33BB
  8
AM_0
 10
433.98295969802888
 20
1168.3425630529639
 30
0.0
 11
480.48295969802888
 21
1168.3425630529639
 31
0.0
  0
LINE
  5
33BC
  8
AM_0
 10
435.98305969802919
 20
1209.4097630529641
 30
0.0
 11
475.48295969802888
 21
1209.4097630529641
 31
0.0
  0
LINE
  5
33BD
  8
AM_0
 10
420.98305969802919
 20
1173.406363052964
 30
0.0
 11
433.98295969802888
 21
1173.406363052964
 31
0.0
  0
LINE
  5
33BE
  8
AM_0
 10
420.98305969802919
 20
1181.580563052964
 30
0.0
 11
433.98295969802888
 21
1181.580563052964
 31
0.0
  0
LINE
  5
33BF
  8
AM_0
 10
420.98305969802919
 20
1197.1369630529639
 30
0.0
 11
433.98295969802888
 21
1197.1369630529639
 31
0.0
  0
LINE
  5
33C0
  8
AM_0
 10
420.98305969802919
 20
1217.4097630529641
 30
0.0
 11
431.98305969802919
 21
1217.4097630529641
 31
0.0
  0
ARC
  5
33C1
  8
AM_0
 10
431.98305969802919
 20
1215.4097630529641
 30
0.0
 40
2.0
 50
0.0
 51
90.00000299999769
  0
ARC
  5
33C2
  8
AM_0
 10
435.98305969802919
 20
1211.4097630529641
 30
0.0
 40
2.0
 50
179.9999899999988
 51
270.0
  0
ARC
  5
33C3
  8
AM_0
 10
442.98305969802902
 20
1212.708863052964
 30
0.0
 40
5.0
 50
180.00001000000091
 51
221.28494000000109
  0
ARC
  5
33C4
  8
AM_0
 10
531.48301969802924
 20
1148.438363052963
 30
0.0
 40
2.0
 50
270.0
 51
0.0
  0
ARC
  5
33C5
  8
AM_0
 10
515.48301969802924
 20
1097.4097630529641
 30
0.0
 40
12.5
 50
203.5781799999973
 51
336.42182999999471
  0
ARC
  5
33C6
  8
AM_0
 10
515.48301969802924
 20
1097.4097630529641
 30
0.0
 40
12.5
 50
23.578179999997531
 51
156.42182000000241
  0
LINE
  5
33C7
  8
AM_0
 10
505.48295969802888
 20
1146.438363052963
 30
0.0
 11
531.48301969802924
 21
1146.438363052963
 31
0.0
  0
LINE
  5
33C8
  8
AM_0
 10
495.48301969802912
 20
1102.4097630529641
 30
0.0
 11
535.48301969802924
 21
1102.4097630529641
 31
0.0
  0
LINE
  5
33C9
  8
AM_0
 10
495.48301969802912
 20
1092.4097630529641
 30
0.0
 11
535.48301969802924
 21
1092.4097630529641
 31
0.0
  0
ARC
  5
33CA
  8
AM_0
 10
495.48301969802912
 20
1097.4097630529641
 30
0.0
 40
5.0
 50
90.00000299999769
 51
270.0
  0
ARC
  5
33CB
  8
AM_0
 10
505.48295969802888
 20
1141.438363052964
 30
0.0
 40
5.0
 50
90.00000299999769
 51
180.00001000000091
  0
ARC
  5
33CC
  8
AM_0
 10
535.48301969802924
 20
1097.4097630529641
 30
0.0
 40
5.0
 50
270.0
 51
90.00000299999769
  0
LINE
  5
33CD
  8
AM_0
 10
505.48295969802888
 20
1233.709363052963
 30
0.0
 11
531.48301969802924
 21
1233.709363052963
 31
0.0
  0
LINE
  5
33CE
  8
AM_0
 10
505.48295969802888
 20
1192.354063052964
 30
0.0
 11
531.48301969802924
 21
1192.354063052964
 31
0.0
  0
ARC
  5
33CF
  8
AM_0
 10
505.48295969802888
 20
1197.354063052964
 30
0.0
 40
5.0
 50
180.00001000000091
 51
270.0
  0
ARC
  5
33D0
  8
AM_0
 10
485.48295969802911
 20
1222.341163052964
 30
0.0
 40
5.0
 50
93.830836999998056
 51
180.00001000000091
  0
ARC
  5
33D1
  8
AM_0
 10
475.48295969802888
 20
1214.4097630529641
 30
0.0
 40
5.0
 50
270.0
 51
0.0
  0
ARC
  5
33D2
  8
AM_0
 10
495.48295969802922
 20
1233.033263052964
 30
0.0
 40
5.0
 50
273.83084000000241
 51
0.0
  0
LINE
  5
33D3
  8
AM_0
 10
495.81706969802917
 20
1228.0443630529639
 30
0.0
 11
485.14890969802917
 21
1227.3299630529641
 31
0.0
  0
ARC
  5
33D4
  8
AM_0
 10
505.48295969802888
 20
1228.709363052963
 30
0.0
 40
5.0
 50
90.00000299999769
 51
180.00001000000091
  0
LINE
  5
33D5
  8
AM_0
 10
533.48301969802924
 20
1190.354063052964
 30
0.0
 11
533.48301969802924
 21
1148.438363052963
 31
0.0
  0
ARC
  5
33D6
  8
AM_0
 10
531.48301969802924
 20
1190.354063052964
 30
0.0
 40
2.0
 50
0.0
 51
90.00000299999769
  0
ARC
  5
33D7
  8
AM_0
 10
531.48301969802924
 20
1235.7093630529639
 30
0.0
 40
2.0
 50
270.0
 51
0.0
  0
LINE
  5
33D8
  8
AM_0
 10
442.80845969802908
 20
1273.300563052964
 30
0.0
 11
560.48301969802924
 21
1277.4097630529641
 31
0.0
  0
ARC
  5
33D9
  8
AM_0
 10
442.98305969802902
 20
1268.303563052963
 30
0.0
 40
5.0
 50
91.999998000000787
 51
180.00001000000091
  0
ARC
  5
33DA
  8
AM_0
 10
512.98301969802924
 20
1261.8464630529641
 30
0.0
 40
5.0
 50
80.640142999995817
 51
180.00001000000091
  0
LINE
  5
33DB
  8
AM_0
 10
505.48295969802888
 20
1244.499763052964
 30
0.0
 11
531.48301969802924
 21
1244.499763052964
 31
0.0
  0
LINE
  5
33DC
  8
AM_0
 10
555.48301969802924
 20
1256.3568630529639
 30
0.0
 11
505.30845969802908
 21
1254.604663052964
 31
0.0
  0
LINE
  5
33DD
  8
AM_0
 10
508.76841969802911
 20
1275.4793630529639
 30
0.0
 11
551.71018969802924
 21
1270.1693630529639
 31
0.0
  0
ARC
  5
33DE
  8
AM_0
 10
505.48295969802888
 20
1249.499763052964
 30
0.0
 40
5.0
 50
180.00001000000091
 51
270.0
  0
ARC
  5
33DF
  8
AM_0
 10
505.48295969802888
 20
1249.607663052964
 30
0.0
 40
5.0
 50
91.999998000000787
 51
180.00001000000091
  0
LINE
  5
33E0
  8
AM_0
 10
556.29618969802925
 20
1259.7746630529639
 30
0.0
 11
513.79618969802925
 21
1266.7799630529639
 31
0.0
  0
ARC
  5
33E1
  8
AM_0
 10
531.48301969802924
 20
1242.499763052964
 30
0.0
 40
2.0
 50
0.0
 51
90.00000299999769
  0
ARC
  5
33E2
  8
AM_0
 10
550.48301969802924
 20
1260.2448630529641
 30
0.0
 40
10.0
 50
0.0
 51
82.950795999998775
  0
ARC
  5
33E3
  8
AM_0
 10
555.48301969802924
 20
1254.841163052964
 30
0.0
 40
5.0
 50
15.63417199999704
 51
80.640142999995817
  0
LINE
  5
33E4
  8
AM_0
 10
560.48301969802924
 20
1260.2448630529641
 30
0.0
 11
560.48301969802924
 21
1256.182163052963
 31
0.0
  0
ARC
  5
33E5
  8
AM_0
 10
646.98301969802924
 20
1242.942763052964
 30
0.0
 40
15.0
 50
180.00001000000091
 51
268.00000000000301
  0
CIRCLE
  5
33E6
  8
AM_0
 10
667.98301969802924
 20
1242.4097630529641
 30
0.0
 40
12.0
  0
LINE
  5
33E7
  8
AM_0
 10
697.98301969802912
 20
1267.7797630529631
 30
0.0
 11
697.98301969802912
 21
1207.039763052964
 31
0.0
  0
LINE
  5
33E8
  8
AM_0
 10
684.26219969802924
 20
1204.6794630529639
 30
0.0
 11
671.63401969802931
 21
1205.120363052964
 31
0.0
  0
ARC
  5
33E9
  8
AM_0
 10
671.98301969802924
 20
1215.1142630529639
 30
0.0
 40
10.0
 50
180.00001000000091
 51
268.00000000000301
  0
ARC
  5
33EA
  8
AM_0
 10
651.98301969802924
 20
1217.7529630529641
 30
0.0
 40
10.0
 50
0.0
 51
88.000000000002998
  0
LINE
  5
33EB
  8
AM_0
 10
652.33195969802921
 20
1227.7468630529629
 30
0.0
 11
646.45951969802923
 21
1227.9519630529639
 31
0.0
  0
ARC
  5
33EC
  8
AM_0
 10
727.98301969802912
 20
1097.4097630529641
 30
0.0
 40
8.9999962
 50
90.00000299999769
 51
270.0
  0
LINE
  5
33ED
  8
AM_0
 10
703.98301969802901
 20
1129.9097630529641
 30
0.0
 11
703.98301969802901
 21
1064.909803052964
 31
0.0
  0
LINE
  5
33EE
  8
AM_0
 10
697.98301969802912
 20
1064.909803052964
 30
0.0
 11
703.98301969802901
 21
1064.909803052964
 31
0.0
  0
LINE
  5
33EF
  8
AM_0
 10
697.98301969802912
 20
1129.9097630529641
 30
0.0
 11
703.98301969802901
 21
1129.9097630529641
 31
0.0
  0
LINE
  5
33F0
  8
AM_0
 10
727.98301969802912
 20
1106.4097630529641
 30
0.0
 11
727.98301969802912
 21
1088.409803052964
 31
0.0
  0
ARC
  5
33F1
  8
AM_0
 10
694.98301969802912
 20
1165.516363052963
 30
0.0
 40
3.0
 50
180.00001000000091
 51
268.00000000000301
  0
ARC
  5
33F2
  8
AM_0
 10
694.98301969802912
 20
1159.512663052963
 30
0.0
 40
3.0
 50
0.0
 51
88.000000000002998
  0
LINE
  5
33F3
  8
AM_0
 10
694.87834969802918
 20
1162.518163052963
 30
0.0
 11
695.08769969802916
 21
1162.5108630529639
 31
0.0
  0
ARC
  5
33F4
  8
AM_0
 10
683.98301969802924
 20
1196.684363052962
 30
0.0
 40
8.0
 50
0.0
 51
88.000000000002998
  0
ARC
  5
33F5
  8
AM_0
 10
696.98301969802912
 20
1197.8746630529629
 30
0.0
 40
5.0
 50
113.5781799999949
 51
180.00001000000091
  0
ARC
  5
33F6
  8
AM_0
 10
692.98301969802912
 20
1207.039763052964
 30
0.0
 40
5.0
 50
293.57817999999492
 51
0.0
  0
LINE
  5
33F7
  8
AM_0
 10
631.98301969802924
 20
1264.557663052964
 30
0.0
 11
631.98301969802924
 21
1242.942763052964
 31
0.0
  0
ARC
  5
33F8
  8
AM_0
 10
623.98301969802924
 20
1245.959863052964
 30
0.0
 40
8.0
 50
0.0
 51
88.000000000002998
  0
ARC
  5
33F9
  8
AM_0
 10
641.98301969802924
 20
1264.557663052964
 30
0.0
 40
10.0
 50
88.000000000002998
 51
180.00001000000091
  0
ARC
  5
33FA
  8
AM_0
 10
692.98301969802912
 20
1267.7797630529631
 30
0.0
 40
5.0
 50
0.0
 51
88.000000000002998
  0
LINE
  5
33FB
  8
AM_0
 10
808.98301969802901
 20
1127.4097630529641
 30
0.0
 11
808.98301969802901
 21
1067.4098030529631
 31
0.0
  0
LINE
  5
33FC
  8
ﾁｭｳｼﾝｾﾝ1
 10
467.98301969802912
 20
930.40980305296421
 30
0.0
 11
467.98301969802912
 21
974.40980305296421
 31
0.0
  0
LINE
  5
33FD
  8
ﾁｭｳｼﾝｾﾝ1
 10
445.98301969802901
 20
952.40980305296409
 30
0.0
 11
489.98301969802918
 21
952.40980305296409
 31
0.0
  0
LINE
  5
33FE
  8
ﾁｭｳｼﾝｾﾝ1
 10
467.98301969802912
 20
1220.4097630529641
 30
0.0
 11
467.98301969802912
 21
1264.4097630529641
 31
0.0
  0
LINE
  5
33FF
  8
ﾁｭｳｼﾝｾﾝ1
 10
445.98301969802901
 20
1242.4097630529641
 30
0.0
 11
489.98301969802918
 21
1242.4097630529641
 31
0.0
  0
LINE
  5
3400
  8
ﾁｭｳｼﾝｾﾝ1
 10
667.98301969802924
 20
1220.4097630529641
 30
0.0
 11
667.98301969802924
 21
1264.4097630529641
 31
0.0
  0
LINE
  5
3401
  8
ﾁｭｳｼﾝｾﾝ1
 10
645.98301969802924
 20
1242.4097630529641
 30
0.0
 11
689.98301969802912
 21
1242.4097630529641
 31
0.0
  0
LINE
  5
3402
  8
AM_0
 10
703.98296969802902
 20
623.24822595292312
 30
0.0
 11
808.98301969802901
 21
623.24822595292312
 31
0.0
  0
LINE
  5
3403
  8
AM_0
 10
703.98296969802902
 20
563.24820595292306
 30
0.0
 11
808.98301969802901
 21
563.24820595292306
 31
0.0
  0
LINE
  5
3404
  8
ﾁｭｳｼﾝｾﾝ
 10
811.92201969802909
 20
593.24820595292306
 30
0.0
 11
463.0275431643251
 21
593.24820595292306
 31
0.0
  0
LINE
  5
3405
  8
AM_0
 10
359.98301969802912
 20
692.24820595292306
 30
0.0
 11
359.98301969802912
 21
545.24820595292317
 31
0.0
  0
LINE
  5
3406
  8
AM_0
 10
339.98301969802912
 20
695.24820595292317
 30
0.0
 11
339.98301969802912
 21
395.24820595292312
 31
0.0
  0
LINE
  5
3407
  8
AM_0
 10
480.4829696980288
 20
673.44192595292316
 30
0.0
 11
480.4829696980288
 21
423.63470595292313
 31
0.0
  0
LINE
  5
3408
  8
AM_0
 10
420.98301969802901
 20
665.24822595292312
 30
0.0
 11
420.98301969802901
 21
425.24820095292318
 31
0.0
  0
LINE
  5
3409
  8
AM_0
 10
433.9829696980288
 20
663.24822595292312
 30
0.0
 11
433.9829696980288
 21
427.24823595292321
 31
0.0
  0
LINE
  5
340A
  8
AM_0
 10
500.48296969802868
 20
723.24822595292301
 30
0.0
 11
500.48296969802868
 21
400.24820095292318
 31
0.0
  0
LINE
  5
340B
  8
AM_0
 10
585.48296969802891
 20
723.56282595292282
 30
0.0
 11
585.48296969802891
 21
522.5504209529231
 31
0.0
  0
LINE
  5
340C
  8
AM_0
 10
631.98296969802902
 20
629.17512595292305
 30
0.0
 11
631.98296969802902
 21
415.24820095292313
 31
0.0
  0
LINE
  5
340D
  8
AM_0
 10
661.98296969802902
 20
706.869175952923
 30
0.0
 11
661.98296969802902
 21
448.90018095292322
 31
0.0
  0
LINE
  5
340E
  8
AM_0
 10
691.98296969802902
 20
677.91752595292326
 30
0.0
 11
691.98296969802902
 21
400.24820095292318
 31
0.0
  0
LINE
  5
340F
  8
AM_0
 10
697.98296969802891
 20
655.35112595292333
 30
0.0
 11
697.98296969802891
 21
531.14527095292306
 31
0.0
  0
LINE
  5
3410
  8
AM_0
 10
555.48296969802891
 20
725.24822595292301
 30
0.0
 11
555.48296969802891
 21
445.48630095292322
 31
0.0
  0
LINE
  5
3411
  8
ﾁｭｳｼﾝｾﾝ
 10
326.90704469802921
 20
545.24820595292317
 30
0.0
 11
516.54302510617299
 21
545.24820595292317
 31
0.0
  0
LINE
  5
3412
  8
AM_0
 10
437.98296969802868
 20
368.24820095292313
 30
0.0
 11
697.98296969802891
 21
368.24820095292313
 31
0.0
  0
LINE
  5
3413
  8
AM_0
 10
442.9829696980288
 20
400.24820095292318
 30
0.0
 11
503.9829696980288
 21
400.24820095292318
 31
0.0
  0
LINE
  5
3414
  8
AM_0
 10
433.9829696980288
 20
458.57333595292312
 30
0.0
 11
480.4829696980288
 21
458.57333595292312
 31
0.0
  0
LINE
  5
3415
  8
AM_0
 10
435.98301969802912
 20
433.24820095292318
 30
0.0
 11
475.48296969802868
 21
433.24820095292318
 31
0.0
  0
LINE
  5
3416
  8
AM_0
 10
433.9829696980288
 20
474.31540595292302
 30
0.0
 11
480.4829696980288
 21
474.31540595292302
 31
0.0
  0
LINE
  5
3417
  8
AM_0
 10
437.98296969802868
 20
395.24820095292313
 30
0.0
 11
437.98296969802868
 21
368.24820095292313
 31
0.0
  0
LINE
  5
3418
  8
AM_0
 10
359.98301969802912
 20
398.24820595292312
 30
0.0
 11
359.98301969802912
 21
545.24820595292317
 31
0.0
  0
LINE
  5
3419
  8
AM_0
 10
418.98301969802912
 20
469.22469895292301
 30
0.0
 11
418.98301969802912
 21
462.07734595292328
 31
0.0
  0
LINE
  5
341A
  8
AM_0
 10
362.94573469802913
 20
433.01148495292301
 30
0.0
 11
387.7160216980289
 21
444.06334695292321
 31
0.0
  0
LINE
  5
341B
  8
AM_0
 10
362.94573469802913
 20
448.56783495292319
 30
0.0
 11
387.7160216980289
 21
459.61969595292322
 31
0.0
  0
LINE
  5
341C
  8
AM_0
 10
420.98301969802901
 20
427.24820589297099
 30
0.0
 11
364.85213569802937
 21
425.77836695292308
 31
0.0
  0
ARC
  5
341D
  8
AM_0
 10
364.98301969802912
 20
420.78008095292302
 30
0.0
 40
5.0
 50
91.500000000002629
 51
180.0
  0
LINE
  5
341E
  8
AM_0
 10
339.98301969802912
 20
395.24820595292312
 30
0.0
 11
356.98301969802912
 21
395.24820595292312
 31
0.0
  0
ARC
  5
341F
  8
AM_0
 10
356.98301969802912
 20
398.24820595292312
 30
0.0
 40
3.0
 50
270.0
 51
0.0
  0
ARC
  5
3420
  8
AM_0
 10
364.98301969802912
 20
444.00171295292301
 30
0.0
 40
5.0
 50
114.0451930000003
 51
180.0
  0
ARC
  5
3421
  8
AM_0
 10
364.98301969802912
 20
428.44536395292317
 30
0.0
 40
5.0
 50
114.0451930000003
 51
180.0
  0
ARC
  5
3422
  8
AM_0
 10
442.9829696980288
 20
395.24820095292313
 30
0.0
 40
5.0
 50
90.00000299999769
 51
180.00001000000091
  0
LINE
  5
3423
  8
AM_0
 10
417.98362969802889
 20
461.04244695292329
 30
0.0
 11
389.57880969802892
 21
460.05052795292301
 31
0.0
  0
LINE
  5
3424
  8
AM_0
 10
389.57880969802892
 20
444.49417895292328
 30
0.0
 11
417.98362969802889
 21
445.48609695292322
 31
0.0
  0
ARC
  5
3425
  8
AM_0
 10
389.75330769802918
 20
439.4972249529232
 30
0.0
 40
5.0
 50
92.000000000003666
 51
114.0451930000003
  0
LINE
  5
3426
  8
AM_0
 10
390.98301969802912
 20
446.52724795292318
 30
0.0
 11
390.98301969802912
 21
458.00744995292308
 31
0.0
  0
ARC
  5
3427
  8
AM_0
 10
389.75330769802918
 20
455.05357395292322
 30
0.0
 40
5.0
 50
92.000000000003666
 51
114.0451930000003
  0
ARC
  5
3428
  8
AM_0
 10
431.9829696980288
 20
427.24823595292321
 30
0.0
 40
2.0000000500000001
 50
270.0
 51
0.0
  0
LINE
  5
3429
  8
AM_0
 10
420.98301969802901
 20
425.24820095292318
 30
0.0
 11
431.9829696980288
 21
425.24820095292318
 31
0.0
  0
ARC
  5
342A
  8
AM_0
 10
435.98301969802912
 20
431.24820095292313
 30
0.0
 40
2.0000000500000001
 50
90.00000299999769
 51
180.00001000000091
  0
LINE
  5
342B
  8
AM_0
 10
420.98301969802901
 20
445.52100095292309
 30
0.0
 11
433.9829696980288
 21
445.52100095292309
 31
0.0
  0
LINE
  5
342C
  8
AM_0
 10
420.98301969802901
 20
461.07733595292319
 30
0.0
 11
433.9829696980288
 21
461.07733595292319
 31
0.0
  0
LINE
  5
342D
  8
AM_0
 10
417.98362969802889
 20
461.04244695292329
 30
0.0
 11
418.98301969802912
 21
462.07734595292328
 31
0.0
  0
LINE
  5
342E
  8
AM_0
 10
417.98362969802889
 20
445.48609695292322
 30
0.0
 11
418.98301969802912
 21
446.52099695292321
 31
0.0
  0
LINE
  5
342F
  8
AM_0
 10
418.98301969802912
 20
462.07734595292328
 30
0.0
 11
418.98301969802912
 21
446.52099695292321
 31
0.0
  0
LINE
  5
3430
  8
AM_0
 10
417.98362969802889
 20
461.04244695292329
 30
0.0
 11
417.98362969802889
 21
445.48609695292322
 31
0.0
  0
LINE
  5
3431
  8
AM_0
 10
417.28602769802882
 20
470.71444595292309
 30
0.0
 11
364.85213569802937
 21
469.34141595292328
 31
0.0
  0
ARC
  5
3432
  8
AM_0
 10
364.98301969802912
 20
464.34312895292328
 30
0.0
 40
5.0
 50
91.500000000002629
 51
150.7208910000015
  0
LINE
  5
3433
  8
AM_0
 10
420.98301969802901
 20
469.25156095292289
 30
0.0
 11
433.9829696980288
 21
469.25156095292289
 31
0.0
  0
LINE
  5
3434
  8
ﾁｭｳｼﾝｾﾝ1
 10
467.9829696980288
 20
404.54800595292301
 30
0.0
 11
467.9829696980288
 21
362.93504595292308
 31
0.0
  0
LINE
  5
3435
  8
ﾁｭｳｼﾝｾﾝ1
 10
667.98296969802891
 20
404.54800595292301
 30
0.0
 11
667.98296969802891
 21
362.93504595292308
 31
0.0
  0
LINE
  5
3436
  8
AM_0
 10
697.98296969802891
 20
395.24820095292313
 30
0.0
 11
697.98296969802891
 21
368.24820095292313
 31
0.0
  0
LINE
  5
3437
  8
ｶｸﾚｾﾝ2
 10
479.9830196980289
 20
400.24820095292318
 30
0.0
 11
479.9830196980289
 21
368.24820095292313
 31
0.0
  0
LINE
  5
3438
  8
ｶｸﾚｾﾝ2
 10
455.98301969802912
 20
400.24820095292318
 30
0.0
 11
455.98301969802912
 21
368.24820095292313
 31
0.0
  0
LINE
  5
3439
  8
ｶｸﾚｾﾝ2
 10
655.98301969802912
 20
400.24820095292318
 30
0.0
 11
655.98301969802912
 21
368.24820095292313
 31
0.0
  0
LINE
  5
343A
  8
ｶｸﾚｾﾝ2
 10
679.9830196980289
 20
400.24820095292318
 30
0.0
 11
679.9830196980289
 21
368.24820095292313
 31
0.0
  0
LINE
  5
343B
  8
AM_0
 10
555.48296969802891
 20
522.5504209529231
 30
0.0
 11
585.48296969802891
 21
522.5504209529231
 31
0.0
  0
LINE
  5
343C
  8
AM_0
 10
533.4830196980289
 20
494.1910759529232
 30
0.0
 11
533.4830196980289
 21
457.92175595292309
 31
0.0
  0
LINE
  5
343D
  8
AM_0
 10
560.48296969802891
 20
522.5504209529231
 30
0.0
 11
560.48296969802891
 21
454.53391095292318
 31
0.0
  0
LINE
  5
343E
  8
AM_0
 10
510.87951969802879
 20
403.00687095292301
 30
0.0
 11
557.37951969802907
 21
447.29257595292307
 31
0.0
  0
LINE
  5
343F
  8
AM_0
 10
502.48301969802878
 20
455.92172595292323
 30
0.0
 11
531.48296969802891
 21
455.92172595292323
 31
0.0
  0
ARC
  5
3440
  8
AM_0
 10
490.4829696980288
 20
423.63470595292313
 30
0.0
 40
10.0
 50
179.9999899999988
 51
225.28791999999751
  0
LINE
  5
3441
  8
AM_0
 10
483.44756969802881
 20
416.5282009529231
 30
0.0
 11
497.5185196980288
 21
402.59799595292287
 31
0.0
  0
ARC
  5
3442
  8
AM_0
 10
490.4829696980288
 20
395.49149095292307
 30
0.0
 40
10.0
 50
28.402999999997601
 51
45.287918000001568
  0
ARC
  5
3443
  8
AM_0
 10
503.9829696980288
 20
410.24820095292301
 30
0.0
 40
10.0
 50
270.0
 51
313.60281999999847
  0
ARC
  5
3444
  8
AM_0
 10
475.48296969802868
 20
428.24820095292313
 30
0.0
 40
5.0
 50
0.0
 51
90.00000299999769
  0
ARC
  5
3445
  8
AM_0
 10
502.48301969802878
 20
453.92172595292288
 30
0.0
 40
2.0000000500000001
 50
90.00000299999769
 51
180.00001000000091
  0
ARC
  5
3446
  8
AM_0
 10
531.48296969802891
 20
457.92175595292309
 30
0.0
 40
2.0000000500000001
 50
270.0
 51
0.0
  0
ARC
  5
3447
  8
AM_0
 10
550.48296969802891
 20
454.53391095292318
 30
0.0
 40
10.0
 50
313.60281999999847
 51
0.0
  0
LINE
  5
3448
  8
AM_0
 10
502.48301969802878
 20
496.19110595292312
 30
0.0
 11
531.48296969802891
 21
496.19110595292312
 31
0.0
  0
ARC
  5
3449
  8
AM_0
 10
502.48301969802878
 20
498.19107595292309
 30
0.0
 40
2.0000000500000001
 50
179.9999899999988
 51
270.0
  0
ARC
  5
344A
  8
AM_0
 10
531.48296969802891
 20
494.1910759529232
 30
0.0
 40
2.0000000500000001
 50
0.0
 51
90.00000299999769
  0
LINE
  5
344B
  8
AM_0
 10
646.98296969802902
 20
400.24820095292318
 30
0.0
 11
692.98296969802891
 21
400.24820095292318
 31
0.0
  0
LINE
  5
344C
  8
AM_0
 10
631.98296969802902
 20
438.90018095292322
 30
0.0
 11
651.98296969802902
 21
438.90018095292322
 31
0.0
  0
ARC
  5
344D
  8
AM_0
 10
646.98296969802902
 20
415.24820095292313
 30
0.0
 40
15.0
 50
179.9999899999988
 51
270.0
  0
ARC
  5
344E
  8
AM_0
 10
692.98296969802891
 20
395.24820095292313
 30
0.0
 40
5.0
 50
0.0
 51
90.00000299999769
  0
ARC
  5
344F
  8
AM_0
 10
651.98296969802902
 20
448.90018095292322
 30
0.0
 40
10.0
 50
270.0
 51
0.0
  0
ARC
  5
3450
  8
AM_0
 10
694.98301969802901
 20
531.14527095292306
 30
0.0
 40
3.0000000500000001
 50
271.9999999999971
 51
0.0
  0
ARC
  5
3451
  8
AM_0
 10
694.98301969802901
 20
525.14163595292325
 30
0.0
 40
3.0000000500000001
 50
91.999998000000545
 51
180.00001000000091
  0
LINE
  5
3452
  8
AM_0
 10
694.87831969802915
 20
528.13980595292321
 30
0.0
 11
695.08766969802923
 21
528.14713095292313
 31
0.0
  0
LINE
  5
3453
  8
AM_0
 10
433.9829696980288
 20
616.18102595292305
 30
0.0
 11
480.4829696980288
 21
616.18102595292305
 31
0.0
  0
LINE
  5
3454
  8
AM_0
 10
433.9829696980288
 20
631.92307595292323
 30
0.0
 11
480.4829696980288
 21
631.92307595292323
 31
0.0
  0
LINE
  5
3455
  8
AM_0
 10
435.98301969802912
 20
657.24822595292301
 30
0.0
 11
475.48296969802868
 21
657.24822595292301
 31
0.0
  0
LINE
  5
3456
  8
AM_0
 10
362.94573469802913
 20
641.92857795292332
 30
0.0
 11
387.7160216980289
 21
630.87671695292306
 31
0.0
  0
LINE
  5
3457
  8
AM_0
 10
418.98301969802912
 20
628.41906695292323
 30
0.0
 11
418.98301969802912
 21
643.9754159529233
 31
0.0
  0
LINE
  5
3458
  8
AM_0
 10
417.98362969802889
 20
629.45396595292323
 30
0.0
 11
417.98362969802889
 21
645.01031495292318
 31
0.0
  0
LINE
  5
3459
  8
AM_0
 10
390.98301969802912
 20
643.96916395292317
 30
0.0
 11
390.98301969802912
 21
632.4889629529232
 31
0.0
  0
LINE
  5
345A
  8
AM_0
 10
417.28602769802882
 20
619.7819669529232
 30
0.0
 11
364.85213569802937
 21
621.15499695292306
 31
0.0
  0
ARC
  5
345B
  8
AM_0
 10
364.98301969802912
 20
626.15328295292318
 30
0.0
 40
5.0
 50
209.2791089999983
 51
268.49999999999733
  0
LINE
  5
345C
  8
AM_0
 10
417.98362969802889
 20
629.45396595292323
 30
0.0
 11
389.57880969802892
 21
630.44588395292328
 31
0.0
  0
ARC
  5
345D
  8
AM_0
 10
389.75330769802918
 20
635.44283795292313
 30
0.0
 40
5.0
 50
245.95480699999951
 51
267.99999999999631
  0
LINE
  5
345E
  8
AM_0
 10
420.98301969802901
 20
621.24482595292318
 30
0.0
 11
433.9829696980288
 21
621.24482595292318
 31
0.0
  0
LINE
  5
345F
  8
AM_0
 10
420.98301969802901
 20
629.41902595292333
 30
0.0
 11
433.9829696980288
 21
629.41902595292333
 31
0.0
  0
LINE
  5
3460
  8
AM_0
 10
417.98362969802889
 20
629.45396595292323
 30
0.0
 11
418.98301969802912
 21
628.41906695292323
 31
0.0
  0
LINE
  5
3461
  8
AM_0
 10
418.98301969802912
 20
621.27171295292305
 30
0.0
 11
418.98301969802912
 21
628.41906695292323
 31
0.0
  0
LINE
  5
3462
  8
AM_0
 10
362.94573469802913
 20
657.48492695292305
 30
0.0
 11
387.7160216980289
 21
646.43306595292324
 31
0.0
  0
LINE
  5
3463
  8
AM_0
 10
420.98301969802901
 20
663.24820601287524
 30
0.0
 11
364.85213569802937
 21
664.71804495292326
 31
0.0
  0
ARC
  5
3464
  8
AM_0
 10
364.98301969802912
 20
662.05104895292288
 30
0.0
 40
5.0
 50
180.0
 51
245.95480699999951
  0
ARC
  5
3465
  8
AM_0
 10
364.98301969802912
 20
646.49469995292327
 30
0.0
 40
5.0
 50
180.0
 51
245.95480699999951
  0
ARC
  5
3466
  8
AM_0
 10
364.98301969802912
 20
669.71633195292327
 30
0.0
 40
5.0
 50
180.0
 51
268.49999999999733
  0
LINE
  5
3467
  8
AM_0
 10
339.98301969802912
 20
695.24820595292317
 30
0.0
 11
356.98301969802912
 21
695.24820595292317
 31
0.0
  0
ARC
  5
3468
  8
AM_0
 10
356.98301969802912
 20
692.24820595292306
 30
0.0
 40
3.0
 50
0.0
 51
90.0
  0
LINE
  5
3469
  8
AM_0
 10
389.57880969802892
 20
646.00223295292301
 30
0.0
 11
417.98362969802889
 21
645.01031495292318
 31
0.0
  0
ARC
  5
346A
  8
AM_0
 10
389.75330769802918
 20
650.99918695292308
 30
0.0
 40
5.0
 50
245.95480699999951
 51
267.99999999999631
  0
LINE
  5
346B
  8
AM_0
 10
420.98301969802901
 20
644.97542595292305
 30
0.0
 11
433.9829696980288
 21
644.97542595292305
 31
0.0
  0
LINE
  5
346C
  8
AM_0
 10
417.98362969802889
 20
645.01031495292318
 30
0.0
 11
418.98301969802912
 21
643.9754159529233
 31
0.0
  0
ARC
  5
346D
  8
AM_0
 10
435.98301969802912
 20
659.24822595292312
 30
0.0
 40
2.0000000500000001
 50
179.9999899999988
 51
270.0
  0
ARC
  5
346E
  8
AM_0
 10
431.9829696980288
 20
663.24822595292312
 30
0.0
 40
2.0000000500000001
 50
0.0
 51
90.00000299999769
  0
LINE
  5
346F
  8
AM_0
 10
420.98301969802901
 20
665.24822595292312
 30
0.0
 11
431.9829696980288
 21
665.24822595292312
 31
0.0
  0
ARC
  5
3470
  8
AM_0
 10
515.4829696980288
 20
751.24822595292301
 30
0.0
 40
25.000000499999999
 50
306.46672000000012
 51
233.5332899999996
  0
ARC
  5
3471
  8
AM_0
 10
533.90801969802885
 20
726.31792595292302
 30
0.0
 40
6.0
 50
126.46669999999671
 51
190.27005999999909
  0
ARC
  5
3472
  8
AM_0
 10
497.05796969802873
 20
726.31792595292302
 30
0.0
 40
6.0
 50
349.72994999999878
 51
53.533291000000993
  0
LINE
  5
3473
  8
AM_0
 10
527.9829696980288
 20
725.24822595292301
 30
0.0
 11
525.73246969802892
 21
733.64712595292326
 31
0.0
  0
LINE
  5
3474
  8
AM_0
 10
502.9829696980288
 20
725.24827595292322
 30
0.0
 11
505.23346969802878
 21
733.64712595292326
 31
0.0
  0
ARC
  5
3475
  8
AM_0
 10
579.80146969802911
 20
704.38677595292324
 30
0.0
 40
20.000000499999999
 50
60.000002000001302
 51
88.000000000002785
  0
LINE
  5
3476
  8
AM_0
 10
502.48301969802878
 20
581.29904595292305
 30
0.0
 11
531.48296969802891
 21
581.29904595292305
 31
0.0
  0
LINE
  5
3477
  8
AM_0
 10
502.48301969802878
 20
618.47322595292326
 30
0.0
 11
531.48296969802891
 21
618.47322595292326
 31
0.0
  0
ARC
  5
3478
  8
AM_0
 10
502.48301969802878
 20
579.29904595292317
 30
0.0
 40
2.0000000500000001
 50
90.00000299999769
 51
180.00001000000091
  0
ARC
  5
3479
  8
AM_0
 10
502.48301969802878
 20
620.47322595292314
 30
0.0
 40
2.0000000500000001
 50
179.9999899999988
 51
270.0
  0
LINE
  5
347A
  8
AM_0
 10
533.4830196980289
 20
616.47322595292314
 30
0.0
 11
533.4830196980289
 21
583.29904595292328
 31
0.0
  0
ARC
  5
347B
  8
AM_0
 10
531.48296969802891
 20
583.29904595292328
 30
0.0
 40
2.0000000500000001
 50
270.0
 51
0.0
  0
ARC
  5
347C
  8
AM_0
 10
531.48296969802891
 20
616.47322595292314
 30
0.0
 40
2.0000000500000001
 50
0.0
 51
90.00000299999769
  0
LINE
  5
347D
  8
AM_0
 10
502.48301969802878
 20
714.99577595292317
 30
0.0
 11
531.48296969802891
 21
714.99577595292317
 31
0.0
  0
LINE
  5
347E
  8
AM_0
 10
502.48301969802878
 20
698.46647595292302
 30
0.0
 11
531.48296969802891
 21
698.46647595292302
 31
0.0
  0
LINE
  5
347F
  8
AM_0
 10
502.48301969802878
 20
725.24822595292301
 30
0.0
 11
555.48296969802891
 21
725.24822595292301
 31
0.0
  0
LINE
  5
3480
  8
AM_0
 10
505.30846969802872
 20
723.49612595292319
 30
0.0
 11
555.48296969802891
 21
725.24822595292301
 31
0.0
  0
LINE
  5
3481
  8
AM_0
 10
496.72996969802892
 20
691.24577595292328
 30
0.0
 11
484.236019698029
 21
681.25062595292297
 31
0.0
  0
ARC
  5
3482
  8
AM_0
 10
490.4829696980288
 20
673.44192595292316
 30
0.0
 40
10.0
 50
128.65980999999641
 51
180.00001000000091
  0
ARC
  5
3483
  8
AM_0
 10
475.48296969802868
 20
662.24822595292312
 30
0.0
 40
5.0
 50
270.0
 51
0.0
  0
ARC
  5
3484
  8
AM_0
 10
490.4829696980288
 20
699.05442595292277
 30
0.0
 40
10.0
 50
308.65980999999641
 51
0.0
  0
ARC
  5
3485
  8
AM_0
 10
502.48301969802878
 20
696.46652595292312
 30
0.0
 40
2.0000000500000001
 50
90.00000299999769
 51
180.00001000000091
  0
ARC
  5
3486
  8
AM_0
 10
502.48301969802878
 20
716.99577595292305
 30
0.0
 40
2.0000000500000001
 50
179.9999899999988
 51
270.0
  0
ARC
  5
3487
  8
AM_0
 10
505.4829696980288
 20
718.49912595292312
 30
0.0
 40
5.0
 50
91.999998000000545
 51
180.00001000000091
  0
ARC
  5
3488
  8
AM_0
 10
502.48301969802878
 20
723.24822595292301
 30
0.0
 40
2.0000000500000001
 50
90.00000299999769
 51
180.00001000000091
  0
LINE
  5
3489
  8
AM_0
 10
533.4830196980289
 20
712.99577595292305
 30
0.0
 11
533.4830196980289
 21
700.46647595292325
 31
0.0
  0
ARC
  5
348A
  8
AM_0
 10
531.48296969802891
 20
700.46647595292325
 30
0.0
 40
2.0000000500000001
 50
270.0
 51
0.0
  0
ARC
  5
348B
  8
AM_0
 10
531.48296969802891
 20
712.99577595292305
 30
0.0
 40
2.0000000500000001
 50
0.0
 51
90.00000299999769
  0
LINE
  5
348C
  8
AM_0
 10
555.48301969802912
 20
725.24822595292301
 30
0.0
 11
580.49951969802896
 21
724.37462595292322
 31
0.0
  0
ARC
  5
348D
  8
AM_0
 10
646.98296969802902
 20
629.17512595292305
 30
0.0
 40
15.0
 50
90.00000299999769
 51
180.00001000000091
  0
LINE
  5
348E
  8
AM_0
 10
703.98296969802902
 20
625.74822595292312
 30
0.0
 11
703.98296969802902
 21
560.74820595292306
 31
0.0
  0
LINE
  5
348F
  8
AM_0
 10
697.98296969802891
 20
560.74820595292306
 30
0.0
 11
703.98296969802902
 21
560.74820595292306
 31
0.0
  0
LINE
  5
3490
  8
AM_0
 10
697.98296969802891
 20
625.74822595292312
 30
0.0
 11
703.98296969802902
 21
625.74822595292312
 31
0.0
  0
LINE
  5
3491
  8
AM_0
 10
597.19826969802898
 20
718.78842595292326
 30
0.0
 11
652.33201969802894
 21
716.86312595292327
 31
0.0
  0
LINE
  5
3492
  8
AM_0
 10
646.98296969802902
 20
644.17512595292305
 30
0.0
 11
661.98296969802902
 21
644.17512595292305
 31
0.0
  0
ARC
  5
3493
  8
AM_0
 10
597.54716969802905
 20
728.78232595292343
 30
0.0
 40
10.0
 50
239.99999999999949
 51
268.00000000000261
  0
LINE
  5
3494
  8
AM_0
 10
589.80151969802876
 20
721.70732595292282
 30
0.0
 11
592.54711969802895
 21
720.12212595292328
 31
0.0
  0
ARC
  5
3495
  8
AM_0
 10
683.98296969802902
 20
677.91752595292326
 30
0.0
 40
8.0
 50
0.0
 51
84.999996999998885
  0
ARC
  5
3496
  8
AM_0
 10
694.98301969802901
 20
661.35477595292309
 30
0.0
 40
3.0000000500000001
 50
179.9999899999988
 51
268.00000999999861
  0
ARC
  5
3497
  8
AM_0
 10
694.98301969802901
 20
655.35112595292333
 30
0.0
 40
3.0000000500000001
 50
0.0
 51
88.000000000002785
  0
LINE
  5
3498
  8
AM_0
 10
694.87831969802915
 20
658.3566759529233
 30
0.0
 11
695.08776969802875
 21
658.34932595292332
 31
0.0
  0
LINE
  5
3499
  8
AM_0
 10
671.11146969802905
 20
687.07417595292327
 30
0.0
 11
684.68031969802917
 21
685.88712595292293
 31
0.0
  0
ARC
  5
349A
  8
AM_0
 10
671.98296969802902
 20
697.03617595292314
 30
0.0
 40
10.0
 50
179.9999899999988
 51
265.0
  0
ARC
  5
349B
  8
AM_0
 10
651.98296969802902
 20
706.869175952923
 30
0.0
 40
10.0
 50
0.0
 51
88.000000000002785
  0
CIRCLE
  5
349C
  8
AM_0
 10
515.4829696980288
 20
751.24822595292301
 30
0.0
 40
15.0
  0
LINE
  5
349D
  8
AM_0
 10
505.68896969802881
 20
734.24822595292301
 30
0.0
 11
525.27706969802909
 21
734.24822595292301
 31
0.0
  0
LINE
  5
349E
  8
AM_0
 10
515.4829696980288
 20
736.24822595292301
 30
0.0
 11
524.96106969802895
 21
734.369175952923
 31
0.0
  0
LINE
  5
349F
  8
AM_0
 10
506.00496969802867
 20
734.369175952923
 30
0.0
 11
515.4829696980288
 21
736.24812595292281
 31
0.0
  0
ARC
  5
34A0
  8
AM_0
 10
506.19941969802909
 20
733.3883259529232
 30
0.0
 40
1.0
 50
101.21328999999869
 51
164.99998999999869
  0
ARC
  5
34A1
  8
AM_0
 10
524.7666196980291
 20
733.3883259529232
 30
0.0
 40
1.0
 50
15.000000000000741
 51
78.786710000001207
  0
LINE
  5
34A2
  8
AM_0
 10
1002.333586256797
 20
625.04972595292315
 30
0.0
 11
959.15199625679872
 21
402.89972095292308
 31
0.0
  0
LINE
  5
34A3
  8
AM_0
 10
1009.152011256797
 20
642.55022595292303
 30
0.0
 11
1009.152011256797
 21
505.24820595292312
 31
0.0
  0
LINE
  5
34A4
  8
AM_0
 10
1032.1519812567981
 20
578.24820595292317
 30
0.0
 11
1032.1519812567981
 21
415.24820095292313
 31
0.0
  0
LINE
  5
34A5
  8
AM_0
 10
1246.151981256799
 20
578.24820595292317
 30
0.0
 11
1246.151981256799
 21
415.24820095292313
 31
0.0
  0
LINE
  5
34A6
  8
AM_0
 10
1269.1519962567991
 20
642.55022595292303
 30
0.0
 11
1269.1519962567991
 21
505.24820595292312
 31
0.0
  0
LINE
  5
34A7
  8
AM_0
 10
1275.970386256799
 20
625.04977595292326
 30
0.0
 11
1319.151981256799
 21
402.89972095292308
 31
0.0
  0
LINE
  5
34A8
  8
ﾁｭｳｼﾝｾﾝ
 10
1139.152011256798
 20
782.06817437733582
 30
0.0
 11
1139.152011256798
 21
366.35501595292311
 31
0.0
  0
CIRCLE
  5
34A9
  8
AM_0
 10
1139.152011256798
 20
593.24820595292306
 30
0.0
 40
65.0
  0
LINE
  5
34AA
  8
ﾁｭｳｼﾝｾﾝ
 10
993.01885623173655
 20
545.24820595292317
 30
0.0
 11
1284.448519001922
 21
545.24820595292317
 31
0.0
  0
LINE
  5
34AB
  8
AM_0
 10
1319.1519962567991
 20
368.24820095292313
 30
0.0
 11
1239.1519962567991
 21
368.24820095292313
 31
0.0
  0
ARC
  5
34AC
  8
AM_0
 10
1244.1519962567991
 20
395.24820095292313
 30
0.0
 40
5.0
 50
90.00000299999769
 51
180.00001000000091
  0
LINE
  5
34AD
  8
AM_0
 10
959.15199625679872
 20
368.24820095292313
 30
0.0
 11
1039.152011256798
 21
368.24820095292313
 31
0.0
  0
LINE
  5
34AE
  8
AM_0
 10
964.1519962567985
 20
400.24820095292318
 30
0.0
 11
1034.152011256798
 21
400.24820095292318
 31
0.0
  0
LINE
  5
34AF
  8
AM_0
 10
959.15199625679872
 20
402.89972095292308
 30
0.0
 11
959.15199625679872
 21
368.24820095292313
 31
0.0
  0
ARC
  5
34B0
  8
AM_0
 10
964.1519962567985
 20
395.24820095292313
 30
0.0
 40
5.0
 50
90.00000299999769
 51
180.00001000000091
  0
LINE
  5
34B1
  8
AM_0
 10
1039.152011256798
 20
395.24820095292313
 30
0.0
 11
1039.152011256798
 21
368.24820095292313
 31
0.0
  0
LINE
  5
34B2
  8
ﾁｭｳｼﾝｾﾝ1
 10
994.15201125679869
 20
405.08661095292308
 30
0.0
 11
994.15201125679869
 21
362.00864095292309
 31
0.0
  0
LINE
  5
34B3
  8
AM_0
 10
1239.1519962567991
 20
395.24820095292313
 30
0.0
 11
1239.1519962567991
 21
368.24820095292313
 31
0.0
  0
ARC
  5
34B4
  8
AM_0
 10
1049.152011256798
 20
374.10608095292321
 30
0.0
 40
10.0
 50
135.0
 51
180.00001000000091
  0
ARC
  5
34B5
  8
AM_0
 10
1229.1519962567991
 20
374.10608095292321
 30
0.0
 40
10.0
 50
0.0
 51
45.000001000003799
  0
LINE
  5
34B6
  8
ｶｸﾚｾﾝ2
 10
982.15197625679889
 20
400.24820095292318
 30
0.0
 11
982.15197625679889
 21
368.24820095292313
 31
0.0
  0
LINE
  5
34B7
  8
ｶｸﾚｾﾝ2
 10
1006.152011256798
 20
400.24820095292318
 30
0.0
 11
1006.152011256798
 21
368.24820095292313
 31
0.0
  0
LINE
  5
34B8
  8
AM_0
 10
1042.151981256796
 20
371.24820095292318
 30
0.0
 11
1139.152011256798
 21
371.24820095292318
 31
0.0
  0
ARC
  5
34B9
  8
AM_0
 10
1042.151981256796
 20
368.24820095292313
 30
0.0
 40
3.0000000500000001
 50
90.00000299999769
 51
180.00001000000091
  0
LINE
  5
34BA
  8
AM_0
 10
1236.151981256799
 20
371.24820095292318
 30
0.0
 11
1139.152011256798
 21
371.24820095292318
 31
0.0
  0
ARC
  5
34BB
  8
AM_0
 10
1236.151981256799
 20
368.24820095292313
 30
0.0
 40
3.0000000500000001
 50
0.0
 51
90.00000299999769
  0
LINE
  5
34BC
  8
AM_0
 10
1079.206851256798
 20
381.0179159529232
 30
0.0
 11
1139.152011256798
 21
381.0179159529232
 31
0.0
  0
ARC
  5
34BD
  8
AM_0
 10
1139.152011256798
 20
505.24820595292312
 30
0.0
 40
130.0
 50
179.9999899999988
 51
214.60599000000229
  0
ARC
  5
34BE
  8
AM_0
 10
1034.152011256798
 20
395.24820095292313
 30
0.0
 40
5.0
 50
0.0
 51
90.00000299999769
  0
ARC
  5
34BF
  8
AM_0
 10
1017.151981256799
 20
415.24820095292313
 30
0.0
 40
15.0
 50
270.0
 51
0.0
  0
ARC
  5
34C0
  8
AM_0
 10
1079.206851256798
 20
391.0179159529232
 30
0.0
 40
10.0
 50
233.9999999999971
 51
270.0
  0
ARC
  5
34C1
  8
AM_0
 10
1057.2760962567991
 20
382.23016595292319
 30
0.0
 40
10.0
 50
54.000001999999917
 51
135.0
  0
LINE
  5
34C2
  8
AM_0
 10
1042.080936256797
 20
381.17712595292312
 30
0.0
 11
1050.2050512567971
 21
389.30124095292319
 31
0.0
  0
LINE
  5
34C3
  8
AM_0
 10
1073.329041256799
 20
382.92770595292319
 30
0.0
 11
1063.153961256799
 21
390.32031595292318
 31
0.0
  0
LINE
  5
34C4
  8
AM_0
 10
1199.0971412567969
 20
381.0179159529232
 30
0.0
 11
1139.152011256798
 21
381.0179159529232
 31
0.0
  0
LINE
  5
34C5
  8
AM_0
 10
1204.9749812567979
 20
382.92773595292317
 30
0.0
 11
1215.1500262567979
 21
390.32034595292311
 31
0.0
  0
ARC
  5
34C6
  8
AM_0
 10
1199.0971412567969
 20
391.0179159529232
 30
0.0
 40
10.0
 50
270.0
 51
306.00000000000261
  0
ARC
  5
34C7
  8
AM_0
 10
1221.027866256798
 20
382.23016595292319
 30
0.0
 40
10.0
 50
45.000001000003799
 51
126.0000000000027
  0
LINE
  5
34C8
  8
AM_0
 10
1236.2230562567991
 20
381.17712595292312
 30
0.0
 11
1228.0989562567979
 21
389.30124095292319
 31
0.0
  0
LINE
  5
34C9
  8
AM_0
 10
1319.1519962567991
 20
402.89972095292308
 30
0.0
 11
1319.1519962567991
 21
368.24820095292313
 31
0.0
  0
LINE
  5
34CA
  8
ﾁｭｳｼﾝｾﾝ1
 10
1284.1519962567991
 20
405.08661095292308
 30
0.0
 11
1284.1519962567991
 21
362.00864095292309
 31
0.0
  0
LINE
  5
34CB
  8
ｶｸﾚｾﾝ2
 10
1272.1519962567991
 20
400.24820095292318
 30
0.0
 11
1272.1519962567991
 21
368.24820095292313
 31
0.0
  0
LINE
  5
34CC
  8
ｶｸﾚｾﾝ2
 10
1296.151981256799
 20
400.24820095292318
 30
0.0
 11
1296.151981256799
 21
368.24820095292313
 31
0.0
  0
ARC
  5
34CD
  8
AM_0
 10
1139.152011256798
 20
505.24820595292312
 30
0.0
 40
130.0
 50
325.39400000000001
 51
0.0
  0
LINE
  5
34CE
  8
AM_0
 10
1314.1519962567991
 20
400.24820095292318
 30
0.0
 11
1244.1519962567991
 21
400.24820095292318
 31
0.0
  0
ARC
  5
34CF
  8
AM_0
 10
1261.151981256799
 20
415.24820095292313
 30
0.0
 40
15.0
 50
179.9999899999988
 51
270.0
  0
ARC
  5
34D0
  8
AM_0
 10
1314.1519962567991
 20
395.24820095292313
 30
0.0
 40
5.0
 50
0.0
 51
90.00000299999769
  0
ARC
  5
34D1
  8
AM_0
 10
1159.287541256798
 20
596.42984595292296
 30
0.0
 40
120.0
 50
10.999999999998691
 51
68.524651000000731
  0
ARC
  5
34D2
  8
AM_0
 10
1139.152011256798
 20
578.24820595292317
 30
0.0
 40
107.0
 50
0.0
 51
90.00000299999769
  0
ARC
  5
34D3
  8
AM_0
 10
1158.175141256796
 20
602.15271595292313
 30
0.0
 40
120.0
 50
10.999999999998691
 51
71.515243000000595
  0
LINE
  5
34D4
  8
AM_0
 10
727.98296969802868
 20
627.24822595292312
 30
0.0
 11
808.98301969802901
 21
627.24822595292312
 31
0.0
  0
LINE
  5
34D5
  8
AM_0
 10
727.98296969802868
 20
627.24822595292312
 30
0.0
 11
727.98296969802868
 21
623.24822595292312
 31
0.0
  0
LINE
  5
34D6
  8
AM_0
 10
808.98301969802901
 20
627.24822595292312
 30
0.0
 11
808.98301969802901
 21
563.24820595292306
 31
0.0
  0
LINE
  5
34D7
  8
AM_0
 10
1151.770661256799
 20
724.80527595292324
 30
0.0
 11
1149.401521256797
 21
733.64712595292326
 31
0.0
  0
LINE
  5
34D8
  8
AM_0
 10
1126.533356256798
 20
724.80537595292344
 30
0.0
 11
1128.902501256799
 21
733.64712595292326
 31
0.0
  0
ARC
  5
34D9
  8
AM_0
 10
1139.152011256798
 20
545.24820595292317
 30
0.0
 40
180.0000049999999
 50
90.00000299999769
 51
108.4847599999984
  0
ARC
  5
34DA
  8
AM_0
 10
1120.128876256797
 20
602.15271595292313
 30
0.0
 40
120.0
 50
108.4847599999984
 51
169.00000000000131
  0
ARC
  5
34DB
  8
AM_0
 10
1139.152011256798
 20
545.24820595292317
 30
0.0
 40
180.0000049999999
 50
71.515243000000595
 51
90.00000299999769
  0
LINE
  5
34DC
  8
ﾁｭｳｼﾝｾﾝ
 10
1043.313976034382
 20
593.24820595292306
 30
0.0
 11
1235.563544880979
 21
593.24820595292306
 31
0.0
  0
ARC
  5
34DD
  8
AM_0
 10
1139.152011256798
 20
545.24820595292317
 30
0.0
 40
175.0000049999999
 50
90.00000299999769
 51
111.4753500000013
  0
ARC
  5
34DE
  8
AM_0
 10
1139.152011256798
 20
578.24820595292317
 30
0.0
 40
107.0
 50
90.00000299999769
 51
180.00001000000091
  0
ARC
  5
34DF
  8
AM_0
 10
1119.016421256799
 20
596.42984595292296
 30
0.0
 40
120.0
 50
111.4753500000013
 51
169.00000000000131
  0
ARC
  5
34E0
  8
AM_0
 10
1019.152011256797
 20
642.55022595292303
 30
0.0
 40
10.0
 50
155.21109000000271
 51
180.00001000000091
  0
ARC
  5
34E1
  8
AM_0
 10
1139.152011256798
 20
593.24820595292306
 30
0.0
 40
30.000000499999999
 50
107.45760000000089
 51
72.542383999997952
  0
CIRCLE
  5
34E2
  8
AM_5
 10
1139.152011256798
 20
593.24820595292306
 30
0.0
 40
6.0
  0
CIRCLE
  5
34E3
  8
AM_0
 10
1139.152011256798
 20
593.24820595292306
 30
0.0
 40
4.500000049999997
  0
LINE
  5
34E4
  8
AM_0
 10
1130.151981256799
 20
616.24822595292312
 30
0.0
 11
1148.151981256799
 21
616.24822595292312
 31
0.0
  0
LINE
  5
34E5
  8
AM_0
 10
1130.151981256799
 20
627.24822595292312
 30
0.0
 11
1148.151981256799
 21
627.24822595292312
 31
0.0
  0
LINE
  5
34E6
  8
AM_0
 10
1130.151981256799
 20
627.24822595292312
 30
0.0
 11
1130.151981256799
 21
616.24822595292312
 31
0.0
  0
LINE
  5
34E7
  8
AM_0
 10
1148.151981256799
 20
627.24822595292312
 30
0.0
 11
1148.151981256799
 21
616.24822595292312
 31
0.0
  0
ARC
  5
34E8
  8
AM_0
 10
1139.152011256798
 20
545.24820595292317
 30
0.0
 40
175.0000049999999
 50
68.524644999998387
 51
90.00000299999769
  0
LINE
  5
34E9
  8
AM_0
 10
1134.152011256798
 20
771.24822595292301
 30
0.0
 11
1134.152011256798
 21
729.24822595292289
 31
0.0
  0
LINE
  5
34EA
  8
AM_0
 10
1144.1520112567971
 20
771.24822595292301
 30
0.0
 11
1144.1520112567971
 21
729.24822595292289
 31
0.0
  0
LINE
  5
34EB
  8
AM_0
 10
1129.673951256797
 20
734.36922595292344
 30
0.0
 11
1134.152011256798
 21
735.25697595292343
 31
0.0
  0
ARC
  5
34EC
  8
AM_0
 10
1129.868411256798
 20
733.3883259529232
 30
0.0
 40
1.0
 50
101.21328999999869
 51
164.99998999999869
  0
ARC
  5
34ED
  8
AM_0
 10
1132.151981256799
 20
729.24822595292289
 30
0.0
 40
2.0000000500000001
 50
270.0
 51
0.0
  0
LINE
  5
34EE
  8
AM_0
 10
1144.1520112567971
 20
735.25692595292344
 30
0.0
 11
1148.6300712567991
 21
734.369175952923
 31
0.0
  0
ARC
  5
34EF
  8
AM_0
 10
1148.4356112567971
 20
733.3883259529232
 30
0.0
 40
1.0
 50
15.000000000000741
 51
78.786710000001207
  0
ARC
  5
34F0
  8
AM_0
 10
1146.1520112567971
 20
729.24822595292289
 30
0.0
 40
2.0000000500000001
 50
179.9999899999988
 51
270.0
  0
ARC
  5
34F1
  8
AM_0
 10
1139.152011256798
 20
771.24822595292301
 30
0.0
 40
5.0
 50
0.0
 51
179.9999899999988
  0
ARC
  5
34F2
  8
AM_0
 10
1259.1519962567991
 20
642.55022595292303
 30
0.0
 40
10.0
 50
0.0
 51
24.788911000003161
  0
LINE
  5
34F3
  8
AM_0
 10
417.98366969802919
 20
1181.6155430529641
 30
0.0
 11
417.98366969802919
 21
1197.171892052964
 31
0.0
  0
LINE
  5
34F4
  8
AM_0
 10
418.98305969802902
 20
1180.5806440529641
 30
0.0
 11
418.98305969802902
 21
1196.136993052964
 31
0.0
  0
LINE
  5
34F5
  8
AM_0
 10
362.9457746980292
 20
1194.0901550529641
 30
0.0
 11
387.71606169802919
 21
1183.0382940529639
 31
0.0
  0
LINE
  5
34F6
  8
AM_0
 10
339.98305969802908
 20
1247.409783052964
 30
0.0
 11
339.98305969802908
 21
947.40978305296403
 31
0.0
  0
LINE
  5
34F7
  8
AM_0
 10
359.98305969802919
 20
1244.409783052964
 30
0.0
 11
359.98305969802919
 21
1097.409783052964
 31
0.0
  0
LINE
  5
34F8
  8
AM_0
 10
390.98305969802919
 20
1196.1307410529639
 30
0.0
 11
390.98305969802919
 21
1184.6505400529641
 31
0.0
  0
LINE
  5
34F9
  8
AM_0
 10
362.9457746980292
 20
985.17306205296393
 30
0.0
 11
387.71606169802919
 21
996.22492405296418
 31
0.0
  0
LINE
  5
34FA
  8
AM_0
 10
359.98305969802919
 20
950.40978305296414
 30
0.0
 11
359.98305969802919
 21
1097.409783052964
 31
0.0
  0
LINE
  5
34FB
  8
AM_0
 10
420.98305969802919
 20
979.40978299301196
 30
0.0
 11
364.8521756980295
 21
977.93994405296462
 31
0.0
  0
ARC
  5
34FC
  8
AM_0
 10
364.98305969802908
 20
980.60694105296443
 30
0.0
 40
5.0
 50
114.0451930000003
 51
180.0
  0
ARC
  5
34FD
  8
AM_0
 10
364.98305969802908
 20
972.94165805296461
 30
0.0
 40
5.0
 50
91.500000000002629
 51
180.0
  0
LINE
  5
34FE
  8
AM_0
 10
417.28606769802911
 20
1022.876023052964
 30
0.0
 11
364.8521756980295
 21
1021.502993052963
 31
0.0
  0
LINE
  5
34FF
  8
AM_0
 10
362.9457746980292
 20
1000.729412052963
 30
0.0
 11
387.71606169802919
 21
1011.781273052964
 31
0.0
  0
ARC
  5
3500
  8
AM_0
 10
364.98305969802908
 20
996.16329005296404
 30
0.0
 40
5.0
 50
114.0451930000003
 51
180.0
  0
ARC
  5
3501
  8
AM_0
 10
364.98305969802908
 20
1016.504706052964
 30
0.0
 40
5.0
 50
91.500000000002629
 51
150.7208910000015
  0
LINE
  5
3502
  8
AM_0
 10
418.98305969802902
 20
1021.386276052963
 30
0.0
 11
418.98305969802902
 21
1014.238923052964
 31
0.0
  0
LINE
  5
3503
  8
AM_0
 10
389.5788496980291
 20
996.65575605296453
 30
0.0
 11
417.98366969802919
 21
997.64767405296436
 31
0.0
  0
LINE
  5
3504
  8
AM_0
 10
417.98366969802919
 20
1013.204024052964
 30
0.0
 11
389.5788496980291
 21
1012.212105052964
 31
0.0
  0
ARC
  5
3505
  8
AM_0
 10
389.75334769802942
 20
1007.215151052964
 30
0.0
 40
5.0
 50
92.000000000003666
 51
114.0451930000003
  0
LINE
  5
3506
  8
AM_0
 10
390.98305969802919
 20
998.68882505296403
 30
0.0
 11
390.98305969802919
 21
1010.169027052964
 31
0.0
  0
ARC
  5
3507
  8
AM_0
 10
389.75334769802942
 20
991.65880205296412
 30
0.0
 40
5.0
 50
92.000000000003666
 51
114.0451930000003
  0
LINE
  5
3508
  8
AM_0
 10
417.98366969802919
 20
1013.204024052964
 30
0.0
 11
417.98366969802919
 21
997.64767405296436
 31
0.0
  0
LINE
  5
3509
  8
AM_0
 10
418.98305969802902
 20
1014.238923052964
 30
0.0
 11
418.98305969802902
 21
998.68257405296436
 31
0.0
  0
LINE
  5
350A
  8
AM_0
 10
417.98366969802919
 20
997.64767405296436
 30
0.0
 11
418.98305969802902
 21
998.68257405296436
 31
0.0
  0
LINE
  5
350B
  8
AM_0
 10
417.98366969802919
 20
1013.204024052964
 30
0.0
 11
418.98305969802902
 21
1014.238923052964
 31
0.0
  0
LINE
  5
350C
  8
AM_0
 10
417.28606769802911
 20
1171.943544052963
 30
0.0
 11
364.8521756980295
 21
1173.316574052963
 31
0.0
  0
ARC
  5
350D
  8
AM_0
 10
364.98305969802908
 20
1178.3148600529639
 30
0.0
 40
5.0
 50
209.2791089999985
 51
268.49999999999733
  0
LINE
  5
350E
  8
AM_0
 10
417.98366969802919
 20
1181.6155430529641
 30
0.0
 11
389.5788496980291
 21
1182.607461052964
 31
0.0
  0
ARC
  5
350F
  8
AM_0
 10
389.75334769802942
 20
1187.604415052964
 30
0.0
 40
5.0
 50
245.95480699999951
 51
267.99999999999631
  0
LINE
  5
3510
  8
AM_0
 10
418.98305969802902
 20
1173.433290052963
 30
0.0
 11
418.98305969802902
 21
1180.5806440529641
 31
0.0
  0
LINE
  5
3511
  8
AM_0
 10
417.98366969802919
 20
1181.6155430529641
 30
0.0
 11
418.98305969802902
 21
1180.5806440529641
 31
0.0
  0
LINE
  5
3512
  8
AM_0
 10
420.98305969802919
 20
1215.4097831129161
 30
0.0
 11
364.8521756980295
 21
1216.8796220529639
 31
0.0
  0
LINE
  5
3513
  8
AM_0
 10
362.9457746980292
 20
1209.646504052964
 30
0.0
 11
387.71606169802919
 21
1198.5946430529641
 31
0.0
  0
ARC
  5
3514
  8
AM_0
 10
364.98305969802908
 20
1198.656277052964
 30
0.0
 40
5.0
 50
180.0
 51
245.95480699999951
  0
ARC
  5
3515
  8
AM_0
 10
364.98305969802908
 20
1214.2126260529631
 30
0.0
 40
5.0
 50
180.0
 51
245.95480699999951
  0
ARC
  5
3516
  8
AM_0
 10
364.98305969802908
 20
1221.877909052964
 30
0.0
 40
5.0
 50
180.0
 51
268.49999999999733
  0
LINE
  5
3517
  8
AM_0
 10
339.98305969802908
 20
1247.409783052964
 30
0.0
 11
356.98305969802908
 21
1247.409783052964
 31
0.0
  0
ARC
  5
3518
  8
AM_0
 10
356.98305969802908
 20
1244.409783052964
 30
0.0
 40
3.0
 50
0.0
 51
90.0
  0
LINE
  5
3519
  8
AM_0
 10
389.5788496980291
 20
1198.163810052964
 30
0.0
 11
417.98366969802919
 21
1197.171892052964
 31
0.0
  0
ARC
  5
351A
  8
AM_0
 10
389.75334769802942
 20
1203.1607640529639
 30
0.0
 40
5.0
 50
245.95480699999951
 51
267.99999999999631
  0
LINE
  5
351B
  8
AM_0
 10
417.98366969802919
 20
1197.171892052964
 30
0.0
 11
418.98305969802902
 21
1196.136993052964
 31
0.0
  0
LINE
  5
351C
  8
AM_0
 10
339.98305969802908
 20
947.40978305296403
 30
0.0
 11
356.98305969802908
 21
947.40978305296403
 31
0.0
  0
ARC
  5
351D
  8
AM_0
 10
356.98305969802908
 20
950.40978305296414
 30
0.0
 40
3.0
 50
270.0
 51
0.0
  0
TEXT
  5
36FE
  8
AM_0
 10
980.67141916168066
 20
1155.8428455392891
 30
0.0
 40
20.0
  1
VX55-040A~VX55-060A
  0
ENDSEC
  0
EOF
