  0
SECTION
  2
HEADER
  9
$ACADVER
  1
AC1009
  9
$INSBASE
 10
0.0
 20
0.0
 30
0.0
  9
$EXTMIN
 10
324.0997510558222
 20
316.40770120340579
 30
-0.0015258207003583
  9
$EXTMAX
 10
1446.1938665858399
 20
1393.316383323629
 30
0.0000000349246037
  9
$LIMMIN
 10
0.0
 20
0.0
  9
$LIMMAX
 10
1707.0
 20
1110.0
  9
$ORTHOMODE
 70
     0
  9
$REGENMODE
 70
     1
  9
$FILLMODE
 70
     1
  9
$QTEXTMODE
 70
     0
  9
$MIRRTEXT
 70
     1
  9
$DRAGMODE
 70
     2
  9
$LTSCALE
 40
6.0
  9
$OSMODE
 70
   551
  9
$ATTMODE
 70
     1
  9
$TEXTSIZE
 40
0.2
  9
$TRACEWID
 40
1.0
  9
$TEXTSTYLE
  7
STANDARD
  9
$CLAYER
  8
AM_0
  9
$CELTYPE
  6
BYLAYER
  9
$CECOLOR
 62
   256
  9
$DIMSCALE
 40
1.0
  9
$DIMASZ
 40
2.5
  9
$DIMEXO
 40
1.0
  9
$DIMDLI
 40
8.0
  9
$DIMRND
 40
0.0
  9
$DIMDLE
 40
0.0
  9
$DIMEXE
 40
0.6
  9
$DIMTP
 40
0.1
  9
$DIMTM
 40
0.1
  9
$DIMTXT
 40
2.5
  9
$DIMCEN
 40
0.0
  9
$DIMTSZ
 40
0.0
  9
$DIMTOL
 70
     0
  9
$DIMLIM
 70
     0
  9
$DIMTIH
 70
     0
  9
$DIMTOH
 70
     0
  9
$DIMSE1
 70
     0
  9
$DIMSE2
 70
     0
  9
$DIMTAD
 70
     1
  9
$DIMZIN
 70
     8
  9
$DIMBLK
  1

  9
$DIMASO
 70
     1
  9
$DIMSHO
 70
     1
  9
$DIMPOST
  1

  9
$DIMAPOST
  1
"
  9
$DIMALT
 70
     0
  9
$DIMALTD
 70
     2
  9
$DIMALTF
 40
0.0393701
  9
$DIMLFAC
 40
1.0
  9
$DIMTOFL
 70
     1
  9
$DIMTVP
 40
0.0
  9
$DIMTIX
 70
     0
  9
$DIMSOXD
 70
     0
  9
$DIMSAH
 70
     0
  9
$DIMBLK1
  1

  9
$DIMBLK2
  1

  9
$DIMSTYLE
  2
AM_ISO
  9
$DIMCLRD
 70
   256
  9
$DIMCLRE
 70
   256
  9
$DIMCLRT
 70
     4
  9
$DIMTFAC
 40
0.71
  9
$DIMGAP
 40
0.8
  9
$LUNITS
 70
     2
  9
$LUPREC
 70
     2
  9
$SKETCHINC
 40
1.0
  9
$FILLETRAD
 40
30.0
  9
$AUNITS
 70
     0
  9
$AUPREC
 70
     0
  9
$MENU
  1
.
  9
$ELEVATION
 40
0.0
  9
$PELEVATION
 40
0.0
  9
$THICKNESS
 40
0.0
  9
$LIMCHECK
 70
     0
  9
$BLIPMODE
 70
     0
  9
$CHAMFERA
 40
12.0
  9
$CHAMFERB
 40
6.0
  9
$SKPOLY
 70
     0
  9
$TDCREATE
 40
2452067.3664434948
  9
$TDUPDATE
 40
2458541.4795445371
  9
$TDINDWG
 40
0.1179773495
  9
$TDUSRTIMER
 40
0.1179771759
  9
$USRTIMER
 70
     1
  9
$ANGBASE
 50
0.0
  9
$ANGDIR
 70
     0
  9
$PDMODE
 70
     0
  9
$PDSIZE
 40
0.0
  9
$PLINEWID
 40
0.0
  9
$COORDS
 70
     1
  9
$SPLFRAME
 70
     0
  9
$SPLINETYPE
 70
     6
  9
$SPLINESEGS
 70
     8
  9
$ATTDIA
 70
     1
  9
$ATTREQ
 70
     1
  9
$HANDLING
 70
     1
  9
$HANDSEED
  5
3CAA
  9
$SURFTAB1
 70
     6
  9
$SURFTAB2
 70
     6
  9
$SURFTYPE
 70
     6
  9
$SURFU
 70
     6
  9
$SURFV
 70
     6
  9
$UCSNAME
  2

  9
$UCSORG
 10
0.0
 20
0.0
 30
0.0
  9
$UCSXDIR
 10
1.0
 20
0.0
 30
0.0
  9
$UCSYDIR
 10
0.0
 20
1.0
 30
0.0
  9
$PUCSNAME
  2

  9
$PUCSORG
 10
0.0
 20
0.0
 30
0.0
  9
$PUCSXDIR
 10
1.0
 20
0.0
 30
0.0
  9
$PUCSYDIR
 10
0.0
 20
1.0
 30
0.0
  9
$USERI1
 70
     0
  9
$USERI2
 70
     0
  9
$USERI3
 70
     0
  9
$USERI4
 70
     0
  9
$USERI5
 70
     0
  9
$USERR1
 40
0.0
  9
$USERR2
 40
0.0
  9
$USERR3
 40
0.0
  9
$USERR4
 40
0.0
  9
$USERR5
 40
0.0
  9
$WORLDVIEW
 70
     1
  9
$SHADEDGE
 70
     3
  9
$SHADEDIF
 70
    70
  9
$TILEMODE
 70
     1
  9
$MAXACTVP
 70
    64
  9
$PLIMCHECK
 70
     0
  9
$PEXTMIN
 10
1.0000000000000000E+020
 20
1.0000000000000000E+020
 30
1.0000000000000000E+020
  9
$PEXTMAX
 10
-1.0000000000000000E+020
 20
-1.0000000000000000E+020
 30
-1.0000000000000000E+020
  9
$PLIMMIN
 10
0.0
 20
0.0
  9
$PLIMMAX
 10
420.0
 20
297.0
  9
$UNITMODE
 70
     0
  9
$VISRETAIN
 70
     1
  9
$PLINEGEN
 70
     0
  9
$PSLTSCALE
 70
     1
  0
ENDSEC
  0
SECTION
  2
TABLES
  0
TABLE
  2
VPORT
 70
     1
  0
VPORT
  2
*ACTIVE
 70
     0
 10
0.0
 20
0.0
 11
1.0
 21
1.0
 12
885.14680882083098
 22
854.86204226351776
 13
0.0
 23
0.0
 14
15.0
 24
15.0
 15
60.0
 25
60.0
 16
0.0
 26
0.0
 36
1.0
 17
0.0
 27
0.0
 37
0.0
 40
1084.3016479013691
 41
1.7571592210767459
 42
50.0
 43
0.0
 44
0.0
 50
0.0
 51
0.0
 71
     0
 72
   100
 73
     1
 74
     3
 75
     0
 76
     0
 77
     0
 78
     0
  0
ENDTAB
  0
TABLE
  2
LTYPE
 70
    27
  0
LTYPE
  2
CONTINUOUS
 70
     0
  3
Solid line
 72
    65
 73
     0
 40
0.0
  0
LTYPE
  2
AM_ISO02W050
 70
     0
  3
__ __ __ __ __ __ __ __ __ __ __ __ __ __ __
 72
    65
 73
     2
 40
7.5
 49
6.0
 49
-1.5
  0
LTYPE
  2
AM_ISO08W050
 70
     0
  3
____ . ____ . ____ . ____ . ____ . ____ . ____
 72
    65
 73
     4
 40
18.0
 49
12.0
 49
-1.5
 49
3.0
 49
-1.5
  0
LTYPE
  2
AM_ISO09W050
 70
     0
  3
_____ . . _____ . . _____ . . ____ .. ____
 72
    65
 73
     6
 40
22.5
 49
12.0
 49
-1.5
 49
3.0
 49
-1.5
 49
3.0
 49
-1.5
  0
LTYPE
  2
AMCONSTR
 70
     0
  3
_______________________
 72
    65
 73
     2
 40
9999.0
 49
9999.0
 49
0.0
  0
LTYPE
  2
AM_ISO08W050X2
 70
     0
  3
__ . __ . __ . __ . __ . __
 72
    65
 73
     4
 40
9.0
 49
6.0
 49
-0.75
 49
1.5
 49
-0.75
  0
LTYPE
  2
AM_ISO02W050X2
 70
     0
  3
 _ _ _ _ _ _ _ _ _ _ _ _
 72
    65
 73
     2
 40
3.75
 49
3.0
 49
-0.75
  0
LTYPE
  2
AMZIGZAG
 70
     0
  3
/\/-/\/-/\/-/\/-/\/-/\/
 72
    65
 73
     2
 40
11.000099999999991
 49
0.0001
 49
-11.0
  0
LTYPE
  2
ACISOWELD
 70
     0
  3
_ _ _ _ _
 72
    65
 73
     2
 40
2.0
 49
2.0
 49
-1.0
  0
LTYPE
  2
ACISOTGB
 70
     0
  3
__ . . __ . .
 72
    65
 73
     6
 40
9.0
 49
4.0
 49
-1.0
 49
1.0
 49
-1.0
 49
1.0
 49
-1.0
  0
LTYPE
  2
ACISOTGL
 70
     0
  3
_ _ _ _ _
 72
    65
 73
     2
 40
3.0
 49
2.0
 49
-1.0
  0
LTYPE
  2
CENTER
 70
     0
  3
__ . __
 72
    65
 73
     4
 40
7.0
 49
4.0
 49
-1.0
 49
1.0
 49
-1.0
  0
LTYPE
  2
PHANTOM2
 70
     0
  3
Phantom (.5x) ___ _ _ ___ _ _ ___ _ _ ___ _ _
 72
    65
 73
     6
 40
31.75
 49
15.875
 49
-3.174999999999998
 49
3.174999999999998
 49
-3.174999999999998
 49
3.174999999999998
 49
-3.174999999999998
  0
LTYPE
  2
ACANSTGBM
 70
     0
  3
__ . . __ . .
 72
    65
 73
     6
 40
9.0
 49
4.0
 49
-1.0
 49
1.0
 49
-1.0
 49
1.0
 49
-1.0
  0
LTYPE
  2
ACANSTGLM
 70
     0
  3
_ _ _ _ _
 72
    65
 73
     2
 40
3.0
 49
2.0
 49
-1.0
  0
LTYPE
  2
GEN7
 70
     0
  3
____ . ____ . ____ . ____ . ____ . ____ . ____
 72
    65
 73
     4
 40
14.25
 49
9.75
 49
-1.5
 49
1.5
 49
-1.5
  0
LTYPE
  2
GEN3B
 70
     0
  3
 - - - - -
 72
    65
 73
     2
 40
1.0
 49
0.5
 49
-0.5
  0
LTYPE
  2
GEN7A
 70
     0
  3
__ . __ . __
 72
    65
 73
     4
 40
7.375
 49
4.75
 49
-0.875
 49
0.875
 49
-0.875
  0
LTYPE
  2
ACJISTGB
 70
     0
  3
__ . . __ . .
 72
    65
 73
     6
 40
9.0
 49
4.0
 49
-1.0
 49
1.0
 49
-1.0
 49
1.0
 49
-1.0
  0
LTYPE
  2
ACJISTGL
 70
     0
  3
_ _ _ _ _
 72
    65
 73
     2
 40
3.0
 49
2.0
 49
-1.0
  0
LTYPE
  2
HIDDEN
 70
     0
  3
Hidden __ __ __ __ __ __ __ __ __ __ __ __ __ _
 72
    65
 73
     2
 40
0.375
 49
0.25
 49
-0.125
  0
LTYPE
  2
CENTER2
 70
     0
  3
Center (.5x) ___ _ ___ _ ___ _ ___ _ ___ _ ___
 72
    65
 73
     4
 40
1.125
 49
0.75
 49
-0.125
 49
0.125
 49
-0.125
  0
LTYPE
  2
HIDDEN2
 70
     0
  3
Hidden (.5x) _ _ _ _ _ _ _ _ _ _ _ _ _ _ _ _ _
 72
    65
 73
     2
 40
0.1875
 49
0.125
 49
-0.0625
  0
LTYPE
  2
AMZIGZAG2
 70
     0
  3
/\/-/\/-/\/-/\/-/\/-/\/
 72
    65
 73
     2
 40
0.4401
 49
0.0001
 49
-0.4400000000000003
  0
LTYPE
  2
ACANSTGB
 70
     0
  3
__ . . __ . .
 72
    65
 73
     6
 40
0.35433070866
 49
0.15748031496
 49
-0.03937007874
 49
0.03937007874
 49
-0.03937007874
 49
0.03937007874
 49
-0.03937007874
  0
LTYPE
  2
ACANSTGL
 70
     0
  3
_ _ _ _ _
 72
    65
 73
     2
 40
0.11811023622
 49
0.07874015748
 49
-0.03937007874
  0
ENDTAB
  0
TABLE
  2
LAYER
 70
     7
  0
LAYER
  2
0
 70
     0
 62
     7
  6
CONTINUOUS
  0
LAYER
  2
AM_0
 70
     0
 62
     7
  6
CONTINUOUS
  0
LAYER
  2
AM_5
 70
     0
 62
     2
  6
CONTINUOUS
  0
LAYER
  2
DEFPOINTS
 70
     0
 62
     7
  6
CONTINUOUS
  0
LAYER
  2
ｶｸﾚｾﾝ2
 70
     0
 62
     3
  6
GEN3B
  0
LAYER
  2
ﾁｭｳｼﾝｾﾝ
 70
     0
 62
     1
  6
GEN7
  0
LAYER
  2
ﾁｭｳｼﾝｾﾝ1
 70
     0
 62
     1
  6
GEN7A
  0
ENDTAB
  0
TABLE
  2
STYLE
 70
     9
  0
STYLE
  2
STANDARD
 70
     0
 40
20.0
 41
0.9074073699999999
 50
0.0
 71
     0
 42
0.2
  3
txt.shx
  4
bigfont.shx
  0
STYLE
  2
ANNOTATIVE
 70
     0
 40
0.0
 41
1.0
 50
0.0
 71
     0
 42
0.2
  3
txt
  4

  0
STYLE
  2

 70
     1
 40
0.0
 41
1.0
 50
0.0
 71
     0
 42
2.5
  3
ltypeshp.shx
  4

  0
STYLE
  2
ACISOTS
 70
     0
 40
1.0
 41
1.0
 50
0.0
 71
     0
 42
2.5
  3
isocp.shx
  4
extfont.shx
  0
STYLE
  2
ACISOGDT
 70
     0
 40
0.0
 41
1.0
 50
0.0
 71
     0
 42
2.5
  3
amgdt.shx
  4

  0
STYLE
  2
ACANSTS
 70
     0
 40
1.0
 41
1.0
 50
0.0
 71
     0
 42
2.5
  3
romans.shx
  4
bigfont.shx
  0
STYLE
  2
ACANSGDT
 70
     0
 40
0.0
 41
1.0
 50
0.0
 71
     0
 42
2.5
  3
amgdt.shx
  4

  0
STYLE
  2
ACJISTS
 70
     0
 40
1.0
 41
1.0
 50
0.0
 71
     0
 42
2.5
  3
isocp.shx
  4
bigfont.shx
  0
STYLE
  2
ACJISGDT
 70
     0
 40
0.0
 41
1.0
 50
0.0
 71
     0
 42
2.5
  3
amgdt.shx
  4

  0
ENDTAB
  0
TABLE
  2
VIEW
 70
     6
  0
VIEW
  2
AM_VIEW1
 70
     0
 40
555.00000000000011
 10
499.2955801104971
 20
832.50000000000011
 41
998.59116022099431
 11
0.0
 21
0.0
 31
1.0
 12
0.0
 22
0.0
 32
0.0
 42
50.0
 43
0.0
 44
0.0
 50
0.0
 71
     0
  0
VIEW
  2
AM_VIEW2
 70
     0
 40
555.00000000000011
 10
1207.704419889501
 20
832.50000000000011
 41
998.59116022099431
 11
0.0
 21
0.0
 31
1.0
 12
0.0
 22
0.0
 32
0.0
 42
50.0
 43
0.0
 44
0.0
 50
0.0
 71
     0
  0
VIEW
  2
AM_VIEW3
 70
     0
 40
555.00000000000011
 10
499.2955801104971
 20
277.49999999999989
 41
998.59116022099431
 11
0.0
 21
0.0
 31
1.0
 12
0.0
 22
0.0
 32
0.0
 42
50.0
 43
0.0
 44
0.0
 50
0.0
 71
     0
  0
VIEW
  2
AM_VIEW4
 70
     0
 40
555.00000000000011
 10
1207.704419889501
 20
277.49999999999989
 41
998.59116022099431
 11
0.0
 21
0.0
 31
1.0
 12
0.0
 22
0.0
 32
0.0
 42
50.0
 43
0.0
 44
0.0
 50
0.0
 71
     0
  0
VIEW
  2
AM_VIEW5
 70
     0
 40
555.00000000000011
 10
853.5
 20
555.00000000000011
 41
998.59116022099431
 11
0.0
 21
0.0
 31
1.0
 12
0.0
 22
0.0
 32
0.0
 42
50.0
 43
0.0
 44
0.0
 50
0.0
 71
     0
  0
VIEW
  2
AM_VIEW6
 70
     0
 40
1109.9889000000001
 10
853.5
 20
555.0
 41
1997.162348618785
 11
0.0
 21
0.0
 31
1.0
 12
0.0
 22
0.0
 32
0.0
 42
50.0
 43
0.0
 44
0.0
 50
0.0
 71
     0
  0
ENDTAB
  0
TABLE
  2
UCS
 70
     0
  0
ENDTAB
  0
TABLE
  2
APPID
 70
    97
  0
APPID
  2
ACAD
 70
     0
  0
APPID
  2
ACADANNOTATIVE
 70
     0
  0
APPID
  2
ACAD_MLEADERVER
 70
     0
  0
APPID
  2
MCAD_NO_VIS
 70
     0
  0
APPID
  2
ACAD_TEMP_GRAPHIC
 70
     0
  0
APPID
  2
ACATTRIBSERVICES
 70
     0
  0
APPID
  2
GENIUS_GENREC_14
 70
     0
  0
APPID
  2
GENIUS_GENOBJ-N-REC_13
 70
     0
  0
APPID
  2
GENIUS_GENODEF_13
 70
     0
  0
APPID
  2
GENIUS_GENOLIS_13
 70
     0
  0
APPID
  2
GENIUS_GENOBJ-N-TIT_13
 70
     0
  0
APPID
  2
GENIUS_GENOENT_13
 70
     0
  0
APPID
  2
GENIUS_GENTITLE_13
 70
     0
  0
APPID
  2
GENIUS_GENOREF_13
 70
     0
  0
APPID
  2
GENIUS_GENSCREG_15
 70
     0
  0
APPID
  2
GENIUS_GENOBJ-N-SDF_13
 70
     0
  0
APPID
  2
GENIUS_GENFIL_13
 70
     0
  0
APPID
  2
GENIUS_GENOBJ-N-CHA_13
 70
     0
  0
APPID
  2
GENIUS_GENDTOL_13
 70
     0
  0
APPID
  2
GENIUS_GENOBJ-N-FIL_13
 70
     0
  0
APPID
  2
AD_DRAW
 70
     0
  0
APPID
  2
DESIGNERASSEMBLIES
 70
     0
  0
APPID
  2
ASURF_PCURVE_APPNAME
 70
     0
  0
APPID
  2
GENIUS_GE3SECT_13
 70
     0
  0
APPID
  2
GENIUS_GENCFG_13
 70
     0
  0
APPID
  2
GENIUS_GE3CFG0_13
 70
     0
  0
APPID
  2
GENIUS_GENCFG0_13
 70
     0
  0
APPID
  2
GENIUS_GENCFG1_13
 70
     0
  0
APPID
  2
GENIUS_GENCFG2_13
 70
     0
  0
APPID
  2
GENIUS_GENCFG3_13
 70
     0
  0
APPID
  2
GENIUS_GENCFG4_13
 70
     0
  0
APPID
  2
GENIUS_GEVCFG0_13
 70
     0
  0
APPID
  2
GENIUS_GENHINW_13
 70
     0
  0
APPID
  2
GENIUS_FIRSTVISTXT_14
 70
     0
  0
APPID
  2
GENIUS_GENOBJ-N-LEADER_13
 70
     0
  0
APPID
  2
GEV_VCCNULL_SWITCH_OFF
 70
     0
  0
APPID
  2
GENIUS_GEFCFG0_13
 70
     0
  0
APPID
  2
GENIUS_GENZVEED_13
 70
     0
  0
APPID
  2
GENIUS_GENSCREG_13
 70
     0
  0
APPID
  2
GENIUS_DUMCFG0_13
 70
     0
  0
APPID
  2
GEVID936201362
 70
     0
  0
APPID
  2
GEVDC
 70
     0
  0
APPID
  2
GEVCON
 70
     0
  0
APPID
  2
VCC
 70
     0
  0
APPID
  2
GEVPT
 70
     0
  0
APPID
  2
GEVIT
 70
     0
  0
APPID
  2
GENBH
 70
     0
  0
APPID
  2
GEVMK
 70
     0
  0
APPID
  2
GENIUS_GENBH_13
 70
     0
  0
APPID
  2
GENIUS_GENOBJ-NBEHI-BHF_13
 70
     0
  0
APPID
  2
GENIUS_GENOBJ-NBEHI-BHB_13
 70
     0
  0
APPID
  2
GENIUS_GENOBJ-F-DESC_13
 70
     0
  0
APPID
  2
GENIUS_GEFDESC_14
 70
     0
  0
APPID
  2
GENIUS_GENOBJ-F-PART_13
 70
     0
  0
APPID
  2
GENIUS_GEFSTDP_13
 70
     0
  0
APPID
  2
GENIUS_GEFPARTINS_13
 70
     0
  0
APPID
  2
GENIUS_GENTRA_14
 70
     0
  0
APPID
  2
GENIUS_GENINF13_13
 70
     0
  0
APPID
  2
GENIUS_GENOBJ-N-INFOPT_13
 70
     0
  0
APPID
  2
GENIUS_GENOBJ-N-RSSYM_13
 70
     0
  0
APPID
  2
GENIUS_GENSYMENT_13
 70
     0
  0
APPID
  2
GENIUS_GENSCSYM_13
 70
     0
  0
APPID
  2
GENIUS_GEFINFNAM_13
 70
     0
  0
APPID
  2
GENIUS_GENOBJ-N-CEN_13
 70
     0
  0
APPID
  2
GENIUS_GENOBJ-N-CRS_13
 70
     0
  0
APPID
  2
GENIUS_GENOBJ-N-CRC_13
 70
     0
  0
APPID
  2
GENIUS_GENCRC_14
 70
     0
  0
APPID
  2
GEVID942827039
 70
     0
  0
APPID
  2
GEVID942827040
 70
     0
  0
APPID
  2
GEVID942827041
 70
     0
  0
APPID
  2
GENIUS_GENOBJ-F-SCPASSM_13
 70
     0
  0
APPID
  2
GENIUS_GENDIMSH_14
 70
     0
  0
APPID
  2
GEVID942827042
 70
     0
  0
APPID
  2
GEVID946020473
 70
     0
  0
APPID
  2
GEVID946020474
 70
     0
  0
APPID
  2
GEVID946020475
 70
     0
  0
APPID
  2
GENIUS_GENOBJ-N-HTC_13
 70
     0
  0
APPID
  2
GENIUS_GENHATCH_13
 70
     0
  0
APPID
  2
GEVID948854295
 70
     0
  0
APPID
  2
GEVID939402019
 70
     0
  0
APPID
  2
GEVID952919491
 70
     0
  0
APPID
  2
GEVID952919492
 70
     0
  0
APPID
  2
GENIUS_GEFWELD_13
 70
     0
  0
APPID
  2
GENIUS_GENOBJ-F-WELS_13
 70
     0
  0
APPID
  2
GEVID952919493
 70
     0
  0
APPID
  2
GENIUS_GENOBJ-N-RSBK_13
 70
     0
  0
APPID
  2
GENIUS_GENOBJ-N-LIB_13
 70
     0
  0
APPID
  2
GENIUS_GENSCALE_13
 70
     0
  0
APPID
  2
GEVID986376691
 70
     0
  0
APPID
  2
DCO15
 70
     0
  0
APPID
  2
ACADM_DIM_EDIT
 70
     0
  0
APPID
  2
AMDT_DM_ADJ
 70
     0
  0
APPID
  2
ACAD_DSTYLE_DIMBREAK
 70
     0
  0
APPID
  2
ACAD_DSTYLE_DIMJAG
 70
     0
  0
APPID
  2
ACAD_NAV_VCDISPLAY
 70
     0
  0
APPID
  2
ACADANNOPO
 70
     0
  0
APPID
  2
ACAD_EXEMPT_FROM_CAD_STANDARDS
 70
     0
  0
ENDTAB
  0
TABLE
  2
DIMSTYLE
 70
    22
  0
DIMSTYLE
  2
STANDARD
 70
     0
  3

  4

  5

  6

  7

 40
1.0
 41
0.18
 42
0.0625
 43
0.38
 44
0.18
 45
0.0
 46
0.0
 47
0.0
 48
0.0
140
0.18
141
0.09
142
0.0
143
25.399999999999999
144
1.0
145
0.0
146
1.0
147
0.09
 71
     0
 72
     0
 73
     1
 74
     1
 75
     0
 76
     0
 77
     0
 78
     0
170
     0
171
     2
172
     0
173
     0
174
     0
175
     0
176
     0
177
     0
178
     0
  0
DIMSTYLE
  2
ANNOTATIVE
 70
     0
  3

  4

  5

  6

  7

 40
1.0
 41
0.18
 42
0.0625
 43
0.38
 44
0.18
 45
0.0
 46
0.0
 47
0.0
 48
0.0
140
0.18
141
0.09
142
0.0
143
25.399999999999999
144
1.0
145
0.0
146
1.0
147
0.09
 71
     0
 72
     0
 73
     1
 74
     1
 75
     0
 76
     0
 77
     0
 78
     0
170
     0
171
     2
172
     0
173
     0
174
     0
175
     0
176
     0
177
     0
178
     0
  0
DIMSTYLE
  2
AM_ISO
 70
     0
  3

  4
"
  5

  6

  7

 40
1.0
 41
2.5
 42
1.0
 43
8.0
 44
0.6
 45
0.0
 46
0.0
 47
0.1
 48
0.1
140
2.5
141
0.0
142
0.0
143
0.0393701
144
1.0
145
0.0
146
0.71
147
0.8
 71
     0
 72
     0
 73
     0
 74
     0
 75
     0
 76
     0
 77
     1
 78
     8
170
     0
171
     2
172
     1
173
     0
174
     0
175
     0
176
   256
177
   256
178
     4
  0
DIMSTYLE
  2
AM_ISO$3
 70
     0
  3

  4
"
  5

  6

  7

 40
1.0
 41
2.5
 42
1.0
 43
8.0
 44
0.6
 45
0.0
 46
0.0
 47
0.1
 48
0.1
140
2.5
141
0.0
142
0.0
143
0.0393701
144
1.0
145
0.0
146
0.71
147
0.8
 71
     0
 72
     0
 73
     0
 74
     1
 75
     0
 76
     0
 77
     1
 78
     8
170
     0
171
     2
172
     0
173
     0
174
     0
175
     0
176
   256
177
   256
178
     4
  0
DIMSTYLE
  2
AM_ISO$4
 70
     0
  3

  4
"
  5

  6

  7

 40
1.0
 41
2.5
 42
1.0
 43
8.0
 44
0.6
 45
0.0
 46
0.0
 47
0.1
 48
0.1
140
2.5
141
0.0
142
0.0
143
0.0393701
144
1.0
145
0.0
146
0.71
147
0.8
 71
     0
 72
     0
 73
     0
 74
     1
 75
     0
 76
     0
 77
     1
 78
     8
170
     0
171
     2
172
     0
173
     0
174
     0
175
     0
176
   256
177
   256
178
     4
  0
DIMSTYLE
  2
AM_ISO$6
 70
     0
  3

  4
"
  5

  6

  7

 40
1.0
 41
2.5
 42
1.0
 43
8.0
 44
0.6
 45
0.0
 46
0.0
 47
0.1
 48
0.1
140
2.5
141
0.0
142
0.0
143
0.0393701
144
1.0
145
0.0
146
0.71
147
0.8
 71
     0
 72
     0
 73
     0
 74
     0
 75
     0
 76
     0
 77
     0
 78
     8
170
     0
171
     2
172
     1
173
     0
174
     0
175
     0
176
   256
177
   256
178
     4
  0
DIMSTYLE
  2
AM_ISO$7
 70
     0
  3

  4
"
  5

  6

  7

 40
1.0
 41
2.5
 42
1.0
 43
8.0
 44
0.6
 45
0.0
 46
0.0
 47
0.1
 48
0.1
140
2.5
141
0.0
142
0.0
143
0.0393701
144
1.0
145
0.0
146
0.71
147
0.8
 71
     0
 72
     0
 73
     0
 74
     0
 75
     0
 76
     0
 77
     1
 78
     8
170
     0
171
     2
172
     1
173
     0
174
     0
175
     0
176
   256
177
   256
178
     4
  0
DIMSTYLE
  2
AM_ISO$SF
 70
     0
  3

  4
"
  5

  6

  7

 40
1.0
 41
2.5
 42
1.0
 43
10.0
 44
1.0
 45
0.0
 46
0.0
 47
0.1
 48
0.1
140
3.5
141
0.0
142
0.0
143
0.0393701
144
1.0
145
0.0
146
0.71
147
1.5
 71
     0
 72
     0
 73
     0
 74
     0
 75
     1
 76
     1
 77
     1
 78
     8
170
     0
171
     2
172
     1
173
     0
174
     0
175
     0
176
   256
177
   256
178
     2
  0
DIMSTYLE
  2
AM_ISO$SH
 70
     0
  3

  4
"
  5

  6

  7

 40
1.0
 41
2.5
 42
1.0
 43
10.0
 44
1.0
 45
0.0
 46
0.0
 47
0.1
 48
0.1
140
3.5
141
0.0
142
0.0
143
0.0393701
144
2.0
145
0.0
146
0.71
147
1.5
 71
     0
 72
     0
 73
     0
 74
     0
 75
     1
 76
     1
 77
     1
 78
     8
170
     0
171
     2
172
     1
173
     1
174
     0
175
     0
176
   256
177
   256
178
     2
  0
DIMSTYLE
  2
AM_JIS
 70
     0
  3

  4
"
  5

  6

  7

 40
1.0
 41
2.5
 42
1.0
 43
7.0
 44
1.0
 45
0.0
 46
0.0
 47
0.1
 48
0.1000000001
140
2.5
141
0.0
142
0.0
143
0.0393701
144
1.0
145
0.0
146
0.71
147
1.0
 71
     0
 72
     0
 73
     0
 74
     0
 75
     0
 76
     0
 77
     3
 78
     8
170
     0
171
     2
172
     1
173
     0
174
     0
175
     0
176
   256
177
   256
178
     4
  0
DIMSTYLE
  2
AM_JIS$3
 70
     0
  3

  4
"
  5

  6

  7

 40
1.0
 41
2.5
 42
1.0
 43
7.0
 44
1.0
 45
0.0
 46
0.0
 47
0.1
 48
0.1000000001
140
2.5
141
0.0
142
0.0
143
0.0393701
144
1.0
145
0.0
146
0.71
147
1.0
 71
     0
 72
     0
 73
     0
 74
     1
 75
     0
 76
     0
 77
     3
 78
     8
170
     0
171
     2
172
     0
173
     0
174
     0
175
     0
176
   256
177
   256
178
     4
  0
DIMSTYLE
  2
AM_JIS$4
 70
     0
  3

  4
"
  5

  6

  7

 40
1.0
 41
2.5
 42
1.0
 43
7.0
 44
1.0
 45
0.0
 46
0.0
 47
0.1
 48
0.1000000001
140
2.5
141
0.0
142
0.0
143
0.0393701
144
1.0
145
0.0
146
0.71
147
1.0
 71
     0
 72
     0
 73
     0
 74
     0
 75
     0
 76
     0
 77
     3
 78
     8
170
     0
171
     2
172
     0
173
     0
174
     0
175
     0
176
   256
177
   256
178
     4
  0
DIMSTYLE
  2
AM_JIS$6
 70
     0
  3

  4
"
  5

  6

  7

 40
1.0
 41
2.5
 42
1.0
 43
7.0
 44
1.0
 45
0.0
 46
0.0
 47
0.1
 48
0.1000000001
140
2.5
141
0.0
142
0.0
143
0.0393701
144
1.0
145
0.0
146
0.71
147
1.0
 71
     0
 72
     0
 73
     0
 74
     0
 75
     0
 76
     0
 77
     0
 78
     8
170
     0
171
     2
172
     1
173
     0
174
     0
175
     0
176
   256
177
   256
178
     4
  0
DIMSTYLE
  2
AM_JIS$7
 70
     0
  3

  4
"
  5

  6

  7

 40
1.0
 41
2.5
 42
1.0
 43
7.0
 44
1.0
 45
0.0
 46
0.0
 47
0.1
 48
0.1000000001
140
2.5
141
0.0
142
0.0
143
0.0393701
144
1.0
145
0.0
146
0.71
147
1.0
 71
     0
 72
     0
 73
     0
 74
     0
 75
     0
 76
     0
 77
     3
 78
     8
170
     0
171
     2
172
     1
173
     0
174
     0
175
     0
176
   256
177
   256
178
     4
  0
DIMSTYLE
  2
AM_JIS$SF
 70
     0
  3

  4
"
  5

  6

  7

 40
1.0
 41
2.5
 42
1.0
 43
10.0
 44
1.0
 45
0.0
 46
0.0
 47
0.1
 48
0.1
140
3.5
141
0.0
142
0.0
143
0.0393701
144
1.0
145
0.0
146
0.71
147
1.5
 71
     0
 72
     0
 73
     0
 74
     0
 75
     1
 76
     1
 77
     3
 78
     8
170
     0
171
     2
172
     1
173
     0
174
     0
175
     0
176
   256
177
   256
178
     4
  0
DIMSTYLE
  2
AM_JIS$SH
 70
     0
  3

  4
"
  5

  6

  7

 40
1.0
 41
2.5
 42
1.0
 43
10.0
 44
1.0
 45
0.0
 46
0.0
 47
0.1
 48
0.1
140
3.5
141
0.0
142
0.0
143
0.0393701
144
1.0
145
0.0
146
0.71
147
1.5
 71
     0
 72
     0
 73
     0
 74
     0
 75
     1
 76
     0
 77
     3
 78
     8
170
     0
171
     2
172
     1
173
     1
174
     0
175
     0
176
   256
177
   256
178
     4
  0
DIMSTYLE
  2
AM_ANSI
 70
     0
  3

  4
mm
  5

  6

  7

 40
1.0
 41
0.1
 42
0.05
 43
0.5
 44
0.1
 45
0.0
 46
0.0
 47
0.1
 48
0.1
140
0.12
141
0.0
142
0.0
143
25.399999999999999
144
1.0
145
0.0
146
0.71
147
0.06
 71
     0
 72
     0
 73
     1
 74
     1
 75
     0
 76
     0
 77
     0
 78
     7
170
     0
171
     2
172
     0
173
     0
174
     0
175
     0
176
   256
177
   256
178
     2
  0
DIMSTYLE
  2
AM_ANSI$3
 70
     0
  3

  4
mm
  5

  6

  7

 40
1.0
 41
0.1
 42
0.05
 43
0.5
 44
0.1
 45
0.0
 46
0.0
 47
0.1
 48
0.1
140
0.12
141
0.0
142
0.0
143
25.399999999999999
144
1.0
145
0.0
146
0.71
147
0.06
 71
     0
 72
     0
 73
     1
 74
     1
 75
     0
 76
     0
 77
     0
 78
     7
170
     0
171
     2
172
     0
173
     0
174
     0
175
     0
176
   256
177
   256
178
     2
  0
DIMSTYLE
  2
AM_ANSI$4
 70
     0
  3

  4
mm
  5

  6

  7

 40
1.0
 41
0.1
 42
0.05
 43
0.5
 44
0.1
 45
0.0
 46
0.0
 47
0.1
 48
0.1
140
0.12
141
0.0
142
0.0
143
25.399999999999999
144
1.0
145
0.0
146
0.71
147
0.06
 71
     0
 72
     0
 73
     1
 74
     1
 75
     0
 76
     0
 77
     0
 78
     7
170
     0
171
     2
172
     0
173
     0
174
     0
175
     0
176
   256
177
   256
178
     2
  0
DIMSTYLE
  2
AM_ANSI$7
 70
     0
  3

  4
mm
  5

  6

  7

 40
1.0
 41
0.1
 42
0.05
 43
0.5
 44
0.1
 45
0.0
 46
0.0
 47
0.1
 48
0.1
140
0.24
141
0.0
142
0.0
143
25.399999999999999
144
1.0
145
0.0
146
0.71
147
0.06
 71
     0
 72
     0
 73
     1
 74
     1
 75
     0
 76
     0
 77
     0
 78
     7
170
     0
171
     2
172
     0
173
     0
174
     0
175
     0
176
   256
177
   256
178
     2
  0
DIMSTYLE
  2
AM_ANSI$SF
 70
     0
  3

  4
mm
  5

  6

  7

 40
1.0
 41
0.1
 42
0.05
 43
0.5
 44
0.1
 45
0.0
 46
0.0
 47
0.1
 48
0.1
140
0.12
141
0.0
142
0.0
143
25.399999999999999
144
1.0
145
0.0
146
0.71
147
0.06
 71
     0
 72
     0
 73
     1
 74
     1
 75
     1
 76
     1
 77
     0
 78
     7
170
     0
171
     2
172
     0
173
     0
174
     0
175
     0
176
   256
177
   256
178
     2
  0
DIMSTYLE
  2
AM_ANSI$SH
 70
     0
  3

  4
mm
  5

  6

  7

 40
1.0
 41
0.1
 42
0.05
 43
0.5
 44
0.1
 45
0.0
 46
0.0
 47
0.1
 48
0.1
140
0.12
141
0.0
142
0.0
143
25.399999999999999
144
1.0
145
0.0
146
0.71
147
0.06
 71
     0
 72
     0
 73
     1
 74
     1
 75
     1
 76
     1
 77
     0
 78
     7
170
     0
171
     2
172
     0
173
     1
174
     0
175
     0
176
   256
177
   256
178
     2
  0
ENDTAB
  0
ENDSEC
  0
SECTION
  2
BLOCKS
  0
BLOCK
  8
0
  2
$MODEL_SPACE
 70
     0
 10
0.0
 20
0.0
 30
0.0
  3
$MODEL_SPACE
  1

  0
ENDBLK
  5
3A73
  8
0
  0
BLOCK
 67
     1
  8
0
  2
$PAPER_SPACE
 70
     0
 10
0.0
 20
0.0
 30
0.0
  3
$PAPER_SPACE
  1

  0
ENDBLK
  5
3A6F
 67
     1
  8
0
  0
BLOCK
  8
0
  2
GENAXEH
 70
     0
 10
0.0
 20
0.0
 30
0.0
  3
GENAXEH
  1

  0
LINE
  5
373E
  8
0
 10
-1.0
 20
0.0
 30
0.0
 11
1.0
 21
0.0
 31
0.0
  0
ENDBLK
  5
373F
  8
0
  0
BLOCK
  8
0
  2
_OPEN30
 70
     0
 10
0.0
 20
0.0
 30
0.0
  3
_OPEN30
  1

  0
LINE
  5
3742
  8
0
 62
     0
 10
-1.0
 20
0.26794919
 30
0.0
 11
0.0
 21
0.0
 31
0.0
  0
LINE
  5
3743
  8
0
 62
     0
 10
0.0
 20
0.0
 30
0.0
 11
-1.0
 21
-0.26794919
 31
0.0
  0
LINE
  5
3744
  8
0
 62
     0
 10
0.0
 20
0.0
 30
0.0
 11
-1.0
 21
0.0
 31
0.0
  0
ENDBLK
  5
3745
  8
0
  0
BLOCK
  8
0
  2
_NONE
 70
     0
 10
0.0
 20
0.0
 30
0.0
  3
_NONE
  1

  0
ENDBLK
  5
3748
  8
0
  0
BLOCK
  8
0
  2
_ACMFILLEDHALF
 70
     0
 10
0.0
 20
0.0
 30
0.0
  3
_ACMFILLEDHALF
  1

  0
TRACE
  5
3C32
  8
AM_0
 62
     0
 10
-0.8
 20
0.0
 30
0.0
 11
-1.0
 21
0.166666666
 31
0.0
 12
0.0
 22
0.0
 32
0.0
 13
0.0
 23
0.0
 33
0.0
  0
LINE
  5
3C33
  8
AM_0
 62
     0
 10
-1.0
 20
0.0
 30
0.0
 11
-0.8
 21
0.0
 31
0.0
  0
ENDBLK
  5
3C31
  8
0
  0
ENDSEC
  0
SECTION
  2
ENTITIES
  0
LINE
  5
374A
  8
AM_0
 10
729.59401649148174
 20
1203.273860735716
 30
0.0
 11
839.59401649148174
 21
1203.273860735716
 31
0.0
  0
LINE
  5
374B
  8
AM_0
 10
839.59401649148174
 20
1133.2738607357171
 30
0.0
 11
729.59401649148174
 21
1133.2738607357171
 31
0.0
  0
LINE
  5
374C
  8
AM_0
 10
839.59401649148174
 20
1178.2738607357171
 30
0.0
 11
754.59401649148174
 21
1178.2738607357171
 31
0.0
  0
LINE
  5
374D
  8
AM_0
 10
754.59401649148174
 20
1158.2738607357171
 30
0.0
 11
839.59401649148174
 21
1158.2738607357171
 31
0.0
  0
LINE
  5
374E
  8
ﾁｭｳｼﾝｾﾝ
 10
844.30129649148171
 20
1168.2738607357171
 30
0.0
 11
324.15417363123811
 21
1168.273860735716
 31
0.0
  0
ARC
  5
374F
  8
AM_0
 10
520.59400649148165
 20
1168.2738607357171
 30
0.0
 40
20.0
 50
198.2099599999984
 51
341.79004000000128
  0
ARC
  5
3750
  8
AM_0
 10
572.59401649148174
 20
1168.2738607357171
 30
0.0
 40
20.0
 50
270.0
 51
90.00000299999769
  0
ARC
  5
3751
  8
AM_0
 10
520.59400649148165
 20
1168.2738607357171
 30
0.0
 40
15.0
 50
204.6243199999974
 51
335.37568000000249
  0
LINE
  5
3752
  8
AM_0
 10
476.09400649148182
 20
1285.027960735717
 30
0.0
 11
476.09400649148182
 21
1054.0884307357171
 31
0.0
  0
LINE
  5
3753
  8
AM_0
 10
418.09400649148182
 20
1051.2738607357171
 30
0.0
 11
418.09400649148182
 21
1168.2738607357171
 31
0.0
  0
LINE
  5
3754
  8
AM_0
 10
431.09400649148171
 20
1051.2738607357171
 30
0.0
 11
431.09400649148171
 21
1168.2738607357171
 31
0.0
  0
LINE
  5
3755
  8
AM_0
 10
722.59401649148174
 20
1168.2738607357171
 30
0.0
 11
722.59401649148174
 21
1108.2738607357151
 31
0.0
  0
LINE
  5
3756
  8
AM_0
 10
697.59401649148197
 20
1168.2738607357171
 30
0.0
 11
697.59401649148197
 21
1052.5798907357159
 31
0.0
  0
LINE
  5
3757
  8
AM_0
 10
718.59401649148197
 20
1168.2738607357171
 30
0.0
 11
718.59401649148197
 21
1028.427730735717
 31
0.0
  0
LINE
  5
3758
  8
AM_0
 10
672.59401649148174
 20
1032.2075107357159
 30
0.0
 11
672.59401649148174
 21
1168.2738607357171
 31
0.0
  0
LINE
  5
3759
  8
AM_0
 10
542.59401649148174
 20
1001.273860735717
 30
0.0
 11
542.59401649148174
 21
1162.023860735716
 31
0.0
  0
LINE
  5
375A
  8
AM_0
 10
729.59401649148174
 20
1205.7738607357171
 30
0.0
 11
729.59401649148174
 21
1130.773860735716
 31
0.0
  0
LINE
  5
375B
  8
AM_0
 10
476.09400649148182
 20
1293.2738607357171
 30
0.0
 11
476.09400649148182
 21
1043.2738607357171
 31
0.0
  0
LINE
  5
375C
  8
AM_0
 10
529.59400649148165
 20
1001.273860735717
 30
0.0
 11
597.59401649148174
 21
1001.273860735717
 31
0.0
  0
LINE
  5
375D
  8
AM_0
 10
569.31441649148178
 20
1021.691100735717
 30
0.0
 11
612.73720649148174
 21
1023.8018707357151
 31
0.0
  0
LINE
  5
375E
  8
AM_0
 10
526.59400649148176
 20
1083.2738607357171
 30
0.0
 11
596.60237649148155
 21
1083.2738607357171
 31
0.0
  0
LINE
  5
375F
  8
AM_0
 10
596.56954649148167
 20
1117.982860735716
 30
0.0
 11
567.59401649148174
 21
1117.982860735716
 31
0.0
  0
LINE
  5
3760
  8
AM_0
 10
426.59400649148182
 20
943.27386073571643
 30
0.0
 11
718.59401649148197
 21
943.27386073571643
 31
0.0
  0
ARC
  5
3761
  8
AM_0
 10
542.59407649148181
 20
964.8893407357167
 30
0.0
 40
10.0
 50
279.99999999999739
 51
0.0
  0
LINE
  5
3762
  8
AM_0
 10
478.45570649148169
 20
943.42578073571656
 30
0.0
 11
544.33052649148181
 21
955.04125073571674
 31
0.0
  0
LINE
  5
3763
  8
AM_0
 10
422.59400649148171
 20
1024.4141807357159
 30
0.0
 11
422.59400649148171
 21
947.27386073571654
 31
0.0
  0
ARC
  5
3764
  8
AM_0
 10
476.7193064914818
 20
953.27386073571631
 30
0.0
 40
10.0
 50
270.0
 51
279.99999999999739
  0
ARC
  5
3765
  8
AM_0
 10
426.59400649148182
 20
947.27386073571654
 30
0.0
 40
4.0
 50
179.9999899999988
 51
270.0
  0
ARC
  5
3766
  8
AM_0
 10
487.5941064914818
 20
970.4227907357166
 30
0.0
 40
10.0
 50
179.9999899999988
 51
279.99999999999739
  0
ARC
  5
3767
  8
AM_0
 10
486.09400649148159
 20
1043.2738607357171
 30
0.0
 40
10.0
 50
179.9999899999988
 51
270.0
  0
LINE
  5
3768
  8
AM_0
 10
525.56560649148173
 20
1031.9514107357149
 30
0.0
 11
426.4512064914818
 21
1028.411620735717
 31
0.0
  0
LINE
  5
3769
  8
AM_0
 10
419.09400649148159
 20
1050.273860735716
 30
0.0
 11
430.09400649148182
 21
1050.273860735716
 31
0.0
  0
LINE
  5
376A
  8
AM_0
 10
418.09400649148182
 20
1051.273920735716
 30
0.0
 11
419.09400649148159
 21
1050.273920735716
 31
0.0
  0
CIRCLE
  5
376B
  8
AM_0
 10
457.59400649148159
 20
988.27386073571654
 30
0.0
 40
12.0
  0
LINE
  5
376C
  8
AM_0
 10
431.60280649148149
 20
1052.265010735716
 30
0.0
 11
472.16380649148169
 21
1051.557000735716
 31
0.0
  0
ARC
  5
376D
  8
AM_0
 10
426.59400649148182
 20
1024.4141807357159
 30
0.0
 40
4.0
 50
92.045405000001679
 51
180.00001000000091
  0
ARC
  5
376E
  8
AM_0
 10
431.59400649148159
 20
1051.765070735717
 30
0.0
 40
0.5
 50
89.000001000002214
 51
180.00001000000091
  0
ARC
  5
376F
  8
AM_0
 10
430.09400649148182
 20
1051.2738607357171
 30
0.0
 40
1.0
 50
270.0
 51
0.0
  0
ARC
  5
3770
  8
AM_0
 10
472.09400649148182
 20
1047.557610735716
 30
0.0
 40
4.0
 50
0.0
 51
89.000001000002214
  0
LINE
  5
3771
  8
AM_0
 10
419.07290649148172
 20
1093.836910735715
 30
0.0
 11
430.10180649148163
 21
1093.836910735715
 31
0.0
  0
LINE
  5
3772
  8
AM_0
 10
418.09400649148182
 20
1084.103020735716
 30
0.0
 11
429.09400649148171
 21
1084.103020735716
 31
0.0
  0
LINE
  5
3773
  8
AM_0
 10
418.09400649148182
 20
1068.5466907357149
 30
0.0
 11
429.09400649148171
 21
1068.5466907357149
 31
0.0
  0
LINE
  5
3774
  8
AM_0
 10
431.09400649148171
 20
1096.441460735716
 30
0.0
 11
476.09400649148182
 21
1096.441460735716
 31
0.0
  0
LINE
  5
3775
  8
AM_0
 10
431.09400649148171
 20
1077.190910735716
 30
0.0
 11
476.09400649148182
 21
1077.190910735716
 31
0.0
  0
ARC
  5
3776
  8
AM_0
 10
429.09400649148171
 20
1070.5466907357149
 30
0.0
 40
2.0
 50
270.0
 51
0.0
  0
ARC
  5
3777
  8
AM_0
 10
429.09400649148171
 20
1086.103020735716
 30
0.0
 40
2.0
 50
270.0
 51
0.0
  0
LINE
  5
3778
  8
AM_0
 10
567.59401649148174
 20
1021.607480735716
 30
0.0
 11
567.59401649148174
 21
1083.2738607357171
 31
0.0
  0
LINE
  5
3779
  8
AM_0
 10
526.59400649148176
 20
1140.345360735716
 30
0.0
 11
526.59400649148176
 21
1004.273860735716
 31
0.0
  0
LINE
  5
377A
  8
AM_0
 10
489.33060649148172
 20
960.57470073571676
 30
0.0
 11
544.33052649148181
 21
970.27264073571655
 31
0.0
  0
LINE
  5
377B
  8
AM_0
 10
529.59400649148165
 20
1015.843130735716
 30
0.0
 11
562.77340649148175
 21
1015.843130735716
 31
0.0
  0
ARC
  5
377C
  8
AM_0
 10
529.59400649148165
 20
1004.273860735716
 30
0.0
 40
3.0
 50
179.9999899999988
 51
270.0
  0
LINE
  5
377D
  8
AM_0
 10
486.09400649148159
 20
1033.2738607357171
 30
0.0
 11
522.59400649148165
 21
1033.2738607357171
 31
0.0
  0
ARC
  5
377E
  8
AM_0
 10
522.59400649148165
 20
1029.2738607357171
 30
0.0
 40
4.0
 50
0.0
 51
90.00000299999769
  0
ARC
  5
377F
  8
AM_0
 10
529.59400649148165
 20
1018.843130735715
 30
0.0
 40
3.0
 50
179.9999899999988
 51
270.0
  0
ARC
  5
3780
  8
AM_0
 10
542.59407649148181
 20
980.12078073571672
 30
0.0
 40
10.0
 50
279.99999999999739
 51
0.0
  0
LINE
  5
3781
  8
AM_0
 10
552.59407649148181
 20
964.8893407357167
 30
0.0
 11
552.59407649148181
 21
1001.273860735717
 31
0.0
  0
ARC
  5
3782
  8
AM_0
 10
562.77340649148175
 20
1018.843130735715
 30
0.0
 40
3.0
 50
270.0
 51
332.50571000000349
  0
ARC
  5
3783
  8
AM_0
 10
569.46004649148176
 20
1018.694640735715
 30
0.0
 40
3.0
 50
92.782929000000266
 51
152.5057100000034
  0
LINE
  5
3784
  8
AM_0
 10
565.43453649148182
 20
1017.458190735716
 30
0.0
 11
566.79885649148162
 21
1020.0796507357149
 31
0.0
  0
LINE
  5
3785
  8
AM_0
 10
564.59401649148174
 20
1111.585990735716
 30
0.0
 11
526.59400649148176
 21
1111.585990735716
 31
0.0
  0
ARC
  5
3786
  8
AM_0
 10
518.59400649148165
 20
1140.345360735716
 30
0.0
 40
8.0
 50
0.0
 51
85.903958999999659
  0
LINE
  5
3787
  8
AM_0
 10
542.59401649148174
 20
1148.2738607357151
 30
0.0
 11
572.59401649148174
 21
1148.2738607357151
 31
0.0
  0
LINE
  5
3788
  8
AM_0
 10
567.59401649148174
 20
1117.982860735716
 30
0.0
 11
567.59401649148174
 21
1148.2738607357151
 31
0.0
  0
LINE
  5
3789
  8
AM_0
 10
567.59401649148174
 20
1117.982860735716
 30
0.0
 11
564.59401649148174
 21
1111.585990735716
 31
0.0
  0
LINE
  5
378A
  8
AM_0
 10
643.42525649148183
 20
1014.443960735715
 30
0.0
 11
652.93850649148158
 21
951.7730707357166
 31
0.0
  0
LINE
  5
378B
  8
AM_0
 10
722.59401649148174
 20
947.27386073571654
 30
0.0
 11
722.59401649148174
 21
1024.4248007357171
 31
0.0
  0
ARC
  5
378C
  8
AM_0
 10
662.8252164914818
 20
953.27386073571631
 30
0.0
 40
10.0
 50
188.63138999999711
 51
270.0
  0
ARC
  5
378D
  8
AM_0
 10
718.59401649148197
 20
947.27386073571654
 30
0.0
 40
4.0
 50
270.0
 51
0.0
  0
LINE
  5
378E
  8
AM_0
 10
704.11092649148156
 20
1052.273860735716
 30
0.0
 11
710.59401649148185
 21
1052.273860735716
 31
0.0
  0
LINE
  5
378F
  8
AM_0
 10
710.59401649148185
 20
1090.785090735716
 30
0.0
 11
699.54915649148165
 21
1090.785090735716
 31
0.0
  0
LINE
  5
3790
  8
AM_0
 10
679.79512649148182
 20
1028.427730735717
 30
0.0
 11
715.37807649148158
 21
1028.4223007357159
 31
0.0
  0
LINE
  5
3791
  8
AM_0
 10
616.43557649148181
 20
1018.648000735715
 30
0.0
 11
666.52193649148182
 21
1021.082700735715
 31
0.0
  0
LINE
  5
3792
  8
AM_0
 10
597.59401649148174
 20
1001.273920735715
 30
0.0
 11
613.80135649148167
 21
1017.481200735715
 31
0.0
  0
ARC
  5
3793
  8
AM_0
 10
616.62978649148181
 20
1014.652770735716
 30
0.0
 40
4.0
 50
92.782929000000266
 51
135.0000000000046
  0
ARC
  5
3794
  8
AM_0
 10
648.36861649148182
 20
1015.194330735716
 30
0.0
 40
5.0
 50
92.782929000000266
 51
188.63138000000109
  0
LINE
  5
3795
  8
ﾁｭｳｼﾝｾﾝ1
 10
687.59401649148185
 20
962.27386073571631
 30
0.0
 11
687.59401649148185
 21
1014.273860735716
 31
0.0
  0
CIRCLE
  5
3796
  8
AM_0
 10
687.59401649148185
 20
988.27386073571654
 30
0.0
 40
12.0
  0
LINE
  5
3797
  8
ﾁｭｳｼﾝｾﾝ1
 10
661.59401649148174
 20
988.27386073571654
 30
0.0
 11
713.59401649148197
 21
988.27386073571654
 31
0.0
  0
LINE
  5
3798
  8
AM_0
 10
676.93813649148183
 20
1025.6306707357171
 30
0.0
 11
692.7870764914818
 21
1041.146720735715
 31
0.0
  0
ARC
  5
3799
  8
AM_0
 10
665.74507649148165
 20
1037.063840735716
 30
0.0
 40
16.0
 50
272.78293000000212
 51
314.39193000000108
  0
ARC
  5
379A
  8
AM_0
 10
681.59401649148185
 20
1052.5798907357159
 30
0.0
 40
16.0
 50
314.39193000000108
 51
0.0
  0
ARC
  5
379B
  8
AM_0
 10
704.11092649148156
 20
1044.273860735716
 30
0.0
 40
8.0
 50
90.00000299999769
 51
159.75202000000809
  0
LINE
  5
379C
  8
AM_0
 10
617.36635649148161
 20
1102.696160735715
 30
0.0
 11
598.40450649148181
 21
1117.356360735715
 31
0.0
  0
LINE
  5
379D
  8
AM_0
 10
598.39034649148175
 20
1083.864860735715
 30
0.0
 11
617.31935649148181
 21
1097.913690735716
 31
0.0
  0
ARC
  5
379E
  8
AM_0
 10
596.60237649148155
 20
1086.273860735716
 30
0.0
 40
3.0
 50
270.0
 51
306.58231000000382
  0
ARC
  5
379F
  8
AM_0
 10
615.5313964914817
 20
1100.322750735716
 30
0.0
 40
3.0
 50
306.58231000000382
 51
52.290951999999571
  0
ARC
  5
37A0
  8
AM_0
 10
596.56954649148167
 20
1114.982860735716
 30
0.0
 40
3.0
 50
52.290951999999571
 51
90.00000299999769
  0
ARC
  5
37A1
  8
AM_0
 10
710.59401649148185
 20
1060.273860735716
 30
0.0
 40
8.0
 50
270.0
 51
0.0
  0
ARC
  5
37A2
  8
AM_0
 10
718.59401649148197
 20
1024.4248007357171
 30
0.0
 40
4.0
 50
0.0
 51
87.797402999997558
  0
LINE
  5
37A3
  8
AM_0
 10
718.74776649148157
 20
1028.421810735716
 30
0.0
 11
718.59407649148181
 21
1028.427730735717
 31
0.0
  0
LINE
  5
37A4
  8
AM_0
 10
722.59401649148174
 20
1108.273920735716
 30
0.0
 11
718.59401649148197
 21
1104.2739207357149
 31
0.0
  0
ARC
  5
37A5
  8
AM_0
 10
710.59401649148185
 20
1098.7850907357149
 30
0.0
 40
8.0
 50
270.0
 51
313.981210000001
  0
LINE
  5
37A6
  8
AM_0
 10
722.59401649148174
 20
1130.773860735716
 30
0.0
 11
729.59401649148174
 21
1130.773860735716
 31
0.0
  0
LINE
  5
37A7
  8
AM_0
 10
426.59400649148182
 20
1393.2738607357171
 30
0.0
 11
718.59401649148197
 21
1393.2738607357171
 31
0.0
  0
LINE
  5
37A8
  8
AM_0
 10
569.31441649148178
 20
1314.856660735717
 30
0.0
 11
612.73720649148174
 21
1312.745860735716
 31
0.0
  0
LINE
  5
37A9
  8
AM_0
 10
529.59400649148165
 20
1335.2738607357171
 30
0.0
 11
597.59401649148174
 21
1335.2738607357171
 31
0.0
  0
LINE
  5
37AA
  8
AM_0
 10
596.56954649148167
 20
1218.564860735717
 30
0.0
 11
567.59401649148174
 21
1218.564860735717
 31
0.0
  0
LINE
  5
37AB
  8
AM_0
 10
526.59400649148176
 20
1253.2738607357171
 30
0.0
 11
596.60237649148155
 21
1253.2738607357171
 31
0.0
  0
CIRCLE
  5
37AC
  8
AM_0
 10
457.59400649148159
 20
1348.273860735716
 30
0.0
 40
12.0
  0
LINE
  5
37AD
  8
AM_0
 10
552.59407649148181
 20
1371.658360735717
 30
0.0
 11
552.59407649148181
 21
1335.2738607357171
 31
0.0
  0
LINE
  5
37AE
  8
AM_0
 10
422.59400649148171
 20
1312.1335607357159
 30
0.0
 11
422.59400649148171
 21
1389.273860735716
 31
0.0
  0
ARC
  5
37AF
  8
AM_0
 10
486.09400649148159
 20
1293.2738607357171
 30
0.0
 40
10.0
 50
90.00000299999769
 51
180.00001000000091
  0
LINE
  5
37B0
  8
AM_0
 10
525.56560649148173
 20
1304.5962607357151
 30
0.0
 11
426.4512064914818
 21
1308.136060735716
 31
0.0
  0
LINE
  5
37B1
  8
AM_0
 10
418.09400649148182
 20
1285.2738607357171
 30
0.0
 11
418.09400649148182
 21
1168.2738607357171
 31
0.0
  0
LINE
  5
37B2
  8
AM_0
 10
431.09400649148171
 20
1285.2738607357171
 30
0.0
 11
431.09400649148171
 21
1168.2738607357171
 31
0.0
  0
LINE
  5
37B3
  8
AM_0
 10
418.09400649148182
 20
1252.444760735716
 30
0.0
 11
429.09400649148171
 21
1252.444760735716
 31
0.0
  0
LINE
  5
37B4
  8
AM_0
 10
419.07290649148172
 20
1242.7108607357161
 30
0.0
 11
430.10180649148163
 21
1242.7108607357161
 31
0.0
  0
LINE
  5
37B5
  8
AM_0
 10
431.09400649148171
 20
1240.106260735716
 30
0.0
 11
476.09400649148182
 21
1240.106260735716
 31
0.0
  0
ARC
  5
37B6
  8
AM_0
 10
429.09400649148171
 20
1250.444760735716
 30
0.0
 40
2.0
 50
0.0
 51
90.00000299999769
  0
LINE
  5
37B7
  8
AM_0
 10
419.09400649148159
 20
1286.273860735716
 30
0.0
 11
430.09400649148182
 21
1286.273860735716
 31
0.0
  0
LINE
  5
37B8
  8
AM_0
 10
418.09400649148182
 20
1268.001160735716
 30
0.0
 11
429.09400649148171
 21
1268.001160735716
 31
0.0
  0
LINE
  5
37B9
  8
AM_0
 10
418.09400649148182
 20
1285.2738607357171
 30
0.0
 11
419.09400649148159
 21
1286.273860735716
 31
0.0
  0
LINE
  5
37BA
  8
AM_0
 10
431.60280649148149
 20
1284.282760735716
 30
0.0
 11
471.18130649148139
 21
1284.973560735717
 31
0.0
  0
LINE
  5
37BB
  8
AM_0
 10
431.09400649148171
 20
1259.356860735717
 30
0.0
 11
476.09400649148182
 21
1259.356860735717
 31
0.0
  0
ARC
  5
37BC
  8
AM_0
 10
429.09400649148171
 20
1266.001160735716
 30
0.0
 40
2.0
 50
0.0
 51
90.00000299999769
  0
ARC
  5
37BD
  8
AM_0
 10
430.09400649148182
 20
1285.2738607357171
 30
0.0
 40
1.0
 50
0.0
 51
90.00000299999769
  0
ARC
  5
37BE
  8
AM_0
 10
431.59400649148159
 20
1284.782660735716
 30
0.0
 40
0.5
 50
179.9999899999988
 51
271.00000000000171
  0
ARC
  5
37BF
  8
AM_0
 10
471.09400649148171
 20
1289.972860735716
 30
0.0
 40
5.0
 50
271.00000000000171
 51
0.0
  0
ARC
  5
37C0
  8
AM_0
 10
426.59400649148182
 20
1312.1335607357159
 30
0.0
 40
4.0
 50
179.9999899999988
 51
267.95459999999889
  0
LINE
  5
37C1
  8
AM_0
 10
526.59400649148176
 20
1332.273860735716
 30
0.0
 11
526.59400649148176
 21
1196.2023607357171
 31
0.0
  0
LINE
  5
37C2
  8
AM_0
 10
542.59401649148174
 20
1335.2738607357171
 30
0.0
 11
542.59401649148174
 21
1174.523860735716
 31
0.0
  0
LINE
  5
37C3
  8
AM_0
 10
567.59401649148174
 20
1314.940260735716
 30
0.0
 11
567.59401649148174
 21
1253.2738607357171
 31
0.0
  0
ARC
  5
37C4
  8
AM_0
 10
520.59400649148165
 20
1168.2738607357171
 30
0.0
 40
20.0
 50
18.209957000000301
 51
161.7900400000014
  0
LINE
  5
37C5
  8
AM_0
 10
564.59401649148174
 20
1224.961860735717
 30
0.0
 11
526.59400649148176
 21
1224.961860735717
 31
0.0
  0
LINE
  5
37C6
  8
AM_0
 10
496.84400649148159
 20
1174.523860735716
 30
0.0
 11
544.34401649148174
 21
1174.523860735716
 31
0.0
  0
LINE
  5
37C7
  8
AM_0
 10
496.84400649148159
 20
1162.023860735716
 30
0.0
 11
544.34401649148174
 21
1162.023860735716
 31
0.0
  0
ARC
  5
37C8
  8
AM_0
 10
496.84400649148159
 20
1168.2738607357171
 30
0.0
 40
6.25
 50
90.00000299999769
 51
270.0
  0
ARC
  5
37C9
  8
AM_0
 10
520.59400649148165
 20
1168.2738607357171
 30
0.0
 40
15.0
 50
24.624318000003381
 51
155.3756800000024
  0
ARC
  5
37CA
  8
AM_0
 10
518.59400649148165
 20
1196.2023607357171
 30
0.0
 40
8.0
 50
274.09603999999791
 51
0.0
  0
LINE
  5
37CB
  8
AM_0
 10
567.59401649148174
 20
1218.564860735717
 30
0.0
 11
567.59401649148174
 21
1188.2738607357151
 31
0.0
  0
CIRCLE
  5
37CC
  8
AM_0
 10
572.59401649148174
 20
1168.2738607357171
 30
0.0
 40
10.0
  0
LINE
  5
37CD
  8
AM_0
 10
542.59401649148174
 20
1188.2738607357151
 30
0.0
 11
572.59401649148174
 21
1188.2738607357151
 31
0.0
  0
ARC
  5
37CE
  8
AM_0
 10
544.34401649148174
 20
1168.2738607357171
 30
0.0
 40
6.25
 50
270.0
 51
90.00000299999769
  0
LINE
  5
37CF
  8
AM_0
 10
575.48073649148159
 20
1163.273860735716
 30
0.0
 11
578.36751649148175
 21
1168.2738607357171
 31
0.0
  0
LINE
  5
37D0
  8
AM_0
 10
578.36751649148175
 20
1168.273960735715
 30
0.0
 11
575.48079649148156
 21
1173.273860735716
 31
0.0
  0
LINE
  5
37D1
  8
AM_0
 10
569.70729649148166
 20
1173.273860735716
 30
0.0
 11
566.82051649148161
 21
1168.2738607357171
 31
0.0
  0
LINE
  5
37D2
  8
AM_0
 10
566.82058649148155
 20
1168.2738607357171
 30
0.0
 11
569.70729649148166
 21
1163.273960735715
 31
0.0
  0
LINE
  5
37D3
  8
AM_0
 10
569.70729649148166
 20
1163.273860735716
 30
0.0
 11
575.48079649148156
 21
1163.273860735716
 31
0.0
  0
LINE
  5
37D4
  8
AM_0
 10
575.48079649148156
 20
1173.273860735716
 30
0.0
 11
569.70729649148166
 21
1173.273860735716
 31
0.0
  0
LINE
  5
37D5
  8
AM_0
 10
567.59407649148181
 20
1218.564860735717
 30
0.0
 11
564.59407649148181
 21
1224.961760735715
 31
0.0
  0
LINE
  5
37D6
  8
AM_0
 10
529.59400649148165
 20
1320.704660735717
 30
0.0
 11
562.77340649148175
 21
1320.704660735717
 31
0.0
  0
ARC
  5
37D7
  8
AM_0
 10
522.59400649148165
 20
1307.2738607357151
 30
0.0
 40
4.0
 50
270.0
 51
0.0
  0
LINE
  5
37D8
  8
AM_0
 10
522.59400649148165
 20
1303.2738607357171
 30
0.0
 11
486.09400649148159
 21
1303.2738607357171
 31
0.0
  0
ARC
  5
37D9
  8
AM_0
 10
529.59400649148165
 20
1317.704660735717
 30
0.0
 40
3.0
 50
90.00000299999769
 51
180.00001000000091
  0
ARC
  5
37DA
  8
AM_0
 10
529.59400649148165
 20
1332.273860735716
 30
0.0
 40
3.0
 50
90.00000299999769
 51
180.00001000000091
  0
ARC
  5
37DB
  8
AM_0
 10
562.77340649148175
 20
1317.704660735717
 30
0.0
 40
3.0
 50
27.494289999996429
 51
90.00000299999769
  0
ARC
  5
37DC
  8
AM_0
 10
569.46004649148176
 20
1317.853060735717
 30
0.0
 40
3.0
 50
207.4942899999964
 51
267.21706999999782
  0
LINE
  5
37DD
  8
AM_0
 10
565.43453649148182
 20
1319.089560735717
 30
0.0
 11
566.79885649148162
 21
1316.468160735717
 31
0.0
  0
ARC
  5
37DE
  8
AM_0
 10
476.7193064914818
 20
1383.2738607357171
 30
0.0
 40
10.0
 50
79.999998000001099
 51
90.00000299999769
  0
ARC
  5
37DF
  8
AM_0
 10
487.5941064914818
 20
1366.1249607357149
 30
0.0
 40
10.0
 50
79.999998000001099
 51
180.00001000000091
  0
ARC
  5
37E0
  8
AM_0
 10
426.59400649148182
 20
1389.273860735716
 30
0.0
 40
4.0
 50
90.00000299999769
 51
180.00001000000091
  0
LINE
  5
37E1
  8
AM_0
 10
489.33060649148172
 20
1375.9730607357169
 30
0.0
 11
544.33052649148181
 21
1366.275060735717
 31
0.0
  0
LINE
  5
37E2
  8
AM_0
 10
478.45580649148178
 20
1393.1219607357159
 30
0.0
 11
544.33052649148181
 21
1381.5065607357169
 31
0.0
  0
ARC
  5
37E3
  8
AM_0
 10
542.59407649148181
 20
1371.658360735717
 30
0.0
 40
10.0
 50
0.0
 51
79.999998000001099
  0
ARC
  5
37E4
  8
AM_0
 10
542.59407649148181
 20
1356.426960735716
 30
0.0
 40
10.0
 50
0.0
 51
79.999998000001099
  0
CIRCLE
  5
37E5
  8
AM_0
 10
687.59401649148185
 20
1348.273860735716
 30
0.0
 40
12.0
  0
LINE
  5
37E6
  8
AM_0
 10
643.42525649148183
 20
1322.1036607357171
 30
0.0
 11
652.93843649148175
 21
1384.774560735716
 31
0.0
  0
LINE
  5
37E7
  8
AM_0
 10
722.59401649148174
 20
1389.273860735716
 30
0.0
 11
722.59401649148174
 21
1312.1229607357161
 31
0.0
  0
LINE
  5
37E8
  8
AM_0
 10
704.11092649148156
 20
1284.2738607357171
 30
0.0
 11
710.59401649148185
 21
1284.2738607357171
 31
0.0
  0
LINE
  5
37E9
  8
AM_0
 10
710.59401649148185
 20
1245.762760735716
 30
0.0
 11
699.54915649148165
 21
1245.762760735716
 31
0.0
  0
LINE
  5
37EA
  8
AM_0
 10
679.79512649148182
 20
1308.120060735715
 30
0.0
 11
715.37801649148162
 21
1308.125560735717
 31
0.0
  0
LINE
  5
37EB
  8
AM_0
 10
672.59401649148174
 20
1304.340260735717
 30
0.0
 11
672.59401649148174
 21
1168.2738607357171
 31
0.0
  0
LINE
  5
37EC
  8
AM_0
 10
697.59401649148197
 20
1168.2738607357171
 30
0.0
 11
697.59401649148197
 21
1283.9678607357171
 31
0.0
  0
LINE
  5
37ED
  8
AM_0
 10
617.36635649148161
 20
1233.851660735716
 30
0.0
 11
598.40450649148181
 21
1219.191460735716
 31
0.0
  0
ARC
  5
37EE
  8
AM_0
 10
596.56954649148167
 20
1221.564860735717
 30
0.0
 40
3.0
 50
270.0
 51
307.70904999999362
  0
LINE
  5
37EF
  8
AM_0
 10
598.39034649148175
 20
1252.6829607357161
 30
0.0
 11
617.31929649148174
 21
1238.634060735717
 31
0.0
  0
ARC
  5
37F0
  8
AM_0
 10
596.60237649148155
 20
1250.2738607357171
 30
0.0
 40
3.0
 50
53.417689999996149
 51
90.00000299999769
  0
ARC
  5
37F1
  8
AM_0
 10
615.5313964914817
 20
1236.2250607357171
 30
0.0
 40
3.0
 50
307.70904999999362
 51
53.417689999996149
  0
LINE
  5
37F2
  8
AM_0
 10
616.43557649148181
 20
1317.8997607357171
 30
0.0
 11
666.52193649148182
 21
1315.465060735716
 31
0.0
  0
LINE
  5
37F3
  8
AM_0
 10
597.59401649148174
 20
1335.2738607357171
 30
0.0
 11
613.80135649148167
 21
1319.066560735715
 31
0.0
  0
ARC
  5
37F4
  8
AM_0
 10
616.62978649148181
 20
1321.894960735716
 30
0.0
 40
4.0
 50
224.9999999999952
 51
267.21706999999782
  0
ARC
  5
37F5
  8
AM_0
 10
648.36861649148182
 20
1321.353360735716
 30
0.0
 40
5.0
 50
171.3686100000028
 51
267.2170800000024
  0
LINE
  5
37F6
  8
AM_0
 10
676.93807649148175
 20
1310.9170607357171
 30
0.0
 11
692.78701649148184
 21
1295.400960735717
 31
0.0
  0
ARC
  5
37F7
  8
AM_0
 10
704.11092649148156
 20
1292.2738607357171
 30
0.0
 40
8.0
 50
200.24797999999171
 51
270.0
  0
ARC
  5
37F8
  8
AM_0
 10
681.59401649148185
 20
1283.9678607357171
 30
0.0
 40
16.0
 50
0.0
 51
45.608072999994867
  0
ARC
  5
37F9
  8
AM_0
 10
665.74507649148165
 20
1299.483960735716
 30
0.0
 40
16.0
 50
45.608072999994867
 51
87.217069000002539
  0
LINE
  5
37FA
  8
AM_0
 10
718.59401649148197
 20
1168.2738607357171
 30
0.0
 11
718.59401649148197
 21
1308.120060735715
 31
0.0
  0
LINE
  5
37FB
  8
AM_0
 10
722.59401649148174
 20
1168.2738607357171
 30
0.0
 11
722.59401649148174
 21
1228.2738607357171
 31
0.0
  0
ARC
  5
37FC
  8
AM_0
 10
754.59401649148174
 20
1168.2738607357171
 30
0.0
 40
10.0
 50
90.00000299999769
 51
270.0
  0
LINE
  5
37FD
  8
AM_0
 10
754.59401649148174
 20
1178.2738607357171
 30
0.0
 11
754.59401649148174
 21
1158.2738607357171
 31
0.0
  0
LINE
  5
37FE
  8
AM_0
 10
722.59401649148174
 20
1228.2738607357171
 30
0.0
 11
718.59401649148197
 21
1232.2738607357151
 31
0.0
  0
LINE
  5
37FF
  8
AM_0
 10
722.59401649148174
 20
1205.7738607357171
 30
0.0
 11
729.59401649148174
 21
1205.7738607357171
 31
0.0
  0
ARC
  5
3800
  8
AM_0
 10
710.59401649148185
 20
1237.762760735716
 30
0.0
 40
8.0
 50
46.018789000002847
 51
90.00000299999769
  0
ARC
  5
3801
  8
AM_0
 10
710.59401649148185
 20
1276.2738607357171
 30
0.0
 40
8.0
 50
0.0
 51
90.00000299999769
  0
ARC
  5
3802
  8
AM_0
 10
718.59401649148197
 20
1312.1229607357161
 30
0.0
 40
4.0
 50
272.20260000000161
 51
0.0
  0
LINE
  5
3803
  8
AM_0
 10
718.74776649148157
 20
1308.126060735716
 30
0.0
 11
718.59401649148197
 21
1308.120060735715
 31
0.0
  0
ARC
  5
3804
  8
AM_0
 10
662.8252164914818
 20
1383.2738607357171
 30
0.0
 40
10.0
 50
90.00000299999769
 51
171.3686100000028
  0
ARC
  5
3805
  8
AM_0
 10
718.59401649148197
 20
1389.273860735716
 30
0.0
 40
4.0
 50
0.0
 51
90.00000299999769
  0
LINE
  5
3806
  8
AM_0
 10
839.59401649148174
 20
1203.273860735716
 30
0.0
 11
839.59401649148174
 21
1133.2738607357171
 31
0.0
  0
LINE
  5
3807
  8
ﾁｭｳｼﾝｾﾝ1
 10
457.59400649148159
 20
962.27386073571631
 30
0.0
 11
457.59400649148159
 21
1014.273860735716
 31
0.0
  0
LINE
  5
3808
  8
ﾁｭｳｼﾝｾﾝ1
 10
431.59400649148159
 20
988.27386073571654
 30
0.0
 11
483.59400649148171
 21
988.27386073571654
 31
0.0
  0
LINE
  5
3809
  8
ﾁｭｳｼﾝｾﾝ1
 10
457.59400649148159
 20
1322.273860735716
 30
0.0
 11
457.59400649148159
 21
1374.2738607357171
 31
0.0
  0
LINE
  5
380A
  8
ﾁｭｳｼﾝｾﾝ1
 10
431.59400649148159
 20
1348.273860735716
 30
0.0
 11
483.59400649148171
 21
1348.273860735716
 31
0.0
  0
LINE
  5
380B
  8
ﾁｭｳｼﾝｾﾝ1
 10
687.59401649148185
 20
1322.273860735716
 30
0.0
 11
687.59401649148185
 21
1374.2738607357171
 31
0.0
  0
LINE
  5
380C
  8
ﾁｭｳｼﾝｾﾝ1
 10
661.59401649148174
 20
1348.273860735716
 30
0.0
 11
713.59401649148197
 21
1348.273860735716
 31
0.0
  0
LINE
  5
380D
  8
AM_0
 10
754.59411649148194
 20
645.96549115167272
 30
0.0
 11
839.59401649148174
 21
645.96549115167272
 31
0.0
  0
LINE
  5
380E
  8
ﾁｭｳｼﾝｾﾝ
 10
504.69071649148162
 20
606.46549115167261
 30
0.0
 11
844.59401649148185
 21
606.46549115167261
 31
0.0
  0
LINE
  5
380F
  8
AM_0
 10
839.59401649148174
 20
571.46548115167275
 30
0.0
 11
729.59411649148194
 21
571.46548115167275
 31
0.0
  0
LINE
  5
3810
  8
AM_0
 10
729.59411649148194
 20
641.46549115167272
 30
0.0
 11
839.59401649148174
 21
641.46549115167272
 31
0.0
  0
LINE
  5
3811
  8
AM_0
 10
337.09411649148132
 20
693.86547115167275
 30
0.0
 11
337.09411649148132
 21
393.86547115167269
 31
0.0
  0
LINE
  5
3812
  8
AM_0
 10
357.09411649148149
 20
690.86547115167275
 30
0.0
 11
357.09411649148149
 21
543.86547115167275
 31
0.0
  0
LINE
  5
3813
  8
AM_0
 10
564.59411649148183
 20
615.55974115167271
 30
0.0
 11
564.59411649148183
 21
546.59252615167247
 31
0.0
  0
LINE
  5
3814
  8
AM_0
 10
567.59401649148174
 20
612.55974115167271
 30
0.0
 11
567.59401649148174
 21
550.46548115167275
 31
0.0
  0
LINE
  5
3815
  8
AM_0
 10
642.69011649148149
 20
584.63183115167271
 30
0.0
 11
653.23526649148153
 21
383.41875615167282
 31
0.0
  0
LINE
  5
3816
  8
AM_0
 10
722.59401649148174
 20
665.63704115167275
 30
0.0
 11
722.59401649148174
 21
547.29394115167236
 31
0.0
  0
LINE
  5
3817
  8
AM_0
 10
718.59401649148174
 20
678.46549115167272
 30
0.0
 11
718.59401649148174
 21
403.08547115167272
 31
0.0
  0
LINE
  5
3818
  8
AM_0
 10
697.59401649148174
 20
713.17139115167265
 30
0.0
 11
697.59401649148174
 21
429.90416615167283
 31
0.0
  0
LINE
  5
3819
  8
AM_0
 10
476.09401649148163
 20
660.61964115167268
 30
0.0
 11
476.09401649148163
 21
429.68001615167282
 31
0.0
  0
LINE
  5
381A
  8
AM_0
 10
526.59401649148174
 20
753.46544115167262
 30
0.0
 11
526.59401649148174
 21
413.4655061516728
 31
0.0
  0
LINE
  5
381B
  8
AM_0
 10
418.09411649148137
 20
661.8654911516727
 30
0.0
 11
418.09411649148137
 21
425.86547115167269
 31
0.0
  0
LINE
  5
381C
  8
AM_0
 10
431.09396649148158
 20
660.8654911516727
 30
0.0
 11
431.09396649148158
 21
543.86547115167275
 31
0.0
  0
LINE
  5
381D
  8
AM_0
 10
542.59401649148174
 20
757.46544115167262
 30
0.0
 11
542.59401649148174
 21
429.46547615167248
 31
0.0
  0
ARC
  5
381E
  8
AM_0
 10
2928.8387664914821
 20
628.53194115167275
 30
0.0
 40
2256.3525499999992
 50
180.5603400000013
 51
186.00565999999941
  0
LINE
  5
381F
  8
AM_0
 10
546.73616649148175
 20
433.60759615167262
 30
0.0
 11
484.91641649148158
 21
371.78780115167268
 31
0.0
  0
LINE
  5
3820
  8
AM_0
 10
422.59411649148171
 20
326.46549115167272
 30
0.0
 11
722.59401649148174
 21
326.46549115167272
 31
0.0
  0
LINE
  5
3821
  8
ﾁｭｳｼﾝｾﾝ
 10
324.15417363123811
 20
543.86547115167275
 30
0.0
 11
535.56165697744905
 21
543.86547115167275
 31
0.0
  0
LINE
  5
3822
  8
AM_0
 10
426.59411649148171
 20
364.46547615167259
 30
0.0
 11
467.23876649148173
 21
364.46547615167259
 31
0.0
  0
LINE
  5
3823
  8
AM_0
 10
422.59411649148171
 20
360.46547615167259
 30
0.0
 11
422.59411649148171
 21
326.46549115167272
 31
0.0
  0
ARC
  5
3824
  8
AM_0
 10
426.59411649148171
 20
360.46547615167259
 30
0.0
 40
4.000000049999997
 50
90.00000299999769
 51
180.00001000000091
  0
LINE
  5
3825
  8
ﾁｭｳｼﾝｾﾝ1
 10
457.59401649148168
 20
374.46547615167259
 30
0.0
 11
457.59401649148168
 21
316.46549115167272
 31
0.0
  0
LINE
  5
3826
  8
ｶｸﾚｾﾝ2
 10
469.59401649148168
 20
364.46547615167259
 30
0.0
 11
469.59401649148168
 21
326.46549115167272
 31
0.0
  0
LINE
  5
3827
  8
ｶｸﾚｾﾝ2
 10
445.5940314914813
 20
364.46547615167259
 30
0.0
 11
445.5940314914813
 21
326.46549115167272
 31
0.0
  0
ARC
  5
3828
  8
AM_0
 10
467.23876649148173
 20
389.46547615167259
 30
0.0
 40
25.000000499999999
 50
270.0
 51
315.0
  0
LINE
  5
3829
  8
AM_0
 10
414.39712449148112
 20
469.33171115167278
 30
0.0
 11
361.96323249148168
 21
467.95868115167281
 31
0.0
  0
LINE
  5
382A
  8
AM_0
 10
360.05683149148149
 20
447.18510015167283
 30
0.0
 11
384.82711849148131
 21
458.23696115167257
 31
0.0
  0
LINE
  5
382B
  8
AM_0
 10
360.05683149148149
 20
431.62875015167282
 30
0.0
 11
384.82711849148131
 21
442.68061215167279
 31
0.0
  0
LINE
  5
382C
  8
AM_0
 10
418.09411649148137
 20
425.86547109172051
 30
0.0
 11
361.96323249148168
 21
424.39563215167283
 31
0.0
  0
LINE
  5
382D
  8
AM_0
 10
357.09411649148149
 20
396.86547115167281
 30
0.0
 11
357.09411649148149
 21
543.86547115167275
 31
0.0
  0
ARC
  5
382E
  8
AM_0
 10
362.09411649148132
 20
419.39734615167259
 30
0.0
 40
5.0
 50
91.500000000002629
 51
180.0
  0
LINE
  5
382F
  8
AM_0
 10
337.09411649148132
 20
393.86547115167269
 30
0.0
 11
354.09411649148132
 21
393.86547115167269
 31
0.0
  0
ARC
  5
3830
  8
AM_0
 10
354.09411649148132
 20
396.86547115167281
 30
0.0
 40
3.0
 50
270.0
 51
0.0
  0
ARC
  5
3831
  8
AM_0
 10
362.09411649148132
 20
442.61897815167282
 30
0.0
 40
5.0
 50
114.0451930000003
 51
180.0
  0
ARC
  5
3832
  8
AM_0
 10
362.09411649148132
 20
427.06262915167281
 30
0.0
 40
5.0
 50
114.0451930000003
 51
180.0
  0
ARC
  5
3833
  8
AM_0
 10
362.09411649148132
 20
462.9603941516728
 30
0.0
 40
5.0
 50
91.500000000002629
 51
150.7208910000015
  0
LINE
  5
3834
  8
AM_0
 10
431.09396649148158
 20
426.86550115167262
 30
0.0
 11
431.09396649148158
 21
543.86547115167275
 31
0.0
  0
LINE
  5
3835
  8
AM_0
 10
416.09411649148149
 20
467.84196415167281
 30
0.0
 11
416.09411649148149
 21
460.6946111516728
 31
0.0
  0
LINE
  5
3836
  8
AM_0
 10
431.09396649148158
 20
452.78252615167253
 30
0.0
 11
476.09401649148163
 21
452.78252615167253
 31
0.0
  0
LINE
  5
3837
  8
AM_0
 10
431.6027664914817
 20
427.85662115167253
 30
0.0
 11
472.1639164914817
 21
427.14861115167281
 31
0.0
  0
LINE
  5
3838
  8
AM_0
 10
386.68990649148122
 20
443.1114441516728
 30
0.0
 11
415.09472649148142
 21
444.10336215167263
 31
0.0
  0
LINE
  5
3839
  8
AM_0
 10
415.09472649148142
 20
459.65971215167292
 30
0.0
 11
386.68990649148122
 21
458.66779315167281
 31
0.0
  0
ARC
  5
383A
  8
AM_0
 10
386.86440449148159
 20
438.11449015167278
 30
0.0
 40
5.0
 50
92.000000000003666
 51
114.0451930000003
  0
ARC
  5
383B
  8
AM_0
 10
386.86440449148159
 20
453.67083915167279
 30
0.0
 40
5.0
 50
92.000000000003666
 51
114.0451930000003
  0
LINE
  5
383C
  8
AM_0
 10
388.09411649148149
 20
445.14451315167258
 30
0.0
 11
388.09411649148149
 21
456.62471515167277
 31
0.0
  0
LINE
  5
383D
  8
AM_0
 10
418.09411649148137
 20
425.86547115167269
 30
0.0
 11
430.0941164914816
 21
425.86547115167269
 31
0.0
  0
ARC
  5
383E
  8
AM_0
 10
431.59411649148171
 20
427.35668115167277
 30
0.0
 40
0.5
 50
89.000001000002115
 51
180.00001000000091
  0
ARC
  5
383F
  8
AM_0
 10
430.0941164914816
 20
426.86550115167262
 30
0.0
 40
1.0
 50
270.0
 51
0.0
  0
LINE
  5
3840
  8
AM_0
 10
416.09411649148149
 20
460.6946111516728
 30
0.0
 11
416.09411649148149
 21
445.13826215167279
 31
0.0
  0
LINE
  5
3841
  8
AM_0
 10
415.09472649148142
 20
459.65971215167292
 30
0.0
 11
416.09411649148149
 21
460.6946111516728
 31
0.0
  0
LINE
  5
3842
  8
AM_0
 10
415.09472649148142
 20
459.65971215167292
 30
0.0
 11
415.09472649148142
 21
444.10336215167263
 31
0.0
  0
LINE
  5
3843
  8
AM_0
 10
415.09472649148142
 20
444.10336215167263
 30
0.0
 11
416.09411649148149
 21
445.13826215167279
 31
0.0
  0
ARC
  5
3844
  8
AM_0
 10
429.09411649148171
 20
461.69463615167268
 30
0.0
 40
2.0000000500000001
 50
270.0
 51
0.0
  0
ARC
  5
3845
  8
AM_0
 10
429.09411649148171
 20
446.13826615167278
 30
0.0
 40
2.0000000500000001
 50
270.0
 51
0.0
  0
LINE
  5
3846
  8
AM_0
 10
418.09411649148137
 20
459.69463615167263
 30
0.0
 11
429.09411649148171
 21
459.69463615167263
 31
0.0
  0
LINE
  5
3847
  8
AM_0
 10
418.09411649148137
 20
444.13826615167261
 30
0.0
 11
429.09411649148171
 21
444.13826615167261
 31
0.0
  0
LINE
  5
3848
  8
AM_0
 10
476.09401649148163
 20
423.14922115167269
 30
0.0
 11
476.09401649148163
 21
407.11971115167267
 31
0.0
  0
ARC
  5
3849
  8
AM_0
 10
486.09401649148168
 20
407.11971115167267
 30
0.0
 40
10.0
 50
179.9999899999988
 51
238.96954999999591
  0
LINE
  5
384A
  8
AM_0
 10
500.1327164914818
 20
387.00417115167278
 30
0.0
 11
480.93911649148163
 21
398.55074115167281
 31
0.0
  0
ARC
  5
384B
  8
AM_0
 10
472.09411649148171
 20
423.14922115167269
 30
0.0
 40
4.000000049999997
 50
0.0
 51
89.000001000002115
  0
LINE
  5
384C
  8
AM_0
 10
431.09396649148158
 20
472.03307615167262
 30
0.0
 11
476.09401649148163
 21
472.03307615167262
 31
0.0
  0
LINE
  5
384D
  8
AM_0
 10
419.0729664914814
 20
469.42852115167261
 30
0.0
 11
430.1017664914815
 21
469.42852115167261
 31
0.0
  0
LINE
  5
384E
  8
AM_0
 10
718.59401649148174
 20
364.46547615167259
 30
0.0
 11
716.0098664914816
 21
438.46724615167278
 31
0.0
  0
ARC
  5
384F
  8
AM_0
 10
673.20786649148147
 20
384.46547615167259
 30
0.0
 40
20.000000499999999
 50
183.00000999999961
 51
270.0
  0
LINE
  5
3850
  8
AM_0
 10
673.20786649148147
 20
364.46547615167259
 30
0.0
 11
718.59401649148174
 21
364.46547615167259
 31
0.0
  0
LINE
  5
3851
  8
ﾁｭｳｼﾝｾﾝ1
 10
687.59401649148174
 20
374.46547615167259
 30
0.0
 11
687.59401649148174
 21
316.46549115167272
 31
0.0
  0
LINE
  5
3852
  8
ｶｸﾚｾﾝ2
 10
675.59403149148136
 20
364.46547615167259
 30
0.0
 11
675.59403149148136
 21
326.46549115167272
 31
0.0
  0
LINE
  5
3853
  8
ｶｸﾚｾﾝ2
 10
699.59401649148174
 20
364.46547615167259
 30
0.0
 11
699.59401649148174
 21
326.46549115167272
 31
0.0
  0
LINE
  5
3854
  8
AM_0
 10
722.59401649148174
 20
326.46549115167272
 30
0.0
 11
722.59401649148174
 21
360.46547615167259
 31
0.0
  0
ARC
  5
3855
  8
AM_0
 10
718.59401649148174
 20
360.46547615167259
 30
0.0
 40
4.000000049999997
 50
0.0
 51
90.00000299999769
  0
LINE
  5
3856
  8
AM_0
 10
552.59401649148174
 20
542.46548115167275
 30
0.0
 11
552.59401649148174
 21
447.74975115167268
 31
0.0
  0
LINE
  5
3857
  8
AM_0
 10
526.59401649148174
 20
456.46547615167259
 30
0.0
 11
542.59401649148174
 21
456.46547615167259
 31
0.0
  0
ARC
  5
3858
  8
AM_0
 10
532.59401649148174
 20
447.74975115167268
 30
0.0
 40
20.000000499999999
 50
315.0
 51
0.0
  0
LINE
  5
3859
  8
AM_0
 10
542.59401649148174
 20
456.46547615167259
 30
0.0
 11
552.59401649148174
 21
456.46547615167259
 31
0.0
  0
ARC
  5
385A
  8
AM_0
 10
563.59401649148174
 20
550.46548115167275
 30
0.0
 40
4.000000049999997
 50
270.0
 51
0.0
  0
LINE
  5
385B
  8
AM_0
 10
526.59401649148174
 20
490.46547615167248
 30
0.0
 11
542.59401649148174
 21
490.46547615167248
 31
0.0
  0
LINE
  5
385C
  8
AM_0
 10
542.59401649148174
 20
490.46547615167248
 30
0.0
 11
552.59401649148174
 21
490.46547615167248
 31
0.0
  0
ARC
  5
385D
  8
AM_0
 10
556.59401649148174
 20
542.46548115167275
 30
0.0
 40
4.000000049999997
 50
90.00000299999769
 51
180.00001000000091
  0
LINE
  5
385E
  8
AM_0
 10
556.59401649148174
 20
546.46548115167275
 30
0.0
 11
563.59401649148174
 21
546.46548115167275
 31
0.0
  0
LINE
  5
385F
  8
AM_0
 10
700.41626649148191
 20
428.14791115167282
 30
0.0
 11
714.14156649148185
 21
436.71801115167261
 31
0.0
  0
LINE
  5
3860
  8
AM_0
 10
697.59401649148174
 20
423.0585861516725
 30
0.0
 11
697.59401649148174
 21
399.31475115167251
 31
0.0
  0
LINE
  5
3861
  8
AM_0
 10
653.00736649148155
 20
387.76723615167282
 30
0.0
 11
683.80916649148162
 21
389.99077615167272
 31
0.0
  0
ARC
  5
3862
  8
AM_0
 10
683.2331164914815
 20
397.97005615167268
 30
0.0
 40
8.0
 50
274.12897999999672
 51
292.79777999999789
  0
ARC
  5
3863
  8
AM_0
 10
691.59401649148174
 20
399.31475115167251
 30
0.0
 40
6.0
 50
292.79777999999789
 51
0.0
  0
LINE
  5
3864
  8
AM_0
 10
686.33296649148156
 20
390.59502615167258
 30
0.0
 11
693.91891649148135
 21
393.78350115167251
 31
0.0
  0
ARC
  5
3865
  8
AM_0
 10
703.59401649148174
 20
423.0585861516725
 30
0.0
 40
6.0
 50
121.98072999999739
 51
180.00001000000091
  0
LINE
  5
3866
  8
AM_0
 10
718.59401649148174
 20
403.08547115167272
 30
0.0
 11
717.24536649148183
 21
403.08547115167272
 31
0.0
  0
LINE
  5
3867
  8
AM_0
 10
716.00981649148116
 20
438.4672161516728
 30
0.0
 11
717.05736649148162
 21
440.64571615167262
 31
0.0
  0
ARC
  5
3868
  8
AM_0
 10
720.59401649148174
 20
547.29394115167236
 30
0.0
 40
2.0000000500000001
 50
315.0
 51
0.0
  0
LINE
  5
3869
  8
AM_0
 10
722.00826649148132
 20
545.87966615167272
 30
0.0
 11
718.59401649148174
 21
542.46544615167272
 31
0.0
  0
LINE
  5
386A
  8
AM_0
 10
542.59401649148174
 20
757.46544115167262
 30
0.0
 11
500.59401649148163
 21
757.46544115167262
 31
0.0
  0
ARC
  5
386B
  8
AM_0
 10
520.59401649148174
 20
787.46544115167262
 30
0.0
 40
30.000000499999999
 50
304.59870999999782
 51
235.40129000000209
  0
ARC
  5
386C
  8
AM_0
 10
496.59401649148163
 20
712.80584115167267
 30
0.0
 40
4.000000049999997
 50
308.3820099999968
 51
0.0
  0
LINE
  5
386D
  8
AM_0
 10
525.07766649148175
 20
730.26434115167262
 30
0.0
 11
479.8850664914815
 21
694.46819115167284
 31
0.0
  0
LINE
  5
386E
  8
AM_0
 10
500.59401649148163
 20
757.46544115167262
 30
0.0
 11
500.59401649148163
 21
712.80584115167267
 31
0.0
  0
LINE
  5
386F
  8
AM_0
 10
418.09411649148137
 20
661.86547121162494
 30
0.0
 11
361.96323249148168
 21
663.33531015167273
 31
0.0
  0
LINE
  5
3870
  8
AM_0
 10
414.39712449148112
 20
618.39923215167266
 30
0.0
 11
361.96323249148168
 21
619.77226215167275
 31
0.0
  0
LINE
  5
3871
  8
AM_0
 10
360.05683149148149
 20
640.54584315167267
 30
0.0
 11
384.82711849148131
 21
629.49398215167264
 31
0.0
  0
LINE
  5
3872
  8
AM_0
 10
360.05683149148149
 20
656.10219215167274
 30
0.0
 11
384.82711849148131
 21
645.05033115167271
 31
0.0
  0
ARC
  5
3873
  8
AM_0
 10
362.09411649148132
 20
624.77054815167276
 30
0.0
 40
5.0
 50
209.2791089999983
 51
268.49999999999733
  0
ARC
  5
3874
  8
AM_0
 10
362.09411649148132
 20
660.66831415167223
 30
0.0
 40
5.0
 50
180.0
 51
245.95480699999951
  0
ARC
  5
3875
  8
AM_0
 10
362.09411649148132
 20
645.11196515167273
 30
0.0
 40
5.0
 50
180.0
 51
245.95480699999951
  0
ARC
  5
3876
  8
AM_0
 10
362.09411649148132
 20
668.33359715167273
 30
0.0
 40
5.0
 50
180.0
 51
268.49999999999733
  0
LINE
  5
3877
  8
AM_0
 10
337.09411649148132
 20
693.86547115167275
 30
0.0
 11
354.09411649148132
 21
693.86547115167275
 31
0.0
  0
ARC
  5
3878
  8
AM_0
 10
354.09411649148132
 20
690.86547115167275
 30
0.0
 40
3.0
 50
0.0
 51
90.0
  0
LINE
  5
3879
  8
AM_0
 10
388.09411649148149
 20
642.58642915167263
 30
0.0
 11
388.09411649148149
 21
631.10622815167267
 31
0.0
  0
LINE
  5
387A
  8
AM_0
 10
415.09472649148142
 20
628.07123115167269
 30
0.0
 11
415.09472649148142
 21
643.62758015167265
 31
0.0
  0
LINE
  5
387B
  8
AM_0
 10
416.09411649148149
 20
627.03633215167235
 30
0.0
 11
416.09411649148149
 21
642.59268115167276
 31
0.0
  0
LINE
  5
387C
  8
AM_0
 10
431.09396649148158
 20
634.94849115167278
 30
0.0
 11
476.09401649148163
 21
634.94849115167278
 31
0.0
  0
LINE
  5
387D
  8
AM_0
 10
431.09396649148158
 20
615.69789115167271
 30
0.0
 11
476.09401649148163
 21
615.69789115167271
 31
0.0
  0
LINE
  5
387E
  8
AM_0
 10
415.09472649148142
 20
628.07123115167269
 30
0.0
 11
386.68990649148122
 21
629.06314915167275
 31
0.0
  0
ARC
  5
387F
  8
AM_0
 10
386.86440449148159
 20
634.06010315167271
 30
0.0
 40
5.0
 50
245.95480699999951
 51
267.99999999999631
  0
LINE
  5
3880
  8
AM_0
 10
416.09411649148149
 20
619.88897815167275
 30
0.0
 11
416.09411649148149
 21
627.03633215167235
 31
0.0
  0
LINE
  5
3881
  8
AM_0
 10
415.09472649148142
 20
628.07123115167269
 30
0.0
 11
416.09411649148149
 21
627.03633215167235
 31
0.0
  0
ARC
  5
3882
  8
AM_0
 10
429.09411649148171
 20
626.03629115167246
 30
0.0
 40
2.0000000500000001
 50
0.0
 51
90.00000299999769
  0
LINE
  5
3883
  8
AM_0
 10
419.0729664914814
 20
618.30244115167261
 30
0.0
 11
430.1017664914815
 21
618.30244115167261
 31
0.0
  0
LINE
  5
3884
  8
AM_0
 10
418.09411649148137
 20
628.0362911516728
 30
0.0
 11
429.09411649148171
 21
628.0362911516728
 31
0.0
  0
LINE
  5
3885
  8
AM_0
 10
431.6027664914817
 20
659.87439115167274
 30
0.0
 11
471.18126649148172
 21
660.56524115167269
 31
0.0
  0
LINE
  5
3886
  8
AM_0
 10
386.68990649148122
 20
644.61949815167236
 30
0.0
 11
415.09472649148142
 21
643.62758015167265
 31
0.0
  0
ARC
  5
3887
  8
AM_0
 10
386.86440449148159
 20
649.61645215167255
 30
0.0
 40
5.0
 50
245.95480699999951
 51
267.99999999999631
  0
LINE
  5
3888
  8
AM_0
 10
415.09472649148142
 20
643.62758015167265
 30
0.0
 11
416.09411649148149
 21
642.59268115167276
 31
0.0
  0
ARC
  5
3889
  8
AM_0
 10
429.09411649148171
 20
641.59269115167274
 30
0.0
 40
2.0000000500000001
 50
0.0
 51
90.00000299999769
  0
LINE
  5
388A
  8
AM_0
 10
418.09411649148137
 20
643.59264115167275
 30
0.0
 11
429.09411649148171
 21
643.59264115167275
 31
0.0
  0
ARC
  5
388B
  8
AM_0
 10
431.59411649148171
 20
660.37424115167266
 30
0.0
 40
0.5
 50
179.9999899999988
 51
271.00000000000171
  0
LINE
  5
388C
  8
AM_0
 10
418.09411649148137
 20
661.8654911516727
 30
0.0
 11
430.0941164914816
 21
661.8654911516727
 31
0.0
  0
ARC
  5
388D
  8
AM_0
 10
430.0941164914816
 20
660.8654911516727
 30
0.0
 40
1.0
 50
0.0
 51
90.00000299999769
  0
LINE
  5
388E
  8
AM_0
 10
476.09401649148163
 20
686.62939115167273
 30
0.0
 11
476.09401649148163
 21
665.56444115167267
 31
0.0
  0
ARC
  5
388F
  8
AM_0
 10
471.09401649148151
 20
665.56444115167267
 30
0.0
 40
5.0
 50
271.00000000000171
 51
0.0
  0
ARC
  5
3890
  8
AM_0
 10
486.09401649148168
 20
686.62939115167273
 30
0.0
 40
10.0
 50
128.38200999999691
 51
180.00001000000091
  0
LINE
  5
3891
  8
AM_0
 10
564.59411649148183
 20
727.75134115167282
 30
0.0
 11
564.59411649148183
 21
648.1522411516728
 31
0.0
  0
LINE
  5
3892
  8
AM_0
 10
567.59401649148174
 20
724.7513411516727
 30
0.0
 11
564.59411649148183
 21
727.75134115167282
 31
0.0
  0
ARC
  5
3893
  8
AM_0
 10
595.93716649148143
 20
728.75139115167281
 30
0.0
 40
4.000000049999997
 50
270.0
 51
315.0
  0
LINE
  5
3894
  8
AM_0
 10
672.59401649148174
 20
737.30059115167262
 30
0.0
 11
672.59401649148174
 21
606.46549115167261
 31
0.0
  0
LINE
  5
3895
  8
AM_0
 10
677.05066649148182
 20
740.34224115167262
 30
0.0
 11
692.90776649148165
 21
724.48504115167259
 31
0.0
  0
LINE
  5
3896
  8
AM_0
 10
571.6227664914818
 20
586.46549115167272
 30
0.0
 11
639.14976649148139
 21
586.46549115167272
 31
0.0
  0
LINE
  5
3897
  8
AM_0
 10
598.76561649148152
 20
649.9805911516728
 30
0.0
 11
614.06181649148164
 21
634.6843911516728
 31
0.0
  0
LINE
  5
3898
  8
AM_0
 10
597.59401649148174
 20
648.61079115167274
 30
0.0
 11
597.59401649148174
 21
615.49659115167265
 31
0.0
  0
LINE
  5
3899
  8
AM_0
 10
567.59401649148174
 20
612.55974115167271
 30
0.0
 11
564.59401649148174
 21
615.55974115167271
 31
0.0
  0
LINE
  5
389A
  8
AM_0
 10
542.59401649148174
 20
615.55974115167271
 30
0.0
 11
526.59401649148174
 21
615.55974115167271
 31
0.0
  0
LINE
  5
389B
  8
AM_0
 10
564.59411649148183
 20
615.55974115167271
 30
0.0
 11
542.59401649148174
 21
615.55974115167271
 31
0.0
  0
LINE
  5
389C
  8
AM_0
 10
598.76566649148174
 20
613.73134115167272
 30
0.0
 11
614.06186649148174
 21
629.02754115167272
 31
0.0
  0
LINE
  5
389D
  8
AM_0
 10
567.59401649148174
 20
612.55974115167271
 30
0.0
 11
595.93716649148143
 21
612.55974115167271
 31
0.0
  0
ARC
  5
389E
  8
AM_0
 10
595.93716649148143
 20
616.55974115167271
 30
0.0
 40
4.000000049999997
 50
270.0
 51
315.0
  0
ARC
  5
389F
  8
AM_0
 10
611.23336649148155
 20
631.8559411516726
 30
0.0
 40
4.000000049999997
 50
315.0
 51
45.000001000003799
  0
LINE
  5
38A0
  8
AM_0
 10
567.59401649148174
 20
651.15214115167271
 30
0.0
 11
564.59401649148174
 21
648.15214115167271
 31
0.0
  0
LINE
  5
38A1
  8
AM_0
 10
542.59401649148174
 20
648.1522411516728
 30
0.0
 11
526.59401649148174
 21
648.1522411516728
 31
0.0
  0
LINE
  5
38A2
  8
AM_0
 10
564.59411649148183
 20
648.1522411516728
 30
0.0
 11
542.59401649148174
 21
648.1522411516728
 31
0.0
  0
LINE
  5
38A3
  8
AM_0
 10
567.59401649148174
 20
724.75139115167281
 30
0.0
 11
567.59401649148174
 21
651.15214115167271
 31
0.0
  0
LINE
  5
38A4
  8
AM_0
 10
567.59401649148174
 20
651.15214115167271
 30
0.0
 11
595.93716649148143
 21
651.15214115167271
 31
0.0
  0
ARC
  5
38A5
  8
AM_0
 10
595.93716649148143
 20
647.15214115167271
 30
0.0
 40
4.000000049999997
 50
45.000001000003799
 51
90.00000299999769
  0
LINE
  5
38A6
  8
AM_0
 10
567.59401649148174
 20
724.75139115167281
 30
0.0
 11
595.93716649148143
 21
724.75139115167281
 31
0.0
  0
LINE
  5
38A7
  8
AM_0
 10
729.59411649148194
 20
643.96549115167261
 30
0.0
 11
729.59411649148194
 21
568.96548115167275
 31
0.0
  0
LINE
  5
38A8
  8
AM_0
 10
643.92181649148176
 20
587.73374115167269
 30
0.0
 11
646.90106649148163
 21
590.57934115167279
 31
0.0
  0
ARC
  5
38A9
  8
AM_0
 10
646.68466649148183
 20
584.8411811516728
 30
0.0
 40
4.000000049999997
 50
133.6857399999997
 51
182.99999999999889
  0
LINE
  5
38AA
  8
AM_0
 10
729.59411649148194
 20
568.96548115167275
 30
0.0
 11
722.59401649148174
 21
568.96548115167275
 31
0.0
  0
ARC
  5
38AB
  8
AM_0
 10
705.59401649148174
 20
694.46544115167285
 30
0.0
 40
8.0
 50
179.9999899999988
 51
270.0
  0
ARC
  5
38AC
  8
AM_0
 10
681.59401649148174
 20
713.17139115167265
 30
0.0
 40
16.0
 50
0.0
 51
45.000001000003799
  0
ARC
  5
38AD
  8
AM_0
 10
710.59401649148174
 20
678.46549115167272
 30
0.0
 40
8.0
 50
0.0
 51
90.00000299999769
  0
LINE
  5
38AE
  8
AM_0
 10
722.59401649148174
 20
643.96549115167261
 30
0.0
 11
729.59411649148194
 21
643.96549115167261
 31
0.0
  0
LINE
  5
38AF
  8
AM_0
 10
722.00826649148132
 20
667.05124115167268
 30
0.0
 11
718.59401649148174
 21
670.46549115167272
 31
0.0
  0
ARC
  5
38B0
  8
AM_0
 10
720.59401649148174
 20
665.63704115167275
 30
0.0
 40
2.0000000500000001
 50
0.0
 51
45.000001000003799
  0
LINE
  5
38B1
  8
AM_0
 10
754.59411649148194
 20
641.46549115167272
 30
0.0
 11
754.59411649148194
 21
645.96549115167272
 31
0.0
  0
LINE
  5
38B2
  8
AM_0
 10
705.59401649148174
 20
686.46549115167272
 30
0.0
 11
710.59401649148174
 21
686.46549115167272
 31
0.0
  0
LINE
  5
38B3
  8
AM_0
 10
601.78811649148145
 20
747.27144115167255
 30
0.0
 11
666.29531649148146
 21
745.01879115167264
 31
0.0
  0
LINE
  5
38B4
  8
AM_0
 10
591.05881649148125
 20
757.46544115167262
 30
0.0
 11
542.59401649148174
 21
757.46544115167262
 31
0.0
  0
LINE
  5
38B5
  8
AM_0
 10
542.59401649148174
 20
751.46549115167284
 30
0.0
 11
595.93716649148143
 21
751.46549115167284
 31
0.0
  0
ARC
  5
38B6
  8
AM_0
 10
529.56996649148175
 20
763.98914115167281
 30
0.0
 40
4.949999899999999
 50
14.232568000000819
 51
78.312366999996456
  0
LINE
  5
38B7
  8
AM_0
 10
520.59396649148164
 20
769.96544115167262
 30
0.0
 11
510.61531649148139
 21
768.83649115167259
 31
0.0
  0
ARC
  5
38B8
  8
AM_0
 10
511.61806649148173
 20
763.98914115167281
 30
0.0
 40
4.949999899999999
 50
101.6876299999988
 51
165.7674300000013
  0
LINE
  5
38B9
  8
AM_0
 10
530.5727164914814
 20
768.83649115167259
 30
0.0
 11
520.59411649148149
 21
769.96544115167262
 31
0.0
  0
LINE
  5
38BA
  8
AM_0
 10
542.59401649148174
 20
727.75134115167282
 30
0.0
 11
526.59401649148174
 21
727.75134115167282
 31
0.0
  0
LINE
  5
38BB
  8
AM_0
 10
526.59401649148174
 20
751.46549115167284
 30
0.0
 11
542.59401649148174
 21
751.46549115167284
 31
0.0
  0
ARC
  5
38BC
  8
AM_0
 10
522.59401649148174
 20
733.39989115167282
 30
0.0
 40
4.000000049999997
 50
308.3820099999968
 51
0.0
  0
LINE
  5
38BD
  8
AM_0
 10
531.68306649148155
 20
768.46544115167262
 30
0.0
 11
509.50506649148139
 21
768.46544115167262
 31
0.0
  0
LINE
  5
38BE
  8
AM_0
 10
506.81996649148169
 20
765.20609115167281
 30
0.0
 11
505.59396649148158
 21
757.46544115167262
 31
0.0
  0
ARC
  5
38BF
  8
AM_0
 10
500.7202164914811
 20
758.65529115167283
 30
0.0
 40
5.0
 50
351.00000000000119
 51
55.401290000002128
  0
ARC
  5
38C0
  8
AM_0
 10
530.59401649148174
 20
753.46544115167262
 30
0.0
 40
4.000000049999997
 50
90.00000299999769
 51
180.00001000000091
  0
LINE
  5
38C1
  8
AM_0
 10
564.59411649148183
 20
727.75134115167282
 30
0.0
 11
542.59401649148174
 21
727.75134115167282
 31
0.0
  0
LINE
  5
38C2
  8
AM_0
 10
535.59401649148174
 20
757.46549115167284
 30
0.0
 11
534.36806649148173
 21
765.20609115167281
 31
0.0
  0
ARC
  5
38C3
  8
AM_0
 10
540.46791649148122
 20
758.65529115167283
 30
0.0
 40
5.0
 50
124.59871999999839
 51
188.99999999999861
  0
ARC
  5
38C4
  8
AM_0
 10
562.43176649148143
 20
754.46549115167284
 30
0.0
 40
3.0000000500000001
 50
18.434948999997921
 51
90.00000299999769
  0
LINE
  5
38C5
  8
AM_0
 10
564.59411649148183
 20
755.5109411516728
 30
0.0
 11
564.59411649148183
 21
751.46549115167284
 31
0.0
  0
LINE
  5
38C6
  8
AM_0
 10
565.27781649148153
 20
755.41419115167264
 30
0.0
 11
566.59411649148183
 21
751.46549115167284
 31
0.0
  0
CIRCLE
  5
38C7
  8
AM_0
 10
520.59401649148174
 20
787.46544115167262
 30
0.0
 40
17.500000499999992
  0
LINE
  5
38C8
  8
AM_0
 10
598.76566649148174
 20
750.29389115167282
 30
0.0
 11
608.12271649148158
 21
740.93684115167264
 31
0.0
  0
LINE
  5
38C9
  8
AM_0
 10
598.76561649148152
 20
725.92299115167282
 30
0.0
 11
608.12266649148182
 21
735.28004115167255
 31
0.0
  0
LINE
  5
38CA
  8
AM_0
 10
597.59401649148174
 20
748.67344115167282
 30
0.0
 11
597.59401649148174
 21
728.13319115167258
 31
0.0
  0
ARC
  5
38CB
  8
AM_0
 10
595.93716649148143
 20
747.46544115167262
 30
0.0
 40
4.000000049999997
 50
45.000001000003799
 51
90.00000299999769
  0
LINE
  5
38CC
  8
AM_0
 10
592.99096649148146
 20
755.98249115167255
 30
0.0
 11
594.19966649148159
 21
751.46549115167284
 31
0.0
  0
ARC
  5
38CD
  8
AM_0
 10
591.05881649148125
 20
755.46549115167284
 30
0.0
 40
2.0000000500000001
 50
14.98159799999733
 51
90.00000299999769
  0
ARC
  5
38CE
  8
AM_0
 10
605.29421649148139
 20
738.10839115167255
 30
0.0
 40
4.000000049999997
 50
315.0
 51
45.000001000003799
  0
ARC
  5
38CF
  8
AM_0
 10
665.73696649148155
 20
729.02849115167282
 30
0.0
 40
16.0
 50
45.000001000003799
 51
88.000000000002785
  0
LINE
  5
38D0
  8
AM_0
 10
1326.9948498635581
 20
484.24349115167257
 30
0.0
 11
1290.5239948635581
 21
626.35229115167272
 31
0.0
  0
LINE
  5
38D1
  8
AM_0
 10
1335.6863648635581
 20
589.86134115167272
 30
0.0
 11
1330.123589863558
 21
486.55028615167259
 31
0.0
  0
LINE
  5
38D2
  8
AM_0
 10
1341.1956698635579
 20
456.6722961516727
 30
0.0
 11
1358.6864698635579
 21
574.9215061516727
 31
0.0
  0
LINE
  5
38D3
  8
AM_0
 10
1382.234854863558
 20
539.40972115167278
 30
0.0
 11
1373.184514863558
 21
613.23644115167269
 31
0.0
  0
LINE
  5
38D4
  8
AM_0
 10
1367.2259298635579
 20
586.46544115167274
 30
0.0
 11
1438.035194863558
 21
364.46547615167259
 31
0.0
  0
LINE
  5
38D5
  8
AM_0
 10
1367.2259298635579
 20
576.51015615167273
 30
0.0
 11
1367.2259298635579
 21
531.35726115167245
 31
0.0
  0
LINE
  5
38D6
  8
AM_0
 10
1058.8444598635581
 20
576.51015615167273
 30
0.0
 11
1058.8444598635581
 21
531.35726115167245
 31
0.0
  0
LINE
  5
38D7
  8
AM_0
 10
1058.8445098635571
 20
586.46549115167272
 30
0.0
 11
988.03525986355839
 21
364.46547615167259
 31
0.0
  0
LINE
  5
38D8
  8
AM_0
 10
1043.835559863558
 20
539.40972115167278
 30
0.0
 11
1052.8858598635579
 21
613.23644115167269
 31
0.0
  0
LINE
  5
38D9
  8
AM_0
 10
1084.874699863559
 20
456.67226615167277
 30
0.0
 11
1067.383914863557
 21
574.9215061516727
 31
0.0
  0
LINE
  5
38DA
  8
AM_0
 10
1090.3840048635579
 20
589.86134115167272
 30
0.0
 11
1095.946779863558
 21
486.55028615167259
 31
0.0
  0
LINE
  5
38DB
  8
AM_0
 10
1099.075534863558
 20
484.24349115167257
 30
0.0
 11
1135.546389863558
 21
626.35229115167272
 31
0.0
  0
LINE
  5
38DC
  8
ﾁｭｳｼﾝｾﾝ
 10
1213.035219863558
 20
822.46544115167251
 30
0.0
 11
1213.035219863558
 21
320.34267115167262
 31
0.0
  0
ARC
  5
38DD
  8
AM_0
 10
1213.035219863558
 20
596.46549115167272
 30
0.0
 40
147.23598000000001
 50
351.58611999999692
 51
188.41388000000279
  0
ARC
  5
38DE
  8
AM_0
 10
1213.035219863558
 20
596.46549115167272
 30
0.0
 40
122.8288349999999
 50
356.91789000000222
 51
183.08210999999741
  0
CIRCLE
  5
38DF
  8
AM_0
 10
1213.035219863558
 20
606.46549115167261
 30
0.0
 40
60.0
  0
ARC
  5
38E0
  8
AM_0
 10
1264.0351948635571
 20
468.08547115167278
 30
0.0
 40
78.0
 50
328.76727999999662
 51
351.58611999999692
  0
ARC
  5
38E1
  8
AM_0
 10
1338.5627498635581
 20
346.87224615167258
 30
0.0
 40
8.0
 50
30.00000099999983
 51
128.39667000000051
  0
ARC
  5
38E2
  8
AM_0
 10
1330.035194863558
 20
331.46549115167261
 30
0.0
 40
18.000000499999992
 50
0.0
 51
90.00000299999769
  0
LINE
  5
38E3
  8
AM_0
 10
1348.035194863558
 20
346.46547615167259
 30
0.0
 11
1314.342839863559
 21
404.82238115167257
 31
0.0
  0
LINE
  5
38E4
  8
AM_0
 10
1359.8708698635569
 20
371.96547615167259
 30
0.0
 11
1325.0565398635581
 21
432.26568115167282
 31
0.0
  0
ARC
  5
38E5
  8
AM_0
 10
1072.7859548635579
 20
389.37352615167282
 30
0.0
 40
3.0000000500000001
 50
329.99999999999932
 51
41.410172999998373
  0
ARC
  5
38E6
  8
AM_0
 10
1096.0351898635579
 20
331.46549115167261
 30
0.0
 40
18.000000499999992
 50
90.00000299999769
 51
180.00001000000091
  0
LINE
  5
38E7
  8
AM_0
 10
1078.0351898635579
 20
346.4655061516728
 30
0.0
 11
1067.642884863558
 21
364.46547615167259
 31
0.0
  0
LINE
  5
38E8
  8
AM_0
 10
1066.1995248635581
 20
371.96547615167259
 30
0.0
 11
1101.0138898635571
 21
432.26568115167282
 31
0.0
  0
LINE
  5
38E9
  8
AM_0
 10
988.03520986355829
 20
326.46549115167272
 30
0.0
 11
1078.035219863558
 21
326.46549115167272
 31
0.0
  0
ARC
  5
38EA
  8
AM_0
 10
1031.911509863558
 20
379.46547615167259
 30
0.0
 40
15.0
 50
169.9999899999988
 51
270.0
  0
LINE
  5
38EB
  8
AM_0
 10
1067.6429148635591
 20
364.46547615167259
 30
0.0
 11
988.03520986355829
 21
364.46547615167259
 31
0.0
  0
LINE
  5
38EC
  8
AM_0
 10
988.03520986355829
 20
364.46547615167259
 30
0.0
 11
988.03520986355829
 21
326.46549115167272
 31
0.0
  0
LINE
  5
38ED
  8
AM_0
 10
1073.035219863558
 20
355.12572615167272
 30
0.0
 11
1073.035219863558
 21
326.46549115167272
 31
0.0
  0
LINE
  5
38EE
  8
ﾁｭｳｼﾝｾﾝ1
 10
1033.0352098635581
 20
374.46547615167259
 30
0.0
 11
1033.0352098635581
 21
316.46549115167272
 31
0.0
  0
LINE
  5
38EF
  8
ｶｸﾚｾﾝ2
 10
1021.035224863558
 20
364.46547615167259
 30
0.0
 11
1021.035224863558
 21
326.46549115167272
 31
0.0
  0
LINE
  5
38F0
  8
ｶｸﾚｾﾝ2
 10
1045.0352098635581
 20
364.46547615167259
 30
0.0
 11
1045.0352098635581
 21
326.46549115167272
 31
0.0
  0
ARC
  5
38F1
  8
AM_0
 10
1053.2091098635581
 20
379.46547615167259
 30
0.0
 40
15.0
 50
270.0
 51
329.99999999999932
  0
ARC
  5
38F2
  8
AM_0
 10
1162.0351898635579
 20
468.08547115167278
 30
0.0
 40
116.0
 50
173.44022000000211
 51
221.41017000000039
  0
LINE
  5
38F3
  8
AM_0
 10
1058.4031598635579
 20
525.84743615167281
 30
0.0
 11
1022.820459863558
 21
414.2892361516727
 31
0.0
  0
LINE
  5
38F4
  8
AM_0
 10
1017.139359863558
 20
382.07021115167282
 30
0.0
 11
1022.820459863558
 21
414.2892361516727
 31
0.0
  0
ARC
  5
38F5
  8
AM_0
 10
1040.212809863558
 20
435.90935615167268
 30
0.0
 40
10.0
 50
14.795276999998711
 51
162.3093600000025
  0
LINE
  5
38F6
  8
AM_0
 10
1060.0706598635579
 20
528.00930115167262
 30
0.0
 11
1065.264404863558
 21
531.30526115167265
 31
0.0
  0
ARC
  5
38F7
  8
AM_0
 10
1062.2140098635571
 20
524.63192115167283
 30
0.0
 40
4.000000049999997
 50
122.3994099999984
 51
162.3093600000025
  0
LINE
  5
38F8
  8
AM_0
 10
1078.035219863558
 20
346.46547615167259
 30
0.0
 11
1111.727574863557
 21
404.82235115167282
 31
0.0
  0
CIRCLE
  5
38F9
  8
AM_0
 10
1213.035219863558
 20
386.46547615167259
 30
0.0
 40
9.6974994999999993
  0
CIRCLE
  5
38FA
  8
AM_0
 10
1213.035219863558
 20
386.46547615167259
 30
0.0
 40
10.4974995
  0
ARC
  5
38FB
  8
AM_0
 10
1213.035219863558
 20
386.46547615167259
 30
0.0
 40
18.000000499999992
 50
185.6911800000004
 51
354.3088100000025
  0
LINE
  5
38FC
  8
AM_0
 10
1203.391544863558
 20
328.08547115167272
 30
0.0
 11
1222.6788398635581
 21
328.08547115167272
 31
0.0
  0
LINE
  5
38FD
  8
AM_0
 10
1162.0351898635579
 20
352.08550115167282
 30
0.0
 11
1264.0351948635571
 21
352.08550115167282
 31
0.0
  0
ARC
  5
38FE
  8
AM_0
 10
1162.0351898635579
 20
468.08547115167278
 30
0.0
 40
116.0
 50
235.6933999999975
 51
270.0
  0
ARC
  5
38FF
  8
AM_0
 10
1162.0351898635579
 20
468.08547115167278
 30
0.0
 40
126.0
 50
246.79906999999881
 51
270.0
  0
LINE
  5
3900
  8
AM_0
 10
1078.035219863558
 20
326.46549115167272
 30
0.0
 11
1078.035219863558
 21
346.46547615167259
 31
0.0
  0
ARC
  5
3901
  8
AM_0
 10
1103.035219863558
 20
366.46547615167259
 30
0.0
 40
17.000000499999992
 50
231.6033299999994
 51
320.6210099999999
  0
ARC
  5
3902
  8
AM_0
 10
1087.507634863558
 20
346.87224615167258
 30
0.0
 40
8.0
 50
51.603336000002727
 51
149.9999999999992
  0
LINE
  5
3903
  8
AM_0
 10
1103.035219863558
 20
349.46547615167259
 30
0.0
 11
1096.0351898635579
 21
349.46547615167259
 31
0.0
  0
ARC
  5
3904
  8
AM_0
 10
1094.9642648635579
 20
369.78752615167281
 30
0.0
 40
3.0000000500000001
 50
55.693402999999293
 51
149.9999999999992
  0
ARC
  5
3905
  8
AM_0
 10
1122.359349863558
 20
350.60430115167259
 30
0.0
 40
8.0
 50
71.339098999999166
 51
140.62100999999981
  0
ARC
  5
3906
  8
AM_0
 10
1213.035219863558
 20
342.08550115167282
 30
0.0
 40
17.000000499999992
 50
175.41142999999951
 51
235.43968000000081
  0
LINE
  5
3907
  8
AM_0
 10
1162.0351898635579
 20
342.08550115167282
 30
0.0
 11
1189.349764863558
 21
342.08550115167282
 31
0.0
  0
ARC
  5
3908
  8
AM_0
 10
1188.1153298635579
 20
344.08547115167278
 30
0.0
 40
8.0
 50
355.4114299999996
 51
90.00000299999769
  0
ARC
  5
3909
  8
AM_0
 10
1189.349764863558
 20
334.08548615167268
 30
0.0
 40
8.0
 50
18.66292499999744
 51
90.00000299999769
  0
ARC
  5
390A
  8
AM_0
 10
1264.0351948635571
 20
468.08547115167278
 30
0.0
 40
126.0
 50
270.0
 51
293.20093000000088
  0
ARC
  5
390B
  8
AM_0
 10
1264.0351948635571
 20
468.08547115167278
 30
0.0
 40
116.0
 50
270.0
 51
304.30660000000239
  0
ARC
  5
390C
  8
AM_0
 10
1213.035219863558
 20
342.08550115167282
 30
0.0
 40
17.000000499999992
 50
304.56031999999902
 51
4.588565899998974
  0
LINE
  5
390D
  8
AM_0
 10
1264.0351948635571
 20
342.08550115167282
 30
0.0
 11
1236.720614863558
 21
342.08550115167282
 31
0.0
  0
ARC
  5
390E
  8
AM_0
 10
1237.955054863558
 20
344.08547115167278
 30
0.0
 40
8.0
 50
90.00000299999769
 51
184.5885700000004
  0
ARC
  5
390F
  8
AM_0
 10
1236.720614863558
 20
334.08548615167268
 30
0.0
 40
8.0
 50
90.00000299999769
 51
161.3370699999995
  0
ARC
  5
3910
  8
AM_0
 10
1303.7110348635581
 20
350.60430115167259
 30
0.0
 40
8.0
 50
39.378994999999961
 51
108.660900000002
  0
ARC
  5
3911
  8
AM_0
 10
1323.0351948635589
 20
366.46547615167259
 30
0.0
 40
17.000000499999992
 50
219.37898999999999
 51
308.39665999999932
  0
LINE
  5
3912
  8
AM_0
 10
1323.0351948635589
 20
349.46547615167259
 30
0.0
 11
1330.035194863558
 21
349.46547615167259
 31
0.0
  0
ARC
  5
3913
  8
AM_0
 10
1331.1061148635581
 20
369.78752615167281
 30
0.0
 40
3.0000000500000001
 50
30.00000099999983
 51
124.30660000000231
  0
POLYLINE
  5
3914
  8
AM_0
 66
     1
 10
0.0
 20
0.0
 30
0.0
  0
VERTEX
  5
3915
  8
AM_0
  6
CONTINUOUS
 10
1208.035219863558
 20
383.57872615167258
 30
0.0
  0
VERTEX
  5
3916
  8
AM_0
  6
CONTINUOUS
 10
1213.035219863558
 20
380.69197615167269
 30
0.0
  0
VERTEX
  5
3917
  8
AM_0
  6
CONTINUOUS
 10
1218.035219863558
 20
383.57872615167258
 30
0.0
  0
VERTEX
  5
3918
  8
AM_0
  6
CONTINUOUS
 10
1218.035219863558
 20
389.35222615167282
 30
0.0
  0
VERTEX
  5
3919
  8
AM_0
  6
CONTINUOUS
 10
1213.035219863558
 20
392.23900615167281
 30
0.0
  0
VERTEX
  5
391A
  8
AM_0
  6
CONTINUOUS
 10
1208.035219863558
 20
389.35222615167282
 30
0.0
  0
VERTEX
  5
391B
  8
AM_0
  6
CONTINUOUS
 10
1208.035219863558
 20
383.57872615167258
 30
0.0
  0
SEQEND
  5
391C
  8
AM_0
  0
LINE
  5
391D
  8
ﾁｭｳｼﾝｾﾝ1
 10
1190.0351898635579
 20
386.46547615167259
 30
0.0
 11
1236.0351898635579
 21
386.46547615167259
 31
0.0
  0
LINE
  5
391E
  8
ﾁｭｳｼﾝｾﾝ
 10
1104.0528598635581
 20
543.86547115167275
 30
0.0
 11
1322.017524863558
 21
543.86547115167275
 31
0.0
  0
LINE
  5
391F
  8
AM_0
 10
1162.0351898635579
 20
403.08547115167272
 30
0.0
 11
1264.0351948635571
 21
403.08547115167272
 31
0.0
  0
ARC
  5
3920
  8
AM_0
 10
1162.0351898635579
 20
468.08547115167278
 30
0.0
 40
65.0
 50
165.60623000000109
 51
202.0796200000014
  0
ARC
  5
3921
  8
AM_0
 10
1162.0351898635579
 20
468.08547115167278
 30
0.0
 40
78.0
 50
233.15281000000391
 51
270.0
  0
ARC
  5
3922
  8
AM_0
 10
1162.0351898635579
 20
468.08547115167278
 30
0.0
 40
65.0
 50
242.19486000000029
 51
270.0
  0
ARC
  5
3923
  8
AM_0
 10
1162.0351898635579
 20
468.08547115167278
 30
0.0
 40
65.0
 50
207.48781999999809
 51
229.4185699999999
  0
ARC
  5
3924
  8
AM_0
 10
1124.7178998635579
 20
397.32235115167282
 30
0.0
 40
15.0
 50
62.194869000004431
 51
149.9999999999992
  0
ARC
  5
3925
  8
AM_0
 10
1162.0351898635579
 20
468.08547115167278
 30
0.0
 40
78.0
 50
188.4138699999979
 51
211.2327300000004
  0
ARC
  5
3926
  8
AM_0
 10
1089.7555248635581
 20
438.7657111516728
 30
0.0
 40
12.99999899999999
 50
329.99999999999932
 51
22.079621000000181
  0
LINE
  5
3927
  8
AM_0
 10
1162.0351898635579
 20
390.08547115167278
 30
0.0
 11
1189.153479863558
 21
390.08547115167278
 31
0.0
  0
ARC
  5
3928
  8
AM_0
 10
1189.153479863558
 20
384.08547115167278
 30
0.0
 40
6.0
 50
5.6911851000033131
 51
90.00000299999769
  0
ARC
  5
3929
  8
AM_0
 10
1264.0351948635571
 20
468.08547115167278
 30
0.0
 40
65.0
 50
337.9203799999986
 51
14.393764999997851
  0
ARC
  5
392A
  8
AM_0
 10
1264.0351948635571
 20
468.08547115167278
 30
0.0
 40
78.0
 50
270.0
 51
306.84718999999598
  0
ARC
  5
392B
  8
AM_0
 10
1264.0351948635571
 20
468.08547115167278
 30
0.0
 40
65.0
 50
270.0
 51
297.80512999999701
  0
LINE
  5
392C
  8
AM_0
 10
1264.0351948635571
 20
390.08547115167278
 30
0.0
 11
1236.9169048635581
 21
390.08547115167278
 31
0.0
  0
ARC
  5
392D
  8
AM_0
 10
1236.9169048635581
 20
384.08547115167278
 30
0.0
 40
6.0
 50
90.00000299999769
 51
174.3088199999992
  0
ARC
  5
392E
  8
AM_0
 10
1264.0351948635571
 20
468.08547115167278
 30
0.0
 40
65.0
 50
310.58143000000001
 51
332.51218999999918
  0
ARC
  5
392F
  8
AM_0
 10
1301.3524848635579
 20
397.32235115167282
 30
0.0
 40
15.0
 50
30.00000099999983
 51
117.8051399999995
  0
ARC
  5
3930
  8
AM_0
 10
1336.3148548635579
 20
438.7657111516728
 30
0.0
 40
12.99999899999999
 50
157.9203799999984
 51
210.0000000000004
  0
ARC
  5
3931
  8
AM_0
 10
1394.158879863558
 20
379.46547615167259
 30
0.0
 40
15.0
 50
270.0
 51
9.9999997000015846
  0
LINE
  5
3932
  8
AM_0
 10
1358.4274998635581
 20
364.46547615167259
 30
0.0
 11
1438.035204863558
 21
364.46547615167259
 31
0.0
  0
LINE
  5
3933
  8
AM_0
 10
1438.035204863558
 20
326.46549115167272
 30
0.0
 11
1348.035194863558
 21
326.46549115167272
 31
0.0
  0
LINE
  5
3934
  8
AM_0
 10
1353.0351948635589
 20
355.12572615167272
 30
0.0
 11
1353.0351948635589
 21
326.46549115167272
 31
0.0
  0
LINE
  5
3935
  8
ﾁｭｳｼﾝｾﾝ1
 10
1393.035194863558
 20
374.46547615167259
 30
0.0
 11
1393.035194863558
 21
316.46549115167272
 31
0.0
  0
LINE
  5
3936
  8
AM_0
 10
1348.035194863558
 20
326.46549115167272
 30
0.0
 11
1348.035194863558
 21
346.46547615167259
 31
0.0
  0
LINE
  5
3937
  8
ｶｸﾚｾﾝ2
 10
1381.0352098635581
 20
364.46547615167259
 30
0.0
 11
1381.0352098635581
 21
326.46549115167272
 31
0.0
  0
LINE
  5
3938
  8
ｶｸﾚｾﾝ2
 10
1405.0351948635571
 20
364.46547615167259
 30
0.0
 11
1405.0351948635571
 21
326.46549115167272
 31
0.0
  0
LINE
  5
3939
  8
AM_0
 10
1348.0352098635581
 20
346.46547615167259
 30
0.0
 11
1358.4275148635579
 21
364.46547615167259
 31
0.0
  0
ARC
  5
393A
  8
AM_0
 10
1372.861259863558
 20
379.46547615167259
 30
0.0
 40
15.0
 50
210.0000000000004
 51
270.0
  0
LINE
  5
393B
  8
AM_0
 10
1438.035204863558
 20
364.46547615167259
 30
0.0
 11
1438.035204863558
 21
326.46549115167272
 31
0.0
  0
ARC
  5
393C
  8
AM_0
 10
1264.0351948635571
 20
468.08547115167278
 30
0.0
 40
116.0
 50
318.58982999999938
 51
6.559782799997782
  0
LINE
  5
393D
  8
AM_0
 10
1367.667259863558
 20
525.84740615167277
 30
0.0
 11
1403.249929863558
 21
414.2892361516727
 31
0.0
  0
LINE
  5
393E
  8
AM_0
 10
1408.9310248635579
 20
382.07021115167282
 30
0.0
 11
1403.249929863558
 21
414.28927115167272
 31
0.0
  0
ARC
  5
393F
  8
AM_0
 10
1353.2844448635581
 20
389.37352615167282
 30
0.0
 40
3.0000000500000001
 50
138.5898200000027
 51
210.0000000000004
  0
ARC
  5
3940
  8
AM_0
 10
1385.857594863558
 20
435.90935615167268
 30
0.0
 40
10.0
 50
17.690640999996699
 51
165.20472000000211
  0
LINE
  5
3941
  8
AM_0
 10
1365.9996548635579
 20
528.00927115167269
 30
0.0
 11
1360.805929863558
 21
531.30523115167284
 31
0.0
  0
ARC
  5
3942
  8
AM_0
 10
1363.8564048635581
 20
524.63192115167283
 30
0.0
 40
4.000000049999997
 50
17.690640999996699
 51
57.600597000002438
  0
LINE
  5
3943
  8
ﾁｭｳｼﾝｾﾝ
 10
1047.0184098635571
 20
606.46549115167261
 30
0.0
 11
1379.051979863558
 21
606.46549115167261
 31
0.0
  0
ARC
  5
3944
  8
AM_0
 10
1213.035219863558
 20
596.46549115167272
 30
0.0
 40
152.0
 50
22.003158999996721
 51
54.910531000004703
  0
ARC
  5
3945
  8
AM_0
 10
1213.035219863558
 20
596.46549115167272
 30
0.0
 40
161.0
 50
20.248804000000881
 51
56.698755999997701
  0
ARC
  5
3946
  8
AM_0
 10
1213.035219863558
 20
596.46549115167272
 30
0.0
 40
152.0
 50
125.08946000000191
 51
157.99684000000141
  0
ARC
  5
3947
  8
AM_0
 10
1213.035219863558
 20
596.46549115167272
 30
0.0
 40
161.0
 50
123.3012400000009
 51
159.75119999999819
  0
LINE
  5
3948
  8
AM_0
 10
839.59401649148174
 20
641.46549115167272
 30
0.0
 11
839.59401649148174
 21
571.46548115167275
 31
0.0
  0
LINE
  5
3949
  8
AM_0
 10
839.59401649148174
 20
645.96549115167272
 30
0.0
 11
839.59401649148174
 21
641.46549115167272
 31
0.0
  0
ARC
  5
394A
  8
AM_0
 10
1213.035219863558
 20
596.46549115167272
 30
0.0
 40
152.0
 50
160.54256000000231
 51
173.1894000000033
  0
ARC
  5
394B
  8
AM_0
 10
1063.035219863558
 20
631.46549115167261
 30
0.0
 40
17.000000499999992
 50
86.206795000002415
 51
247.52515000000079
  0
LINE
  5
394C
  8
AM_0
 10
1061.4561098635579
 20
607.76934115167273
 30
0.0
 11
1058.8445098635571
 21
586.46549115167272
 31
0.0
  0
ARC
  5
394D
  8
AM_0
 10
1044.945359863558
 20
614.20984115167278
 30
0.0
 40
8.0
 50
353.01102999999949
 51
43.64792099999903
  0
ARC
  5
394E
  8
AM_0
 10
1053.4782598635579
 20
608.36429115167277
 30
0.0
 40
8.0
 50
355.73510999999701
 51
67.525156000002397
  0
ARC
  5
394F
  8
AM_0
 10
1054.4796598635569
 20
654.95599115167272
 30
0.0
 40
8.0
 50
290.01231999999868
 51
339.75119999999822
  0
ARC
  5
3950
  8
AM_0
 10
1064.6890598635571
 20
656.41069115167272
 30
0.0
 40
8.0
 50
266.20679999999999
 51
337.99684000000173
  0
ARC
  5
3951
  8
AM_0
 10
1213.035219863558
 20
596.46549115167272
 30
0.0
 40
152.0
 50
109.8967400000016
 51
122.56714000000019
  0
ARC
  5
3952
  8
AM_0
 10
1121.058444863557
 20
727.38634115167258
 30
0.0
 40
8.0
 50
305.08947000000262
 51
16.449219999998359
  0
ARC
  5
3953
  8
AM_0
 10
1213.035219863558
 20
596.46549115167272
 30
0.0
 40
152.0
 50
57.432860999996542
 51
70.103258000001858
  0
ARC
  5
3954
  8
AM_0
 10
1305.0119698635581
 20
727.38634115167258
 30
0.0
 40
8.0
 50
163.55078000000159
 51
234.91052999999729
  0
LINE
  5
3955
  8
AM_0
 10
1223.0352248635579
 20
645.96549115167272
 30
0.0
 11
1203.035219863558
 21
645.96549115167272
 31
0.0
  0
LINE
  5
3956
  8
AM_0
 10
1203.035219863558
 20
633.96549115167272
 30
0.0
 11
1223.0352248635579
 21
633.96549115167272
 31
0.0
  0
CIRCLE
  5
3957
  8
AM_0
 10
1213.035219863558
 20
606.46549115167261
 30
0.0
 40
5.0
  0
CIRCLE
  5
3958
  8
AM_5
 10
1213.035219863558
 20
606.46549115167261
 30
0.0
 40
6.0
  0
ARC
  5
3959
  8
AM_0
 10
1213.035219863558
 20
606.46549115167261
 30
0.0
 40
80.0
 50
14.393764999997851
 51
165.60623000000109
  0
ARC
  5
395A
  8
AM_0
 10
1213.035219863558
 20
606.46549115167261
 30
0.0
 40
35.000000499999992
 50
106.6015499999988
 51
73.398451999997818
  0
LINE
  5
395B
  8
AM_0
 10
1203.035219863558
 20
645.96549115167272
 30
0.0
 11
1203.035219863558
 21
633.96549115167272
 31
0.0
  0
LINE
  5
395C
  8
AM_0
 10
1223.0352248635579
 20
633.96549115167272
 30
0.0
 11
1223.0352248635579
 21
645.96549115167272
 31
0.0
  0
ARC
  5
395D
  8
AM_0
 10
1213.035219863558
 20
596.46549115167272
 30
0.0
 40
152.0
 50
72.625585999999316
 51
107.37441
  0
ARC
  5
395E
  8
AM_0
 10
1213.035219863558
 20
811.21544115167262
 30
0.0
 40
6.25
 50
0.0
 51
180.00001000000091
  0
LINE
  5
395F
  8
AM_0
 10
1233.0352248635579
 20
757.46544115167262
 30
0.0
 11
1193.035219863558
 21
757.46544115167262
 31
0.0
  0
ARC
  5
3960
  8
AM_0
 10
1145.0351898635579
 20
734.46549115167284
 30
0.0
 40
17.000000499999992
 50
36.014658999998971
 51
196.44921999999809
  0
ARC
  5
3961
  8
AM_0
 10
1120.2472898635581
 20
737.71489115167276
 30
0.0
 40
8.0
 50
303.3012400000008
 51
352.5317299999993
  0
LINE
  5
3962
  8
AM_0
 10
1206.785219863558
 20
811.21544115167262
 30
0.0
 11
1206.785219863558
 21
763.46544115167262
 31
0.0
  0
ARC
  5
3963
  8
AM_0
 10
1204.059269863558
 20
763.98914115167281
 30
0.0
 40
4.949999899999999
 50
101.6876299999988
 51
165.7674300000013
  0
LINE
  5
3964
  8
AM_0
 10
1206.7851898635579
 20
769.25834115167265
 30
0.0
 11
1203.0564948635581
 21
768.83649115167259
 31
0.0
  0
ARC
  5
3965
  8
AM_0
 10
1213.035219863558
 20
596.46549115167272
 30
0.0
 40
161.0
 50
97.240494999999797
 51
109.1626400000013
  0
ARC
  5
3966
  8
AM_0
 10
1165.2568398635581
 20
749.16529115167282
 30
0.0
 40
8.0
 50
216.01464999999709
 51
287.37441000000013
  0
ARC
  5
3967
  8
AM_0
 10
1157.5608248635581
 20
756.10129115167263
 30
0.0
 40
8.0
 50
239.93215000000041
 51
289.16263000000112
  0
ARC
  5
3968
  8
AM_0
 10
1188.1393798635579
 20
749.45304115167255
 30
0.0
 40
3.0000000500000001
 50
279.24277999999742
 51
347.20632999999771
  0
LINE
  5
3969
  8
AM_0
 10
1193.0351898635579
 20
757.46549115167284
 30
0.0
 11
1191.0648848635581
 21
748.78874115167264
 31
0.0
  0
LINE
  5
396A
  8
AM_0
 10
1199.2611748635579
 20
765.20609115167281
 30
0.0
 11
1198.0351898635579
 21
757.46544115167262
 31
0.0
  0
ARC
  5
396B
  8
AM_0
 10
1201.785219863558
 20
763.46544115167262
 30
0.0
 40
5.0
 50
302.9725600000001
 51
0.0
  0
ARC
  5
396C
  8
AM_0
 10
1281.035194863558
 20
734.46549115167284
 30
0.0
 40
17.000000499999992
 50
343.55078000000162
 51
143.9853500000026
  0
LINE
  5
396D
  8
AM_0
 10
1219.2852248635579
 20
811.21544115167262
 30
0.0
 11
1219.2852248635579
 21
763.46544115167262
 31
0.0
  0
ARC
  5
396E
  8
AM_0
 10
1222.0111448635571
 20
763.98914115167281
 30
0.0
 40
4.949999899999999
 50
14.232568000000819
 51
78.312366999996456
  0
LINE
  5
396F
  8
AM_0
 10
1223.013889863558
 20
768.83649115167259
 30
0.0
 11
1219.2851598635591
 21
769.25834115167265
 31
0.0
  0
ARC
  5
3970
  8
AM_0
 10
1213.035219863558
 20
596.46549115167272
 30
0.0
 40
161.0
 50
70.837366999997869
 51
82.759510000000958
  0
ARC
  5
3971
  8
AM_0
 10
1237.9310348635579
 20
749.45304115167255
 30
0.0
 40
3.0000000500000001
 50
192.7936599999997
 51
260.75722000000241
  0
ARC
  5
3972
  8
AM_0
 10
1224.2852248635579
 20
763.46544115167262
 30
0.0
 40
5.0
 50
179.9999899999988
 51
237.02744999999891
  0
LINE
  5
3973
  8
AM_0
 10
1228.0351898635579
 20
757.46549115167284
 30
0.0
 11
1226.809179863558
 21
765.20609115167281
 31
0.0
  0
LINE
  5
3974
  8
AM_0
 10
1233.0352248635579
 20
757.46544115167262
 30
0.0
 11
1235.005499863558
 21
748.78869115167265
 31
0.0
  0
ARC
  5
3975
  8
AM_0
 10
1260.813544863558
 20
749.16529115167282
 30
0.0
 40
8.0
 50
252.62558999999979
 51
323.98534000000012
  0
ARC
  5
3976
  8
AM_0
 10
1268.509559863558
 20
756.10129115167263
 30
0.0
 40
8.0
 50
250.8373599999984
 51
300.06784999999951
  0
ARC
  5
3977
  8
AM_0
 10
1305.823124863557
 20
737.71489115167276
 30
0.0
 40
8.0
 50
187.4682700000005
 51
236.698759999999
  0
ARC
  5
3978
  8
AM_0
 10
1363.0351948635589
 20
631.46549115167261
 30
0.0
 40
17.000000499999992
 50
292.47483999999821
 51
93.793202999997405
  0
ARC
  5
3979
  8
AM_0
 10
1213.035219863558
 20
596.46549115167272
 30
0.0
 40
152.0
 50
6.8105959000011422
 51
19.45744800000115
  0
LINE
  5
397A
  8
AM_0
 10
1364.6142948635579
 20
607.76939115167261
 30
0.0
 11
1367.225914863558
 21
586.46549115167272
 31
0.0
  0
ARC
  5
397B
  8
AM_0
 10
1381.125054863558
 20
614.20984115167278
 30
0.0
 40
8.0
 50
136.35208000000219
 51
186.98897000000039
  0
ARC
  5
397C
  8
AM_0
 10
1372.592139863558
 20
608.36429115167277
 30
0.0
 40
8.0
 50
112.4748399999982
 51
184.2648800000008
  0
ARC
  5
397D
  8
AM_0
 10
1361.381309863558
 20
656.41069115167272
 30
0.0
 40
8.0
 50
202.00315999999839
 51
273.79319999999967
  0
ARC
  5
397E
  8
AM_0
 10
1371.5907498635579
 20
654.95599115167272
 30
0.0
 40
8.0
 50
200.24880000000181
 51
249.98768000000121
  0
LINE
  5
397F
  8
AM_0
 10
357.09400649148171
 20
1021.273860735717
 30
0.0
 11
357.09400649148171
 21
1168.2738607357171
 31
0.0
  0
LINE
  5
3980
  8
AM_0
 10
337.09400649148182
 20
1318.273860735716
 30
0.0
 11
337.09400649148182
 21
1018.273860735716
 31
0.0
  0
LINE
  5
3981
  8
AM_0
 10
415.09461649148182
 20
1084.068101735716
 30
0.0
 11
386.68979649148167
 21
1083.076182735716
 31
0.0
  0
LINE
  5
3982
  8
AM_0
 10
386.68979649148167
 20
1067.519833735716
 30
0.0
 11
415.09461649148182
 21
1068.511751735716
 31
0.0
  0
LINE
  5
3983
  8
AM_0
 10
418.09400649148182
 20
1050.2738606757639
 30
0.0
 11
361.96312249148201
 21
1048.804021735717
 31
0.0
  0
LINE
  5
3984
  8
AM_0
 10
414.39701449148163
 20
1093.7401007357171
 30
0.0
 11
361.96312249148201
 21
1092.367070735716
 31
0.0
  0
ARC
  5
3985
  8
AM_0
 10
362.09400649148171
 20
1043.805735735717
 30
0.0
 40
5.0
 50
91.500000000002629
 51
180.0
  0
LINE
  5
3986
  8
AM_0
 10
337.09400649148182
 20
1018.273860735716
 30
0.0
 11
354.09400649148171
 21
1018.273860735716
 31
0.0
  0
ARC
  5
3987
  8
AM_0
 10
354.09400649148171
 20
1021.273860735717
 30
0.0
 40
3.0
 50
270.0
 51
0.0
  0
LINE
  5
3988
  8
AM_0
 10
360.05672149148199
 20
1071.593489735717
 30
0.0
 11
384.82700849148171
 21
1082.6453507357171
 31
0.0
  0
LINE
  5
3989
  8
AM_0
 10
360.05672149148199
 20
1056.037139735716
 30
0.0
 11
384.82700849148171
 21
1067.089001735716
 31
0.0
  0
ARC
  5
398A
  8
AM_0
 10
362.09400649148171
 20
1051.4710187357171
 30
0.0
 40
5.0
 50
114.0451930000003
 51
180.0
  0
ARC
  5
398B
  8
AM_0
 10
362.09400649148171
 20
1067.027367735717
 30
0.0
 40
5.0
 50
114.0451930000003
 51
180.0
  0
ARC
  5
398C
  8
AM_0
 10
386.86429449148193
 20
1062.522879735717
 30
0.0
 40
5.0
 50
92.000000000003666
 51
114.0451930000003
  0
ARC
  5
398D
  8
AM_0
 10
362.09400649148171
 20
1087.368783735717
 30
0.0
 40
5.0
 50
91.500000000002629
 51
150.7208910000015
  0
ARC
  5
398E
  8
AM_0
 10
386.86429449148193
 20
1078.079228735716
 30
0.0
 40
5.0
 50
92.000000000003666
 51
114.0451930000003
  0
LINE
  5
398F
  8
AM_0
 10
415.09461649148182
 20
1084.068101735716
 30
0.0
 11
415.09461649148182
 21
1068.511751735716
 31
0.0
  0
LINE
  5
3990
  8
AM_0
 10
416.09400649148159
 20
1085.103000735716
 30
0.0
 11
416.09400649148159
 21
1069.546651735717
 31
0.0
  0
LINE
  5
3991
  8
AM_0
 10
388.09400649148171
 20
1069.5529027357161
 30
0.0
 11
388.09400649148171
 21
1081.033104735717
 31
0.0
  0
LINE
  5
3992
  8
AM_0
 10
415.09461649148182
 20
1068.511751735716
 30
0.0
 11
416.09400649148159
 21
1069.546651735717
 31
0.0
  0
LINE
  5
3993
  8
AM_0
 10
415.09461649148182
 20
1084.068101735716
 30
0.0
 11
416.09400649148159
 21
1085.103000735716
 31
0.0
  0
LINE
  5
3994
  8
AM_0
 10
416.09400649148159
 20
1092.250353735717
 30
0.0
 11
416.09400649148159
 21
1085.103000735716
 31
0.0
  0
LINE
  5
3995
  8
AM_0
 10
357.09400649148171
 20
1315.2738607357151
 30
0.0
 11
357.09400649148171
 21
1168.2738607357171
 31
0.0
  0
LINE
  5
3996
  8
AM_0
 10
386.68979649148167
 20
1269.0278877357171
 30
0.0
 11
415.09461649148182
 21
1268.0359697357151
 31
0.0
  0
LINE
  5
3997
  8
AM_0
 10
415.09461649148182
 20
1252.479620735716
 30
0.0
 11
386.68979649148167
 21
1253.471538735716
 31
0.0
  0
LINE
  5
3998
  8
AM_0
 10
414.39701449148163
 20
1242.807621735717
 30
0.0
 11
361.96312249148201
 21
1244.180651735717
 31
0.0
  0
LINE
  5
3999
  8
AM_0
 10
418.09400649148182
 20
1286.273860795668
 30
0.0
 11
361.96312249148201
 21
1287.743699735717
 31
0.0
  0
ARC
  5
399A
  8
AM_0
 10
362.09400649148171
 20
1269.5203547357171
 30
0.0
 40
5.0
 50
180.0
 51
245.95480699999951
  0
LINE
  5
399B
  8
AM_0
 10
360.05672149148199
 20
1264.954232735716
 30
0.0
 11
384.82700849148171
 21
1253.9023717357161
 31
0.0
  0
ARC
  5
399C
  8
AM_0
 10
362.09400649148171
 20
1249.178937735717
 30
0.0
 40
5.0
 50
209.2791089999985
 51
268.49999999999733
  0
ARC
  5
399D
  8
AM_0
 10
386.86429449148193
 20
1258.468492735715
 30
0.0
 40
5.0
 50
245.95480699999951
 51
267.99999999999631
  0
LINE
  5
399E
  8
AM_0
 10
337.09400649148182
 20
1318.273860735716
 30
0.0
 11
354.09400649148171
 21
1318.273860735716
 31
0.0
  0
LINE
  5
399F
  8
AM_0
 10
360.05672149148199
 20
1280.510581735716
 30
0.0
 11
384.82700849148171
 21
1269.458720735717
 31
0.0
  0
ARC
  5
39A0
  8
AM_0
 10
362.09400649148171
 20
1292.7419867357171
 30
0.0
 40
5.0
 50
180.0
 51
268.49999999999733
  0
ARC
  5
39A1
  8
AM_0
 10
362.09400649148171
 20
1285.0767037357159
 30
0.0
 40
5.0
 50
180.0
 51
245.95480699999951
  0
ARC
  5
39A2
  8
AM_0
 10
386.86429449148193
 20
1274.0248417357161
 30
0.0
 40
5.0
 50
245.95480699999951
 51
267.99999999999631
  0
ARC
  5
39A3
  8
AM_0
 10
354.09400649148171
 20
1315.2738607357151
 30
0.0
 40
3.0
 50
0.0
 51
90.0
  0
LINE
  5
39A4
  8
AM_0
 10
415.09461649148182
 20
1268.0359697357151
 30
0.0
 11
416.09400649148159
 21
1267.001070735716
 31
0.0
  0
LINE
  5
39A5
  8
AM_0
 10
415.09461649148182
 20
1252.479620735716
 30
0.0
 11
415.09461649148182
 21
1268.0359697357151
 31
0.0
  0
LINE
  5
39A6
  8
AM_0
 10
388.09400649148171
 20
1266.9948187357161
 30
0.0
 11
388.09400649148171
 21
1255.514617735716
 31
0.0
  0
LINE
  5
39A7
  8
AM_0
 10
415.09461649148182
 20
1252.479620735716
 30
0.0
 11
416.09400649148159
 21
1251.444721735716
 31
0.0
  0
LINE
  5
39A8
  8
AM_0
 10
416.09400649148159
 20
1244.2973677357161
 30
0.0
 11
416.09400649148159
 21
1251.444721735716
 31
0.0
  0
LINE
  5
39A9
  8
AM_0
 10
416.09400649148159
 20
1251.444721735716
 30
0.0
 11
416.09400649148159
 21
1267.001070735716
 31
0.0
  0
TEXT
  5
3C50
  8
AM_0
 10
1076.0949027878689
 20
1252.553384590648
 30
0.0
 40
20.0
  1
VX55-080A~VX55-120A
  0
ENDSEC
  0
EOF
