  0
SECTION
  2
HEADER
  9
$ACADVER
  1
AC1009
  9
$INSBASE
 10
0.0
 20
0.0
 30
0.0
  9
$EXTMIN
 10
409.40286699985472
 20
384.16930740324
 30
-0.0000000349181948
  9
$EXTMAX
 10
1360.3698155826071
 20
1208.8384824970831
 30
0.0000000814935747
  9
$LIMMIN
 10
0.0
 20
0.0
  9
$LIMMAX
 10
1707.0
 20
1110.0
  9
$ORTHOMODE
 70
     0
  9
$REGENMODE
 70
     1
  9
$FILLMODE
 70
     1
  9
$QTEXTMODE
 70
     0
  9
$MIRRTEXT
 70
     1
  9
$DRAGMODE
 70
     2
  9
$LTSCALE
 40
6.0
  9
$OSMODE
 70
   551
  9
$ATTMODE
 70
     1
  9
$TEXTSIZE
 40
2.5
  9
$TRACEWID
 40
1.0
  9
$TEXTSTYLE
  7
STANDARD
  9
$CLAYER
  8
AM_0
  9
$CELTYPE
  6
BYLAYER
  9
$CECOLOR
 62
   256
  9
$DIMSCALE
 40
6.0
  9
$DIMASZ
 40
2.5
  9
$DIMEXO
 40
1.0
  9
$DIMDLI
 40
8.0
  9
$DIMRND
 40
0.0
  9
$DIMDLE
 40
0.0
  9
$DIMEXE
 40
0.6
  9
$DIMTP
 40
0.1
  9
$DIMTM
 40
0.1
  9
$DIMTXT
 40
2.5
  9
$DIMCEN
 40
0.0
  9
$DIMTSZ
 40
0.0
  9
$DIMTOL
 70
     0
  9
$DIMLIM
 70
     0
  9
$DIMTIH
 70
     0
  9
$DIMTOH
 70
     0
  9
$DIMSE1
 70
     0
  9
$DIMSE2
 70
     0
  9
$DIMTAD
 70
     1
  9
$DIMZIN
 70
     8
  9
$DIMBLK
  1

  9
$DIMASO
 70
     1
  9
$DIMSHO
 70
     1
  9
$DIMPOST
  1

  9
$DIMAPOST
  1
"
  9
$DIMALT
 70
     0
  9
$DIMALTD
 70
     2
  9
$DIMALTF
 40
0.0393701
  9
$DIMLFAC
 40
1.0
  9
$DIMTOFL
 70
     1
  9
$DIMTVP
 40
0.0
  9
$DIMTIX
 70
     0
  9
$DIMSOXD
 70
     0
  9
$DIMSAH
 70
     0
  9
$DIMBLK1
  1

  9
$DIMBLK2
  1

  9
$DIMSTYLE
  2
AM_ISO
  9
$DIMCLRD
 70
   256
  9
$DIMCLRE
 70
   256
  9
$DIMCLRT
 70
     4
  9
$DIMTFAC
 40
0.71
  9
$DIMGAP
 40
0.8
  9
$LUNITS
 70
     2
  9
$LUPREC
 70
     2
  9
$SKETCHINC
 40
1.0
  9
$FILLETRAD
 40
30.0
  9
$AUNITS
 70
     0
  9
$AUPREC
 70
     0
  9
$MENU
  1
.
  9
$ELEVATION
 40
0.0
  9
$PELEVATION
 40
0.0
  9
$THICKNESS
 40
0.0
  9
$LIMCHECK
 70
     0
  9
$BLIPMODE
 70
     0
  9
$CHAMFERA
 40
12.0
  9
$CHAMFERB
 40
6.0
  9
$SKPOLY
 70
     0
  9
$TDCREATE
 40
2452067.3859054861
  9
$TDUPDATE
 40
2458541.4799609259
  9
$TDINDWG
 40
0.1222884375
  9
$TDUSRTIMER
 40
0.1222884259
  9
$USRTIMER
 70
     1
  9
$ANGBASE
 50
0.0
  9
$ANGDIR
 70
     0
  9
$PDMODE
 70
     0
  9
$PDSIZE
 40
0.0
  9
$PLINEWID
 40
0.0
  9
$COORDS
 70
     1
  9
$SPLFRAME
 70
     0
  9
$SPLINETYPE
 70
     6
  9
$SPLINESEGS
 70
     8
  9
$ATTDIA
 70
     1
  9
$ATTREQ
 70
     1
  9
$HANDLING
 70
     1
  9
$HANDSEED
  5
39E4
  9
$SURFTAB1
 70
     6
  9
$SURFTAB2
 70
     6
  9
$SURFTYPE
 70
     6
  9
$SURFU
 70
     6
  9
$SURFV
 70
     6
  9
$UCSNAME
  2

  9
$UCSORG
 10
0.0
 20
0.0
 30
0.0
  9
$UCSXDIR
 10
1.0
 20
0.0
 30
0.0
  9
$UCSYDIR
 10
0.0
 20
1.0
 30
0.0
  9
$PUCSNAME
  2

  9
$PUCSORG
 10
0.0
 20
0.0
 30
0.0
  9
$PUCSXDIR
 10
1.0
 20
0.0
 30
0.0
  9
$PUCSYDIR
 10
0.0
 20
1.0
 30
0.0
  9
$USERI1
 70
     0
  9
$USERI2
 70
     0
  9
$USERI3
 70
     0
  9
$USERI4
 70
     0
  9
$USERI5
 70
     0
  9
$USERR1
 40
0.0
  9
$USERR2
 40
0.0
  9
$USERR3
 40
0.0
  9
$USERR4
 40
0.0
  9
$USERR5
 40
0.0
  9
$WORLDVIEW
 70
     1
  9
$SHADEDGE
 70
     3
  9
$SHADEDIF
 70
    70
  9
$TILEMODE
 70
     1
  9
$MAXACTVP
 70
    64
  9
$PLIMCHECK
 70
     0
  9
$PEXTMIN
 10
1.0000000000000000E+020
 20
1.0000000000000000E+020
 30
1.0000000000000000E+020
  9
$PEXTMAX
 10
-1.0000000000000000E+020
 20
-1.0000000000000000E+020
 30
-1.0000000000000000E+020
  9
$PLIMMIN
 10
0.0
 20
0.0
  9
$PLIMMAX
 10
420.0
 20
297.0
  9
$UNITMODE
 70
     0
  9
$VISRETAIN
 70
     1
  9
$PLINEGEN
 70
     0
  9
$PSLTSCALE
 70
     1
  0
ENDSEC
  0
SECTION
  2
TABLES
  0
TABLE
  2
VPORT
 70
     1
  0
VPORT
  2
*ACTIVE
 70
     0
 10
0.0
 20
0.0
 11
1.0
 21
1.0
 12
884.88634129123079
 22
796.50389495016134
 13
0.0
 23
0.0
 14
15.0
 24
15.0
 15
60.0
 25
60.0
 16
0.0
 26
0.0
 36
1.0
 17
0.0
 27
0.0
 37
0.0
 40
830.33051954528764
 41
1.7571592210767459
 42
50.0
 43
0.0
 44
0.0
 50
0.0
 51
0.0
 71
     0
 72
   100
 73
     1
 74
     3
 75
     0
 76
     0
 77
     0
 78
     0
  0
ENDTAB
  0
TABLE
  2
LTYPE
 70
    27
  0
LTYPE
  2
CONTINUOUS
 70
     0
  3
Solid line
 72
    65
 73
     0
 40
0.0
  0
LTYPE
  2
AM_ISO02W050
 70
     0
  3
__ __ __ __ __ __ __ __ __ __ __ __ __ __ __
 72
    65
 73
     2
 40
7.5
 49
6.0
 49
-1.5
  0
LTYPE
  2
AM_ISO08W050
 70
     0
  3
____ . ____ . ____ . ____ . ____ . ____ . ____
 72
    65
 73
     4
 40
18.0
 49
12.0
 49
-1.5
 49
3.0
 49
-1.5
  0
LTYPE
  2
AM_ISO09W050
 70
     0
  3
_____ . . _____ . . _____ . . ____ .. ____
 72
    65
 73
     6
 40
22.5
 49
12.0
 49
-1.5
 49
3.0
 49
-1.5
 49
3.0
 49
-1.5
  0
LTYPE
  2
AMCONSTR
 70
     0
  3
_______________________
 72
    65
 73
     2
 40
9999.0
 49
9999.0
 49
0.0
  0
LTYPE
  2
AM_ISO08W050X2
 70
     0
  3
__ . __ . __ . __ . __ . __
 72
    65
 73
     4
 40
9.0
 49
6.0
 49
-0.75
 49
1.5
 49
-0.75
  0
LTYPE
  2
AM_ISO02W050X2
 70
     0
  3
 _ _ _ _ _ _ _ _ _ _ _ _
 72
    65
 73
     2
 40
3.75
 49
3.0
 49
-0.75
  0
LTYPE
  2
AMZIGZAG
 70
     0
  3
/\/-/\/-/\/-/\/-/\/-/\/
 72
    65
 73
     2
 40
11.000099999999991
 49
0.0001
 49
-11.0
  0
LTYPE
  2
ACISOWELD
 70
     0
  3
_ _ _ _ _
 72
    65
 73
     2
 40
2.0
 49
2.0
 49
-1.0
  0
LTYPE
  2
ACISOTGB
 70
     0
  3
__ . . __ . .
 72
    65
 73
     6
 40
9.0
 49
4.0
 49
-1.0
 49
1.0
 49
-1.0
 49
1.0
 49
-1.0
  0
LTYPE
  2
ACISOTGL
 70
     0
  3
_ _ _ _ _
 72
    65
 73
     2
 40
3.0
 49
2.0
 49
-1.0
  0
LTYPE
  2
CENTER
 70
     0
  3
__ . __
 72
    65
 73
     4
 40
7.0
 49
4.0
 49
-1.0
 49
1.0
 49
-1.0
  0
LTYPE
  2
PHANTOM2
 70
     0
  3
Phantom (.5x) ___ _ _ ___ _ _ ___ _ _ ___ _ _
 72
    65
 73
     6
 40
31.75
 49
15.875
 49
-3.174999999999998
 49
3.174999999999998
 49
-3.174999999999998
 49
3.174999999999998
 49
-3.174999999999998
  0
LTYPE
  2
ACANSTGBM
 70
     0
  3
__ . . __ . .
 72
    65
 73
     6
 40
9.0
 49
4.0
 49
-1.0
 49
1.0
 49
-1.0
 49
1.0
 49
-1.0
  0
LTYPE
  2
ACANSTGLM
 70
     0
  3
_ _ _ _ _
 72
    65
 73
     2
 40
3.0
 49
2.0
 49
-1.0
  0
LTYPE
  2
GEN7
 70
     0
  3
____ . ____ . ____ . ____ . ____ . ____ . ____
 72
    65
 73
     4
 40
14.25
 49
9.75
 49
-1.5
 49
1.5
 49
-1.5
  0
LTYPE
  2
GEN3B
 70
     0
  3
 - - - - -
 72
    65
 73
     2
 40
1.0
 49
0.5
 49
-0.5
  0
LTYPE
  2
GEN7A
 70
     0
  3
__ . __ . __
 72
    65
 73
     4
 40
7.375
 49
4.75
 49
-0.875
 49
0.875
 49
-0.875
  0
LTYPE
  2
ACJISTGB
 70
     0
  3
__ . . __ . .
 72
    65
 73
     6
 40
9.0
 49
4.0
 49
-1.0
 49
1.0
 49
-1.0
 49
1.0
 49
-1.0
  0
LTYPE
  2
ACJISTGL
 70
     0
  3
_ _ _ _ _
 72
    65
 73
     2
 40
3.0
 49
2.0
 49
-1.0
  0
LTYPE
  2
HIDDEN
 70
     0
  3
Hidden __ __ __ __ __ __ __ __ __ __ __ __ __ _
 72
    65
 73
     2
 40
0.375
 49
0.25
 49
-0.125
  0
LTYPE
  2
CENTER2
 70
     0
  3
Center (.5x) ___ _ ___ _ ___ _ ___ _ ___ _ ___
 72
    65
 73
     4
 40
1.125
 49
0.75
 49
-0.125
 49
0.125
 49
-0.125
  0
LTYPE
  2
HIDDEN2
 70
     0
  3
Hidden (.5x) _ _ _ _ _ _ _ _ _ _ _ _ _ _ _ _ _
 72
    65
 73
     2
 40
0.1875
 49
0.125
 49
-0.0625
  0
LTYPE
  2
AMZIGZAG2
 70
     0
  3
/\/-/\/-/\/-/\/-/\/-/\/
 72
    65
 73
     2
 40
0.4401
 49
0.0001
 49
-0.4400000000000002
  0
LTYPE
  2
ACANSTGB
 70
     0
  3
__ . . __ . .
 72
    65
 73
     6
 40
0.35433070866
 49
0.15748031496
 49
-0.03937007874
 49
0.03937007874
 49
-0.03937007874
 49
0.03937007874
 49
-0.03937007874
  0
LTYPE
  2
ACANSTGL
 70
     0
  3
_ _ _ _ _
 72
    65
 73
     2
 40
0.11811023622
 49
0.07874015748
 49
-0.03937007874
  0
ENDTAB
  0
TABLE
  2
LAYER
 70
     7
  0
LAYER
  2
0
 70
     0
 62
     7
  6
CONTINUOUS
  0
LAYER
  2
AM_0
 70
     0
 62
     7
  6
CONTINUOUS
  0
LAYER
  2
AM_5
 70
     0
 62
     2
  6
CONTINUOUS
  0
LAYER
  2
DEFPOINTS
 70
     0
 62
     7
  6
CONTINUOUS
  0
LAYER
  2
ｶｸﾚｾﾝ2
 70
     0
 62
     3
  6
GEN3B
  0
LAYER
  2
ﾁｭｳｼﾝｾﾝ
 70
     0
 62
     1
  6
GEN7
  0
LAYER
  2
ﾁｭｳｼﾝｾﾝ1
 70
     0
 62
     1
  6
GEN7A
  0
ENDTAB
  0
TABLE
  2
STYLE
 70
     9
  0
STYLE
  2
STANDARD
 70
     0
 40
0.0
 41
0.8299999999999999
 50
0.0
 71
     0
 42
2.5
  3
txt.shx
  4
bigfont.shx
  0
STYLE
  2
ANNOTATIVE
 70
     0
 40
0.0
 41
1.0
 50
0.0
 71
     0
 42
0.2
  3
txt
  4

  0
STYLE
  2

 70
     1
 40
0.0
 41
1.0
 50
0.0
 71
     0
 42
2.5
  3
ltypeshp.shx
  4

  0
STYLE
  2
ACISOTS
 70
     0
 40
1.0
 41
1.0
 50
0.0
 71
     0
 42
2.5
  3
isocp.shx
  4
extfont.shx
  0
STYLE
  2
ACISOGDT
 70
     0
 40
0.0
 41
1.0
 50
0.0
 71
     0
 42
2.5
  3
amgdt.shx
  4

  0
STYLE
  2
ACANSTS
 70
     0
 40
1.0
 41
1.0
 50
0.0
 71
     0
 42
2.5
  3
romans.shx
  4
bigfont.shx
  0
STYLE
  2
ACANSGDT
 70
     0
 40
0.0
 41
1.0
 50
0.0
 71
     0
 42
2.5
  3
amgdt.shx
  4

  0
STYLE
  2
ACJISTS
 70
     0
 40
1.0
 41
1.0
 50
0.0
 71
     0
 42
2.5
  3
isocp.shx
  4
bigfont.shx
  0
STYLE
  2
ACJISGDT
 70
     0
 40
0.0
 41
1.0
 50
0.0
 71
     0
 42
2.5
  3
amgdt.shx
  4

  0
ENDTAB
  0
TABLE
  2
VIEW
 70
     6
  0
VIEW
  2
AM_VIEW1
 70
     0
 40
555.00000000000011
 10
499.2955801104971
 20
832.50000000000011
 41
998.59116022099431
 11
0.0
 21
0.0
 31
1.0
 12
0.0
 22
0.0
 32
0.0
 42
50.0
 43
0.0
 44
0.0
 50
0.0
 71
     0
  0
VIEW
  2
AM_VIEW2
 70
     0
 40
555.00000000000011
 10
1207.704419889501
 20
832.50000000000011
 41
998.59116022099431
 11
0.0
 21
0.0
 31
1.0
 12
0.0
 22
0.0
 32
0.0
 42
50.0
 43
0.0
 44
0.0
 50
0.0
 71
     0
  0
VIEW
  2
AM_VIEW3
 70
     0
 40
555.00000000000011
 10
499.2955801104971
 20
277.49999999999989
 41
998.59116022099431
 11
0.0
 21
0.0
 31
1.0
 12
0.0
 22
0.0
 32
0.0
 42
50.0
 43
0.0
 44
0.0
 50
0.0
 71
     0
  0
VIEW
  2
AM_VIEW4
 70
     0
 40
555.00000000000011
 10
1207.704419889501
 20
277.49999999999989
 41
998.59116022099431
 11
0.0
 21
0.0
 31
1.0
 12
0.0
 22
0.0
 32
0.0
 42
50.0
 43
0.0
 44
0.0
 50
0.0
 71
     0
  0
VIEW
  2
AM_VIEW5
 70
     0
 40
555.00000000000011
 10
853.5
 20
555.00000000000011
 41
998.59116022099431
 11
0.0
 21
0.0
 31
1.0
 12
0.0
 22
0.0
 32
0.0
 42
50.0
 43
0.0
 44
0.0
 50
0.0
 71
     0
  0
VIEW
  2
AM_VIEW6
 70
     0
 40
1109.9889000000001
 10
853.5
 20
555.0
 41
1997.162348618785
 11
0.0
 21
0.0
 31
1.0
 12
0.0
 22
0.0
 32
0.0
 42
50.0
 43
0.0
 44
0.0
 50
0.0
 71
     0
  0
ENDTAB
  0
TABLE
  2
UCS
 70
     0
  0
ENDTAB
  0
TABLE
  2
APPID
 70
    95
  0
APPID
  2
ACAD
 70
     0
  0
APPID
  2
ACADANNOTATIVE
 70
     0
  0
APPID
  2
MCAD_NO_VIS
 70
     0
  0
APPID
  2
ACAD_TEMP_GRAPHIC
 70
     0
  0
APPID
  2
ACATTRIBSERVICES
 70
     0
  0
APPID
  2
GENIUS_GENREC_14
 70
     0
  0
APPID
  2
GENIUS_GENOBJ-N-REC_13
 70
     0
  0
APPID
  2
GENIUS_GENODEF_13
 70
     0
  0
APPID
  2
GENIUS_GENOLIS_13
 70
     0
  0
APPID
  2
GENIUS_GENOBJ-N-TIT_13
 70
     0
  0
APPID
  2
GENIUS_GENOENT_13
 70
     0
  0
APPID
  2
GENIUS_GENTITLE_13
 70
     0
  0
APPID
  2
GENIUS_GENOREF_13
 70
     0
  0
APPID
  2
GENIUS_GENSCREG_15
 70
     0
  0
APPID
  2
GENIUS_GENOBJ-N-SDF_13
 70
     0
  0
APPID
  2
GENIUS_GENFIL_13
 70
     0
  0
APPID
  2
GENIUS_GENOBJ-N-CHA_13
 70
     0
  0
APPID
  2
GENIUS_GENDTOL_13
 70
     0
  0
APPID
  2
GENIUS_GENOBJ-N-FIL_13
 70
     0
  0
APPID
  2
AD_DRAW
 70
     0
  0
APPID
  2
DESIGNERASSEMBLIES
 70
     0
  0
APPID
  2
ASURF_PCURVE_APPNAME
 70
     0
  0
APPID
  2
GENIUS_GE3SECT_13
 70
     0
  0
APPID
  2
GENIUS_GENCFG_13
 70
     0
  0
APPID
  2
GENIUS_GE3CFG0_13
 70
     0
  0
APPID
  2
GENIUS_GENCFG0_13
 70
     0
  0
APPID
  2
GENIUS_GENCFG1_13
 70
     0
  0
APPID
  2
GENIUS_GENCFG2_13
 70
     0
  0
APPID
  2
GENIUS_GENCFG3_13
 70
     0
  0
APPID
  2
GENIUS_GENCFG4_13
 70
     0
  0
APPID
  2
GENIUS_GEVCFG0_13
 70
     0
  0
APPID
  2
GENIUS_GENHINW_13
 70
     0
  0
APPID
  2
GENIUS_FIRSTVISTXT_14
 70
     0
  0
APPID
  2
GENIUS_GENOBJ-N-LEADER_13
 70
     0
  0
APPID
  2
GEV_VCCNULL_SWITCH_OFF
 70
     0
  0
APPID
  2
GENIUS_GEFCFG0_13
 70
     0
  0
APPID
  2
GENIUS_GENZVEED_13
 70
     0
  0
APPID
  2
GENIUS_GENSCREG_13
 70
     0
  0
APPID
  2
GENIUS_DUMCFG0_13
 70
     0
  0
APPID
  2
GEVID936201362
 70
     0
  0
APPID
  2
GEVDC
 70
     0
  0
APPID
  2
GEVCON
 70
     0
  0
APPID
  2
VCC
 70
     0
  0
APPID
  2
GEVPT
 70
     0
  0
APPID
  2
GEVIT
 70
     0
  0
APPID
  2
GENBH
 70
     0
  0
APPID
  2
GEVMK
 70
     0
  0
APPID
  2
GENIUS_GENBH_13
 70
     0
  0
APPID
  2
GENIUS_GENOBJ-NBEHI-BHF_13
 70
     0
  0
APPID
  2
GENIUS_GENOBJ-NBEHI-BHB_13
 70
     0
  0
APPID
  2
GENIUS_GENOBJ-F-DESC_13
 70
     0
  0
APPID
  2
GENIUS_GEFDESC_14
 70
     0
  0
APPID
  2
GENIUS_GENOBJ-F-PART_13
 70
     0
  0
APPID
  2
GENIUS_GEFSTDP_13
 70
     0
  0
APPID
  2
GENIUS_GEFPARTINS_13
 70
     0
  0
APPID
  2
GENIUS_GENTRA_14
 70
     0
  0
APPID
  2
GENIUS_GENINF13_13
 70
     0
  0
APPID
  2
GENIUS_GENOBJ-N-INFOPT_13
 70
     0
  0
APPID
  2
GENIUS_GENOBJ-N-RSSYM_13
 70
     0
  0
APPID
  2
GENIUS_GENSYMENT_13
 70
     0
  0
APPID
  2
GENIUS_GENSCSYM_13
 70
     0
  0
APPID
  2
GENIUS_GEFINFNAM_13
 70
     0
  0
APPID
  2
GENIUS_GENOBJ-N-CEN_13
 70
     0
  0
APPID
  2
GENIUS_GENOBJ-N-CRS_13
 70
     0
  0
APPID
  2
GENIUS_GENOBJ-N-CRC_13
 70
     0
  0
APPID
  2
GENIUS_GENCRC_14
 70
     0
  0
APPID
  2
GEVID942827039
 70
     0
  0
APPID
  2
GEVID942827040
 70
     0
  0
APPID
  2
GEVID942827041
 70
     0
  0
APPID
  2
GENIUS_GENOBJ-F-SCPASSM_13
 70
     0
  0
APPID
  2
GENIUS_GENDIMSH_14
 70
     0
  0
APPID
  2
GEVID942827042
 70
     0
  0
APPID
  2
GEVID946020473
 70
     0
  0
APPID
  2
GEVID946020474
 70
     0
  0
APPID
  2
GEVID946020475
 70
     0
  0
APPID
  2
GENIUS_GENOBJ-N-HTC_13
 70
     0
  0
APPID
  2
GENIUS_GENHATCH_13
 70
     0
  0
APPID
  2
GEVID948854295
 70
     0
  0
APPID
  2
GEVID939402019
 70
     0
  0
APPID
  2
GEVID952919491
 70
     0
  0
APPID
  2
GEVID952919492
 70
     0
  0
APPID
  2
GENIUS_GEFWELD_13
 70
     0
  0
APPID
  2
GENIUS_GENOBJ-F-WELS_13
 70
     0
  0
APPID
  2
GEVID952919493
 70
     0
  0
APPID
  2
GENIUS_GENOBJ-N-RSBK_13
 70
     0
  0
APPID
  2
GENIUS_GENOBJ-N-LIB_13
 70
     0
  0
APPID
  2
GENIUS_GENSCALE_13
 70
     0
  0
APPID
  2
GEVID986376691
 70
     0
  0
APPID
  2
DCO15
 70
     0
  0
APPID
  2
ACAD_DSTYLE_DIMBREAK
 70
     0
  0
APPID
  2
ACAD_DSTYLE_DIMJAG
 70
     0
  0
APPID
  2
ACAD_NAV_VCDISPLAY
 70
     0
  0
APPID
  2
ACADANNOPO
 70
     0
  0
APPID
  2
ACAD_EXEMPT_FROM_CAD_STANDARDS
 70
     0
  0
APPID
  2
ACAD_MLEADERVER
 70
     0
  0
ENDTAB
  0
TABLE
  2
DIMSTYLE
 70
    22
  0
DIMSTYLE
  2
STANDARD
 70
     0
  3

  4

  5

  6

  7

 40
1.0
 41
0.18
 42
0.0625
 43
0.38
 44
0.18
 45
0.0
 46
0.0
 47
0.0
 48
0.0
140
0.18
141
0.09
142
0.0
143
25.399999999999999
144
1.0
145
0.0
146
1.0
147
0.09
 71
     0
 72
     0
 73
     1
 74
     1
 75
     0
 76
     0
 77
     0
 78
     0
170
     0
171
     2
172
     0
173
     0
174
     0
175
     0
176
     0
177
     0
178
     0
  0
DIMSTYLE
  2
ANNOTATIVE
 70
     0
  3

  4

  5

  6

  7

 40
1.0
 41
0.18
 42
0.0625
 43
0.38
 44
0.18
 45
0.0
 46
0.0
 47
0.0
 48
0.0
140
0.18
141
0.09
142
0.0
143
25.399999999999999
144
1.0
145
0.0
146
1.0
147
0.09
 71
     0
 72
     0
 73
     1
 74
     1
 75
     0
 76
     0
 77
     0
 78
     0
170
     0
171
     2
172
     0
173
     0
174
     0
175
     0
176
     0
177
     0
178
     0
  0
DIMSTYLE
  2
AM_ISO
 70
     0
  3

  4
"
  5

  6

  7

 40
1.0
 41
2.5
 42
1.0
 43
8.0
 44
0.6
 45
0.0
 46
0.0
 47
0.1
 48
0.1
140
2.5
141
0.0
142
0.0
143
0.0393701
144
1.0
145
0.0
146
0.71
147
0.8
 71
     0
 72
     0
 73
     0
 74
     0
 75
     0
 76
     0
 77
     1
 78
     8
170
     0
171
     2
172
     1
173
     0
174
     0
175
     0
176
   256
177
   256
178
     4
  0
DIMSTYLE
  2
AM_ISO$3
 70
     0
  3

  4
"
  5

  6

  7

 40
1.0
 41
2.5
 42
1.0
 43
8.0
 44
0.6
 45
0.0
 46
0.0
 47
0.1
 48
0.1
140
2.5
141
0.0
142
0.0
143
0.0393701
144
1.0
145
0.0
146
0.71
147
0.8
 71
     0
 72
     0
 73
     0
 74
     1
 75
     0
 76
     0
 77
     1
 78
     8
170
     0
171
     2
172
     0
173
     0
174
     0
175
     0
176
   256
177
   256
178
     4
  0
DIMSTYLE
  2
AM_ISO$4
 70
     0
  3

  4
"
  5

  6

  7

 40
1.0
 41
2.5
 42
1.0
 43
8.0
 44
0.6
 45
0.0
 46
0.0
 47
0.1
 48
0.1
140
2.5
141
0.0
142
0.0
143
0.0393701
144
1.0
145
0.0
146
0.71
147
0.8
 71
     0
 72
     0
 73
     0
 74
     1
 75
     0
 76
     0
 77
     1
 78
     8
170
     0
171
     2
172
     0
173
     0
174
     0
175
     0
176
   256
177
   256
178
     4
  0
DIMSTYLE
  2
AM_ISO$6
 70
     0
  3

  4
"
  5

  6

  7

 40
1.0
 41
2.5
 42
1.0
 43
8.0
 44
0.6
 45
0.0
 46
0.0
 47
0.1
 48
0.1
140
2.5
141
0.0
142
0.0
143
0.0393701
144
1.0
145
0.0
146
0.71
147
0.8
 71
     0
 72
     0
 73
     0
 74
     0
 75
     0
 76
     0
 77
     0
 78
     8
170
     0
171
     2
172
     1
173
     0
174
     0
175
     0
176
   256
177
   256
178
     4
  0
DIMSTYLE
  2
AM_ISO$7
 70
     0
  3

  4
"
  5

  6

  7

 40
1.0
 41
2.5
 42
1.0
 43
8.0
 44
0.6
 45
0.0
 46
0.0
 47
0.1
 48
0.1
140
2.5
141
0.0
142
0.0
143
0.0393701
144
1.0
145
0.0
146
0.71
147
0.8
 71
     0
 72
     0
 73
     0
 74
     0
 75
     0
 76
     0
 77
     1
 78
     8
170
     0
171
     2
172
     1
173
     0
174
     0
175
     0
176
   256
177
   256
178
     4
  0
DIMSTYLE
  2
AM_ISO$SF
 70
     0
  3

  4
"
  5

  6

  7

 40
1.0
 41
2.5
 42
1.0
 43
10.0
 44
1.0
 45
0.0
 46
0.0
 47
0.1
 48
0.1
140
3.5
141
0.0
142
0.0
143
0.0393701
144
1.0
145
0.0
146
0.71
147
1.5
 71
     0
 72
     0
 73
     0
 74
     0
 75
     1
 76
     1
 77
     1
 78
     8
170
     0
171
     2
172
     1
173
     0
174
     0
175
     0
176
   256
177
   256
178
     2
  0
DIMSTYLE
  2
AM_ISO$SH
 70
     0
  3

  4
"
  5

  6

  7

 40
1.0
 41
2.5
 42
1.0
 43
10.0
 44
1.0
 45
0.0
 46
0.0
 47
0.1
 48
0.1
140
3.5
141
0.0
142
0.0
143
0.0393701
144
2.0
145
0.0
146
0.71
147
1.5
 71
     0
 72
     0
 73
     0
 74
     0
 75
     1
 76
     1
 77
     1
 78
     8
170
     0
171
     2
172
     1
173
     1
174
     0
175
     0
176
   256
177
   256
178
     2
  0
DIMSTYLE
  2
AM_JIS
 70
     0
  3

  4
"
  5

  6

  7

 40
1.0
 41
2.5
 42
1.0
 43
7.0
 44
1.0
 45
0.0
 46
0.0
 47
0.1
 48
0.1000000001
140
2.5
141
0.0
142
0.0
143
0.0393701
144
1.0
145
0.0
146
0.71
147
1.0
 71
     0
 72
     0
 73
     0
 74
     0
 75
     0
 76
     0
 77
     3
 78
     8
170
     0
171
     2
172
     1
173
     0
174
     0
175
     0
176
   256
177
   256
178
     4
  0
DIMSTYLE
  2
AM_JIS$3
 70
     0
  3

  4
"
  5

  6

  7

 40
1.0
 41
2.5
 42
1.0
 43
7.0
 44
1.0
 45
0.0
 46
0.0
 47
0.1
 48
0.1000000001
140
2.5
141
0.0
142
0.0
143
0.0393701
144
1.0
145
0.0
146
0.71
147
1.0
 71
     0
 72
     0
 73
     0
 74
     1
 75
     0
 76
     0
 77
     3
 78
     8
170
     0
171
     2
172
     0
173
     0
174
     0
175
     0
176
   256
177
   256
178
     4
  0
DIMSTYLE
  2
AM_JIS$4
 70
     0
  3

  4
"
  5

  6

  7

 40
1.0
 41
2.5
 42
1.0
 43
7.0
 44
1.0
 45
0.0
 46
0.0
 47
0.1
 48
0.1000000001
140
2.5
141
0.0
142
0.0
143
0.0393701
144
1.0
145
0.0
146
0.71
147
1.0
 71
     0
 72
     0
 73
     0
 74
     0
 75
     0
 76
     0
 77
     3
 78
     8
170
     0
171
     2
172
     0
173
     0
174
     0
175
     0
176
   256
177
   256
178
     4
  0
DIMSTYLE
  2
AM_JIS$6
 70
     0
  3

  4
"
  5

  6

  7

 40
1.0
 41
2.5
 42
1.0
 43
7.0
 44
1.0
 45
0.0
 46
0.0
 47
0.1
 48
0.1000000001
140
2.5
141
0.0
142
0.0
143
0.0393701
144
1.0
145
0.0
146
0.71
147
1.0
 71
     0
 72
     0
 73
     0
 74
     0
 75
     0
 76
     0
 77
     0
 78
     8
170
     0
171
     2
172
     1
173
     0
174
     0
175
     0
176
   256
177
   256
178
     4
  0
DIMSTYLE
  2
AM_JIS$7
 70
     0
  3

  4
"
  5

  6

  7

 40
1.0
 41
2.5
 42
1.0
 43
7.0
 44
1.0
 45
0.0
 46
0.0
 47
0.1
 48
0.1000000001
140
2.5
141
0.0
142
0.0
143
0.0393701
144
1.0
145
0.0
146
0.71
147
1.0
 71
     0
 72
     0
 73
     0
 74
     0
 75
     0
 76
     0
 77
     3
 78
     8
170
     0
171
     2
172
     1
173
     0
174
     0
175
     0
176
   256
177
   256
178
     4
  0
DIMSTYLE
  2
AM_JIS$SF
 70
     0
  3

  4
"
  5

  6

  7

 40
1.0
 41
2.5
 42
1.0
 43
10.0
 44
1.0
 45
0.0
 46
0.0
 47
0.1
 48
0.1
140
3.5
141
0.0
142
0.0
143
0.0393701
144
1.0
145
0.0
146
0.71
147
1.5
 71
     0
 72
     0
 73
     0
 74
     0
 75
     1
 76
     1
 77
     3
 78
     8
170
     0
171
     2
172
     1
173
     0
174
     0
175
     0
176
   256
177
   256
178
     4
  0
DIMSTYLE
  2
AM_JIS$SH
 70
     0
  3

  4
"
  5

  6

  7

 40
1.0
 41
2.5
 42
1.0
 43
10.0
 44
1.0
 45
0.0
 46
0.0
 47
0.1
 48
0.1
140
3.5
141
0.0
142
0.0
143
0.0393701
144
1.0
145
0.0
146
0.71
147
1.5
 71
     0
 72
     0
 73
     0
 74
     0
 75
     1
 76
     0
 77
     3
 78
     8
170
     0
171
     2
172
     1
173
     1
174
     0
175
     0
176
   256
177
   256
178
     4
  0
DIMSTYLE
  2
AM_ANSI
 70
     0
  3

  4
mm
  5

  6

  7

 40
1.0
 41
0.1
 42
0.05
 43
0.5
 44
0.1
 45
0.0
 46
0.0
 47
0.1
 48
0.1
140
0.12
141
0.0
142
0.0
143
25.399999999999999
144
1.0
145
0.0
146
0.71
147
0.06
 71
     0
 72
     0
 73
     1
 74
     1
 75
     0
 76
     0
 77
     0
 78
     7
170
     0
171
     2
172
     0
173
     0
174
     0
175
     0
176
   256
177
   256
178
     2
  0
DIMSTYLE
  2
AM_ANSI$3
 70
     0
  3

  4
mm
  5

  6

  7

 40
1.0
 41
0.1
 42
0.05
 43
0.5
 44
0.1
 45
0.0
 46
0.0
 47
0.1
 48
0.1
140
0.12
141
0.0
142
0.0
143
25.399999999999999
144
1.0
145
0.0
146
0.71
147
0.06
 71
     0
 72
     0
 73
     1
 74
     1
 75
     0
 76
     0
 77
     0
 78
     7
170
     0
171
     2
172
     0
173
     0
174
     0
175
     0
176
   256
177
   256
178
     2
  0
DIMSTYLE
  2
AM_ANSI$4
 70
     0
  3

  4
mm
  5

  6

  7

 40
1.0
 41
0.1
 42
0.05
 43
0.5
 44
0.1
 45
0.0
 46
0.0
 47
0.1
 48
0.1
140
0.12
141
0.0
142
0.0
143
25.399999999999999
144
1.0
145
0.0
146
0.71
147
0.06
 71
     0
 72
     0
 73
     1
 74
     1
 75
     0
 76
     0
 77
     0
 78
     7
170
     0
171
     2
172
     0
173
     0
174
     0
175
     0
176
   256
177
   256
178
     2
  0
DIMSTYLE
  2
AM_ANSI$7
 70
     0
  3

  4
mm
  5

  6

  7

 40
1.0
 41
0.1
 42
0.05
 43
0.5
 44
0.1
 45
0.0
 46
0.0
 47
0.1
 48
0.1
140
0.24
141
0.0
142
0.0
143
25.399999999999999
144
1.0
145
0.0
146
0.71
147
0.06
 71
     0
 72
     0
 73
     1
 74
     1
 75
     0
 76
     0
 77
     0
 78
     7
170
     0
171
     2
172
     0
173
     0
174
     0
175
     0
176
   256
177
   256
178
     2
  0
DIMSTYLE
  2
AM_ANSI$SF
 70
     0
  3

  4
mm
  5

  6

  7

 40
1.0
 41
0.1
 42
0.05
 43
0.5
 44
0.1
 45
0.0
 46
0.0
 47
0.1
 48
0.1
140
0.12
141
0.0
142
0.0
143
25.399999999999999
144
1.0
145
0.0
146
0.71
147
0.06
 71
     0
 72
     0
 73
     1
 74
     1
 75
     1
 76
     1
 77
     0
 78
     7
170
     0
171
     2
172
     0
173
     0
174
     0
175
     0
176
   256
177
   256
178
     2
  0
DIMSTYLE
  2
AM_ANSI$SH
 70
     0
  3

  4
mm
  5

  6

  7

 40
1.0
 41
0.1
 42
0.05
 43
0.5
 44
0.1
 45
0.0
 46
0.0
 47
0.1
 48
0.1
140
0.12
141
0.0
142
0.0
143
25.399999999999999
144
1.0
145
0.0
146
0.71
147
0.06
 71
     0
 72
     0
 73
     1
 74
     1
 75
     1
 76
     1
 77
     0
 78
     7
170
     0
171
     2
172
     0
173
     1
174
     0
175
     0
176
   256
177
   256
178
     2
  0
ENDTAB
  0
ENDSEC
  0
SECTION
  2
BLOCKS
  0
BLOCK
  8
0
  2
$MODEL_SPACE
 70
     0
 10
0.0
 20
0.0
 30
0.0
  3
$MODEL_SPACE
  1

  0
ENDBLK
  5
3856
  8
0
  0
BLOCK
 67
     1
  8
0
  2
$PAPER_SPACE
 70
     0
 10
0.0
 20
0.0
 30
0.0
  3
$PAPER_SPACE
  1

  0
ENDBLK
  5
3852
 67
     1
  8
0
  0
BLOCK
  8
0
  2
GENAXEH
 70
     0
 10
0.0
 20
0.0
 30
0.0
  3
GENAXEH
  1

  0
LINE
  5
35EC
  8
0
 10
-1.0
 20
0.0
 30
0.0
 11
1.0
 21
0.0
 31
0.0
  0
ENDBLK
  5
35ED
  8
0
  0
BLOCK
  8
0
  2
_OPEN30
 70
     0
 10
0.0
 20
0.0
 30
0.0
  3
_OPEN30
  1

  0
LINE
  5
35F0
  8
0
 62
     0
 10
-1.0
 20
0.26794919
 30
0.0
 11
0.0
 21
0.0
 31
0.0
  0
LINE
  5
35F1
  8
0
 62
     0
 10
0.0
 20
0.0
 30
0.0
 11
-1.0
 21
-0.26794919
 31
0.0
  0
LINE
  5
35F2
  8
0
 62
     0
 10
0.0
 20
0.0
 30
0.0
 11
-1.0
 21
0.0
 31
0.0
  0
ENDBLK
  5
35F3
  8
0
  0
BLOCK
  8
0
  2
_NONE
 70
     0
 10
0.0
 20
0.0
 30
0.0
  3
_NONE
  1

  0
ENDBLK
  5
35F6
  8
0
  0
BLOCK
  8
0
  2
_ACMFILLEDHALF
 70
     0
 10
0.0
 20
0.0
 30
0.0
  3
_ACMFILLEDHALF
  1

  0
TRACE
  5
394E
  8
AM_0
 62
     0
 10
-0.8
 20
0.0
 30
0.0
 11
-1.0
 21
0.166666666
 31
0.0
 12
0.0
 22
0.0
 32
0.0
 13
0.0
 23
0.0
 33
0.0
  0
LINE
  5
394F
  8
AM_0
 62
     0
 10
-1.0
 20
0.0
 30
0.0
 11
-0.8
 21
0.0
 31
0.0
  0
ENDBLK
  5
394D
  8
0
  0
ENDSEC
  0
SECTION
  2
ENTITIES
  0
LINE
  5
35F7
  8
AM_0
 10
758.87845087483754
 20
1051.764738600077
 30
0.0
 11
820.87839087483724
 21
1051.764738600077
 31
0.0
  0
LINE
  5
35F8
  8
AM_0
 10
758.87845087483754
 20
1035.764678600076
 30
0.0
 11
820.87839087483724
 21
1035.764678600076
 31
0.0
  0
LINE
  5
35F9
  8
AM_0
 10
738.87839087483724
 20
1071.264738600077
 30
0.0
 11
820.87839087483724
 21
1071.264738600077
 31
0.0
  0
LINE
  5
35FA
  8
AM_0
 10
738.87839087483724
 20
1016.264738600077
 30
0.0
 11
820.87839087483724
 21
1016.264738600077
 31
0.0
  0
LINE
  5
35FB
  8
ﾁｭｳｼﾝｾﾝ
 10
409.43772822971641
 20
1043.764738600077
 30
0.0
 11
831.49564087483702
 21
1043.764738600077
 31
0.0
  0
LINE
  5
35FC
  8
AM_0
 10
566.37845087483765
 20
943.33577860007711
 30
0.0
 11
566.37845087483765
 21
1024.8504286000771
 31
0.0
  0
LINE
  5
35FD
  8
AM_0
 10
575.87839087483769
 20
914.01100860007671
 30
0.0
 11
575.87839087483769
 21
1020.764738600077
 31
0.0
  0
LINE
  5
35FE
  8
AM_0
 10
506.87845087483743
 20
1163.764738600077
 30
0.0
 11
506.87845087483743
 21
923.76473860007707
 31
0.0
  0
LINE
  5
35FF
  8
AM_0
 10
519.87839087483735
 20
1161.764738600076
 30
0.0
 11
519.87839087483735
 21
925.76473860007707
 31
0.0
  0
LINE
  5
3600
  8
AM_0
 10
585.87845087483765
 20
1038.764738600077
 30
0.0
 11
585.87845087483765
 21
910.76473860007673
 31
0.0
  0
LINE
  5
3601
  8
AM_0
 10
610.87839087483746
 20
911.63771860007705
 30
0.0
 11
610.87839087483746
 21
1175.891688600077
 31
0.0
  0
LINE
  5
3602
  8
AM_0
 10
700.87845087483765
 20
935.6426086000771
 30
0.0
 11
700.87845087483765
 21
1151.8868086000771
 31
0.0
  0
LINE
  5
3603
  8
AM_0
 10
727.87845087483754
 20
1141.135708600076
 30
0.0
 11
727.87845087483754
 21
946.39376860007701
 31
0.0
  0
LINE
  5
3604
  8
AM_0
 10
732.87845087483754
 20
1101.833338600075
 30
0.0
 11
732.87845087483754
 21
985.6961286000768
 31
0.0
  0
LINE
  5
3605
  8
AM_0
 10
738.87839087483724
 20
1073.764738600077
 30
0.0
 11
738.87839087483724
 21
1013.764738600076
 31
0.0
  0
LINE
  5
3606
  8
AM_0
 10
585.87839087483746
 20
910.76473860007673
 30
0.0
 11
610.87845087483765
 21
911.63771860007705
 31
0.0
  0
LINE
  5
3607
  8
AM_0
 10
590.87845087483765
 20
878.76467860007699
 30
0.0
 11
728.05295087483762
 21
883.55495860007704
 31
0.0
  0
ARC
  5
3608
  8
AM_0
 10
571.37845087483731
 20
943.33577860007711
 30
0.0
 40
5.0
 50
180.00001000000091
 51
224.9999999999952
  0
LINE
  5
3609
  8
AM_0
 10
521.87845087483743
 20
931.76473860007695
 30
0.0
 11
573.87839087483735
 21
931.76473860007695
 31
0.0
  0
LINE
  5
360A
  8
AM_0
 10
590.87839087483735
 20
878.76473860007695
 30
0.0
 11
507.7038908748375
 21
881.6692186000771
 31
0.0
  0
CIRCLE
  5
360B
  8
AM_0
 10
532.87845087483743
 20
911.26473860007707
 30
0.0
 40
9.5
  0
LINE
  5
360C
  8
AM_0
 10
502.87845087483743
 20
886.66622860007715
 30
0.0
 11
502.87845087483743
 21
923.76473860007707
 31
0.0
  0
ARC
  5
360D
  8
AM_0
 10
507.87845087483743
 20
886.66622860007715
 30
0.0
 40
5.0
 50
180.00001000000091
 51
268.0000000000029
  0
LINE
  5
360E
  8
AM_0
 10
506.87845087483743
 20
923.76473860007707
 30
0.0
 11
517.87845087483731
 21
923.76473860007707
 31
0.0
  0
ARC
  5
360F
  8
AM_0
 10
521.87845087483743
 20
929.76473860007661
 30
0.0
 40
2.0
 50
90.00000299999769
 51
180.00001000000091
  0
ARC
  5
3610
  8
AM_0
 10
517.87845087483731
 20
925.76473860007707
 30
0.0
 40
2.0
 50
269.999989999999
 51
0.0000006832429909
  0
ARC
  5
3611
  8
AM_0
 10
587.87845087483765
 20
904.31282860007673
 30
0.0
 40
3.0
 50
289.47202000000402
 51
0.0
  0
LINE
  5
3612
  8
AM_0
 10
590.87845087483765
 20
893.706138600077
 30
0.0
 11
590.87845087483765
 21
910.939298600077
 31
0.0
  0
LINE
  5
3613
  8
AM_0
 10
561.87845087483765
 20
891.93801860007704
 30
0.0
 11
588.87845087483765
 21
901.48439860007682
 31
0.0
  0
LINE
  5
3614
  8
AM_0
 10
558.41470087483742
 20
880.1067186000771
 30
0.0
 11
588.87845087483765
 21
890.87770860007709
 31
0.0
  0
ARC
  5
3615
  8
AM_0
 10
560.87845087483765
 20
894.76644860007707
 30
0.0
 40
3.0
 50
180.00001000000091
 51
289.47202999999939
  0
ARC
  5
3616
  8
AM_0
 10
587.87845087483765
 20
893.706138600077
 30
0.0
 40
3.0
 50
289.47202000000402
 51
0.0
  0
LINE
  5
3617
  8
AM_0
 10
574.41397087483745
 20
933.22914860007711
 30
0.0
 11
567.84293087483729
 21
939.80019860007667
 31
0.0
  0
LINE
  5
3618
  8
AM_0
 10
585.87845087483765
 20
910.76473860007673
 30
0.0
 11
578.77371087483755
 21
911.01283860007663
 31
0.0
  0
ARC
  5
3619
  8
AM_0
 10
578.87839087483735
 20
914.01100860007671
 30
0.0
 40
3.0
 50
180.00001000000091
 51
268.0000000000029
  0
ARC
  5
361A
  8
AM_0
 10
573.87839087483735
 20
929.76473860007661
 30
0.0
 40
2.0
 50
0.0
 51
90.00000299999769
  0
ARC
  5
361B
  8
AM_0
 10
570.87839087483735
 20
929.69368860007705
 30
0.0
 40
5.0
 50
0.0
 51
44.999998000001611
  0
LINE
  5
361C
  8
AM_0
 10
519.87839087483735
 20
957.08980860007671
 30
0.0
 11
566.37845087483765
 21
957.08980860007671
 31
0.0
  0
LINE
  5
361D
  8
AM_0
 10
519.87839087483735
 20
972.83187860007683
 30
0.0
 11
566.37845087483765
 21
972.83187860007683
 31
0.0
  0
ARC
  5
361E
  8
AM_0
 10
517.87845087483731
 20
961.59383860007699
 30
0.0
 40
2.0
 50
269.999989999999
 51
0.0000006832429909
  0
LINE
  5
361F
  8
AM_0
 10
506.87845087483743
 20
944.03749860007713
 30
0.0
 11
517.87845087483731
 21
944.03749860007713
 31
0.0
  0
LINE
  5
3620
  8
AM_0
 10
506.87845087483743
 20
959.59383860007654
 30
0.0
 11
517.87845087483731
 21
959.59383860007654
 31
0.0
  0
ARC
  5
3621
  8
AM_0
 10
517.87845087483731
 20
946.03743860007705
 30
0.0
 40
2.0
 50
269.999989999999
 51
0.0000006832429909
  0
LINE
  5
3622
  8
AM_0
 10
507.85733087483732
 20
969.32778860007681
 30
0.0
 11
518.88620087483764
 21
969.32778860007681
 31
0.0
  0
LINE
  5
3623
  8
AM_0
 10
679.45962087483724
 20
927.1691586000768
 30
0.0
 11
693.15768087483764
 21
927.64748860007683
 31
0.0
  0
LINE
  5
3624
  8
ﾁｭｳｼﾝｾﾝ1
 10
683.37845087483765
 20
911.26473860007707
 30
0.0
 11
722.37845087483754
 21
911.26473860007707
 31
0.0
  0
LINE
  5
3625
  8
AM_0
 10
615.02316087483746
 20
915.78249860007702
 30
0.0
 11
664.71841087483745
 21
917.51784860007672
 31
0.0
  0
LINE
  5
3626
  8
AM_0
 10
610.87845087483765
 20
911.63771860007705
 30
0.0
 11
615.02322087483753
 21
915.78243860007672
 31
0.0
  0
LINE
  5
3627
  8
AM_0
 10
667.87845087483765
 20
886.63124860007701
 30
0.0
 11
667.87845087483765
 21
915.17647860007662
 31
0.0
  0
ARC
  5
3628
  8
AM_0
 10
672.87845087483765
 20
886.63124860007701
 30
0.0
 40
5.0
 50
180.00001000000091
 51
271.99999000000111
  0
ARC
  5
3629
  8
AM_0
 10
664.54385087483763
 20
922.51485860007699
 30
0.0
 40
5.0
 50
271.99999999999682
 51
334.42648000000293
  0
ARC
  5
362A
  8
AM_0
 10
679.87845087483765
 20
915.17647860007662
 30
0.0
 40
12.0
 50
91.999998000000787
 51
180.00001000000091
  0
ARC
  5
362B
  8
AM_0
 10
708.87845087483765
 20
936.03920860007702
 30
0.0
 40
8.0
 50
91.999998000000787
 51
180.00001000000091
  0
ARC
  5
362C
  8
AM_0
 10
727.87845087483754
 20
938.9775086000767
 30
0.0
 40
5.0
 50
0.0
 51
67.975688999998823
  0
CIRCLE
  5
362D
  8
AM_0
 10
702.87845087483765
 20
911.26473860007707
 30
0.0
 40
9.5
  0
LINE
  5
362E
  8
AM_0
 10
732.87845087483754
 20
888.5519086000769
 30
0.0
 11
732.87845087483754
 21
938.9775086000767
 31
0.0
  0
LINE
  5
362F
  8
ﾁｭｳｼﾝｾﾝ1
 10
702.87845087483765
 20
891.76473860007707
 30
0.0
 11
702.87845087483765
 21
930.76473860007695
 31
0.0
  0
ARC
  5
3630
  8
AM_0
 10
727.87845087483754
 20
888.5519086000769
 30
0.0
 40
5.0
 50
271.99999999999682
 51
0.0
  0
ARC
  5
3631
  8
AM_0
 10
692.87845087483765
 20
935.6426086000771
 30
0.0
 40
8.0
 50
271.99999999999682
 51
0.0
  0
LINE
  5
3632
  8
AM_0
 10
732.87845087483754
 20
1013.764738600076
 30
0.0
 11
738.87839087483724
 21
1013.764738600076
 31
0.0
  0
LINE
  5
3633
  8
AM_0
 10
708.59927087483754
 20
944.03432860007661
 30
0.0
 11
720.15762087483745
 21
944.43794860007711
 31
0.0
  0
ARC
  5
3634
  8
AM_0
 10
719.87845087483765
 20
952.43306860007681
 30
0.0
 40
8.0
 50
271.99999999999682
 51
0.0
  0
ARC
  5
3635
  8
AM_0
 10
730.87845087483754
 20
946.39376860007701
 30
0.0
 40
3.0
 50
180.00001000000091
 51
247.97569000000061
  0
ARC
  5
3636
  8
AM_0
 10
730.87845087483754
 20
985.6961286000768
 30
0.0
 40
2.0
 50
271.99999999999682
 51
0.0
  0
ARC
  5
3637
  8
AM_0
 10
729.87845087483754
 20
981.65877860007663
 30
0.0
 40
2.0
 50
91.999998000000787
 51
180.00001000000091
  0
LINE
  5
3638
  8
AM_0
 10
729.80862087483706
 20
983.65755860007675
 30
0.0
 11
730.94827087483714
 21
983.69734860007702
 31
0.0
  0
LINE
  5
3639
  8
AM_0
 10
590.87839087483735
 20
1208.7646986000771
 30
0.0
 11
728.05289087483754
 21
1203.974498600076
 31
0.0
  0
LINE
  5
363A
  8
AM_0
 10
585.87845087483765
 20
1176.764738600077
 30
0.0
 11
610.87839087483746
 21
1175.891688600077
 31
0.0
  0
CIRCLE
  5
363B
  8
AM_0
 10
532.87845087483743
 20
1176.264738600077
 30
0.0
 40
9.5
  0
LINE
  5
363C
  8
AM_0
 10
502.87845087483743
 20
1200.863248600077
 30
0.0
 11
502.87845087483743
 21
1163.764738600077
 31
0.0
  0
LINE
  5
363D
  8
AM_0
 10
590.87845087483765
 20
1193.8232686000761
 30
0.0
 11
590.87845087483765
 21
1176.590118600076
 31
0.0
  0
LINE
  5
363E
  8
AM_0
 10
566.37845087483765
 20
1062.678978600077
 30
0.0
 11
566.37845087483765
 21
1144.193688600076
 31
0.0
  0
LINE
  5
363F
  8
AM_0
 10
575.87839087483769
 20
1066.764738600076
 30
0.0
 11
575.87839087483769
 21
1173.5184586000771
 31
0.0
  0
LINE
  5
3640
  8
AM_0
 10
585.87845087483765
 20
1176.764738600077
 30
0.0
 11
585.87845087483765
 21
1048.764738600077
 31
0.0
  0
LINE
  5
3641
  8
AM_0
 10
547.87845087483743
 20
1048.764738600077
 30
0.0
 11
587.87845087483765
 21
1048.764738600077
 31
0.0
  0
LINE
  5
3642
  8
AM_0
 10
547.87845087483743
 20
1038.764738600077
 30
0.0
 11
587.87845087483765
 21
1038.764738600077
 31
0.0
  0
ARC
  5
3643
  8
AM_0
 10
547.87845087483743
 20
1043.764738600077
 30
0.0
 40
5.0
 50
90.00000299999769
 51
270.0
  0
ARC
  5
3644
  8
AM_0
 10
561.37845087483731
 20
1062.678978600077
 30
0.0
 40
5.0
 50
288.96566000000257
 51
0.0
  0
ARC
  5
3645
  8
AM_0
 10
567.87839087483769
 20
1066.764738600076
 30
0.0
 40
8.0
 50
270.0001500000019
 51
0.0
  0
ARC
  5
3646
  8
AM_0
 10
567.87845087483765
 20
1043.764738600077
 30
0.0
 40
15.0
 50
90.000146000002943
 51
160.52876999999901
  0
ARC
  5
3647
  8
AM_0
 10
567.87839087483769
 20
1020.764738600077
 30
0.0
 40
8.0
 50
0.0
 51
89.999858999997556
  0
ARC
  5
3648
  8
AM_0
 10
567.87845087483765
 20
1043.764738600077
 30
0.0
 40
12.5
 50
203.5781799999973
 51
336.42182999999471
  0
ARC
  5
3649
  8
AM_0
 10
567.87845087483765
 20
1043.764738600077
 30
0.0
 40
12.5
 50
23.578179999997531
 51
156.42182000000241
  0
ARC
  5
364A
  8
AM_0
 10
567.87845087483765
 20
1043.764738600077
 30
0.0
 40
15.0
 50
199.4712300000005
 51
269.99984999999782
  0
ARC
  5
364B
  8
AM_0
 10
561.37845087483731
 20
1024.8504286000771
 30
0.0
 40
5.0
 50
0.0
 51
71.034342999998159
  0
ARC
  5
364C
  8
AM_0
 10
587.87845087483765
 20
1043.764738600077
 30
0.0
 40
5.0
 50
270.0
 51
90.00000299999769
  0
LINE
  5
364D
  8
AM_0
 10
519.87839087483735
 20
1114.697538600077
 30
0.0
 11
566.37845087483765
 21
1114.697538600077
 31
0.0
  0
LINE
  5
364E
  8
AM_0
 10
519.87839087483735
 20
1130.439598600077
 30
0.0
 11
566.37845087483765
 21
1130.439598600077
 31
0.0
  0
LINE
  5
364F
  8
AM_0
 10
521.87845087483743
 20
1155.7646786000771
 30
0.0
 11
573.87839087483735
 21
1155.7646786000771
 31
0.0
  0
LINE
  5
3650
  8
AM_0
 10
507.85733087483732
 20
1118.201688600077
 30
0.0
 11
518.88620087483764
 21
1118.201688600077
 31
0.0
  0
LINE
  5
3651
  8
AM_0
 10
506.87845087483743
 20
1127.9355686000761
 30
0.0
 11
517.87845087483731
 21
1127.9355686000761
 31
0.0
  0
ARC
  5
3652
  8
AM_0
 10
517.87845087483731
 20
1125.9355086000751
 30
0.0
 40
2.0
 50
0.0
 51
90.00000299999769
  0
ARC
  5
3653
  8
AM_0
 10
521.87845087483743
 20
1157.7646786000771
 30
0.0
 40
2.0
 50
179.9999899999988
 51
270.0
  0
LINE
  5
3654
  8
AM_0
 10
506.87845087483743
 20
1143.4919086000771
 30
0.0
 11
517.87845087483731
 21
1143.4919086000771
 31
0.0
  0
ARC
  5
3655
  8
AM_0
 10
517.87845087483731
 20
1141.4919086000759
 30
0.0
 40
2.0
 50
0.0
 51
90.00000299999769
  0
LINE
  5
3656
  8
AM_0
 10
506.87845087483743
 20
1163.764738600077
 30
0.0
 11
517.87845087483731
 21
1163.764738600077
 31
0.0
  0
ARC
  5
3657
  8
AM_0
 10
517.87845087483731
 20
1161.764738600076
 30
0.0
 40
2.0
 50
0.0
 51
90.00000299999769
  0
LINE
  5
3658
  8
AM_0
 10
567.84286087483736
 20
1147.7292086000771
 30
0.0
 11
574.41391087483726
 21
1154.3002586000771
 31
0.0
  0
ARC
  5
3659
  8
AM_0
 10
571.37845087483731
 20
1144.193688600076
 30
0.0
 40
5.0
 50
135.0000000000046
 51
180.00001000000091
  0
ARC
  5
365A
  8
AM_0
 10
573.87839087483735
 20
1157.7646786000771
 30
0.0
 40
2.0
 50
270.0
 51
0.0
  0
ARC
  5
365B
  8
AM_0
 10
570.87839087483735
 20
1157.835778600077
 30
0.0
 40
5.0
 50
315.0000000000046
 51
0.0
  0
LINE
  5
365C
  8
AM_0
 10
585.87839087483746
 20
1176.764738600077
 30
0.0
 11
578.77371087483755
 21
1176.516628600076
 31
0.0
  0
ARC
  5
365D
  8
AM_0
 10
578.87839087483735
 20
1173.5184586000771
 30
0.0
 40
3.0
 50
91.999998000000787
 51
180.00001000000091
  0
LINE
  5
365E
  8
AM_0
 10
590.87845087483765
 20
1208.7646986000771
 30
0.0
 11
507.7038908748375
 21
1205.860198600077
 31
0.0
  0
ARC
  5
365F
  8
AM_0
 10
507.87845087483743
 20
1200.863248600077
 30
0.0
 40
5.0
 50
91.999998000000787
 51
180.00001000000091
  0
LINE
  5
3660
  8
AM_0
 10
558.41464087483735
 20
1207.422698600077
 30
0.0
 11
588.87845087483765
 21
1196.651638600076
 31
0.0
  0
LINE
  5
3661
  8
AM_0
 10
561.87839087483735
 20
1195.591398600076
 30
0.0
 11
588.87851087483739
 21
1186.045008600076
 31
0.0
  0
ARC
  5
3662
  8
AM_0
 10
560.87845087483765
 20
1192.7629686000771
 30
0.0
 40
3.0
 50
70.527973000001808
 51
180.00001000000091
  0
ARC
  5
3663
  8
AM_0
 10
587.87845087483765
 20
1193.8232686000761
 30
0.0
 40
3.0
 50
0.0
 51
70.527973000001808
  0
ARC
  5
3664
  8
AM_0
 10
587.87845087483765
 20
1183.216578600076
 30
0.0
 40
3.0
 50
0.0
 51
70.527973000001808
  0
CIRCLE
  5
3665
  8
AM_0
 10
702.87845087483765
 20
1176.264738600077
 30
0.0
 40
9.5
  0
LINE
  5
3666
  8
AM_0
 10
732.87845087483754
 20
1198.977508600077
 30
0.0
 11
732.87845087483754
 21
1148.551908600077
 31
0.0
  0
LINE
  5
3667
  8
AM_0
 10
667.87845087483765
 20
1200.8981586000771
 30
0.0
 11
667.87845087483765
 21
1172.352988600077
 31
0.0
  0
LINE
  5
3668
  8
AM_0
 10
679.45962087483724
 20
1160.3603186000751
 30
0.0
 11
693.15762087483745
 21
1159.881988600077
 31
0.0
  0
LINE
  5
3669
  8
AM_0
 10
615.02316087483746
 20
1171.7469786000761
 30
0.0
 11
664.71835087483748
 21
1170.011558600075
 31
0.0
  0
LINE
  5
366A
  8
AM_0
 10
610.87839087483746
 20
1175.891688600077
 30
0.0
 11
615.02316087483746
 21
1171.7469786000761
 31
0.0
  0
ARC
  5
366B
  8
AM_0
 10
664.54385087483763
 20
1165.0146086000759
 30
0.0
 40
5.0
 50
25.5735169999985
 51
88.000000000002998
  0
ARC
  5
366C
  8
AM_0
 10
679.87845087483765
 20
1172.352988600077
 30
0.0
 40
12.0
 50
180.00001000000091
 51
268.0000000000029
  0
LINE
  5
366D
  8
AM_0
 10
732.87845087483754
 20
1073.764738600077
 30
0.0
 11
738.87839087483724
 21
1073.764738600077
 31
0.0
  0
ARC
  5
366E
  8
AM_0
 10
758.87845087483754
 20
1043.7646786000771
 30
0.0
 40
8.0000113999999982
 50
90.00000299999769
 51
270.0
  0
LINE
  5
366F
  8
AM_0
 10
758.87839087483724
 20
1051.764738600077
 30
0.0
 11
758.87839087483724
 21
1035.764678600076
 31
0.0
  0
ARC
  5
3670
  8
AM_0
 10
719.87845087483765
 20
1135.096338600076
 30
0.0
 40
8.0
 50
0.0
 51
88.000000000002998
  0
ARC
  5
3671
  8
AM_0
 10
729.87845087483754
 20
1105.8706886000771
 30
0.0
 40
2.0
 50
180.00001000000091
 51
268.0000000000029
  0
ARC
  5
3672
  8
AM_0
 10
730.87845087483754
 20
1101.833338600075
 30
0.0
 40
2.0
 50
0.0
 51
88.000000000002998
  0
LINE
  5
3673
  8
AM_0
 10
729.80862087483706
 20
1103.871908600076
 30
0.0
 11
730.94821087483717
 21
1103.8321186000751
 31
0.0
  0
LINE
  5
3674
  8
AM_0
 10
708.59921087483735
 20
1143.495078600077
 30
0.0
 11
720.15762087483745
 21
1143.0914586000761
 31
0.0
  0
ARC
  5
3675
  8
AM_0
 10
692.87845087483765
 20
1151.8868086000771
 30
0.0
 40
8.0
 50
0.0
 51
88.000000000002998
  0
ARC
  5
3676
  8
AM_0
 10
708.87845087483765
 20
1151.4901986000771
 30
0.0
 40
8.0
 50
180.00001000000091
 51
268.0000000000029
  0
ARC
  5
3677
  8
AM_0
 10
730.87845087483754
 20
1141.135708600076
 30
0.0
 40
3.0
 50
112.0243099999992
 51
180.00001000000091
  0
ARC
  5
3678
  8
AM_0
 10
727.87845087483754
 20
1148.551908600077
 30
0.0
 40
5.0
 50
292.02430999999922
 51
0.0
  0
ARC
  5
3679
  8
AM_0
 10
672.87845087483765
 20
1200.8981586000771
 30
0.0
 40
5.0
 50
88.000000000002998
 51
180.00001000000091
  0
ARC
  5
367A
  8
AM_0
 10
727.87845087483754
 20
1198.977508600077
 30
0.0
 40
5.0
 50
0.0
 51
88.000000000002998
  0
LINE
  5
367B
  8
AM_0
 10
820.87839087483724
 20
1071.264738600077
 30
0.0
 11
820.87839087483724
 21
1016.264738600077
 31
0.0
  0
LINE
  5
367D
  8
ﾁｭｳｼﾝｾﾝ1
 10
532.87845087483743
 20
891.76473860007707
 30
0.0
 11
532.87845087483743
 21
930.76473860007695
 31
0.0
  0
LINE
  5
367E
  8
ﾁｭｳｼﾝｾﾝ1
 10
513.37845087483743
 20
911.26473860007707
 30
0.0
 11
552.37845087483743
 21
911.26473860007707
 31
0.0
  0
LINE
  5
367F
  8
ﾁｭｳｼﾝｾﾝ1
 10
532.87845087483743
 20
1156.764738600077
 30
0.0
 11
532.87845087483743
 21
1195.764738600077
 31
0.0
  0
LINE
  5
3680
  8
ﾁｭｳｼﾝｾﾝ1
 10
513.37845087483743
 20
1176.264738600077
 30
0.0
 11
552.37845087483743
 21
1176.264738600077
 31
0.0
  0
LINE
  5
3681
  8
ﾁｭｳｼﾝｾﾝ1
 10
702.87845087483765
 20
1156.764738600077
 30
0.0
 11
702.87845087483765
 21
1195.764738600077
 31
0.0
  0
LINE
  5
3682
  8
ﾁｭｳｼﾝｾﾝ1
 10
683.37845087483765
 20
1176.264738600077
 30
0.0
 11
722.37845087483754
 21
1176.264738600077
 31
0.0
  0
ARC
  5
3683
  8
AM_0
 10
450.87844087483751
 20
669.67274522828632
 30
0.0
 40
5.0
 50
180.0
 51
268.49999999999733
  0
LINE
  5
3684
  8
AM_0
 10
610.87839087483758
 20
706.50315422828623
 30
0.0
 11
610.87839087483758
 21
582.31060422828625
 31
0.0
  0
LINE
  5
3685
  8
AM_0
 10
552.87839087483735
 20
707.20460422828614
 30
0.0
 11
552.87839087483735
 21
659.20460422828614
 31
0.0
  0
LINE
  5
3686
  8
AM_0
 10
425.87844087483751
 20
695.20461922828645
 30
0.0
 11
425.87844087483751
 21
395.20461922828628
 31
0.0
  0
LINE
  5
3687
  8
AM_0
 10
445.87844087483762
 20
692.20461922828645
 30
0.0
 11
445.87844087483762
 21
545.20461922828633
 31
0.0
  0
LINE
  5
3688
  8
AM_0
 10
566.37839087483735
 20
674.75445422828625
 30
0.0
 11
566.37839087483735
 21
438.23491922828617
 31
0.0
  0
LINE
  5
3689
  8
AM_0
 10
575.87839087483769
 20
709.92400422828644
 30
0.0
 11
575.87839087483769
 21
458.38643922828601
 31
0.0
  0
LINE
  5
368A
  8
AM_0
 10
585.87839087483758
 20
712.20460422828614
 30
0.0
 11
585.87839087483758
 21
479.59853422828621
 31
0.0
  0
LINE
  5
368B
  8
AM_0
 10
700.87839087483735
 20
694.53180422828609
 30
0.0
 11
700.87839087483735
 21
446.51162422828628
 31
0.0
  0
LINE
  5
368C
  8
AM_0
 10
727.87839087483724
 20
670.62290422828619
 30
0.0
 11
727.87839087483724
 21
423.86486422828608
 31
0.0
  0
LINE
  5
368D
  8
AM_0
 10
590.87839087483758
 20
582.31060422828625
 30
0.0
 11
610.87839087483758
 21
582.31060422828625
 31
0.0
  0
LINE
  5
368E
  8
AM_0
 10
502.87839087483741
 20
390.20461422828618
 30
0.0
 11
732.87839087483724
 21
390.20461422828618
 31
0.0
  0
LINE
  5
368F
  8
ﾁｭｳｼﾝｾﾝ
 10
548.47009087483764
 20
590.20461922828611
 30
0.0
 11
826.30724087483759
 21
590.20461922828611
 31
0.0
  0
LINE
  5
3690
  8
AM_0
 10
445.87844087483762
 20
398.20461922828628
 30
0.0
 11
445.87844087483762
 21
545.20461922828633
 31
0.0
  0
LINE
  5
3691
  8
AM_0
 10
506.87844087483751
 20
665.20465422828624
 30
0.0
 11
506.87844087483751
 21
425.20461422828618
 31
0.0
  0
LINE
  5
3692
  8
AM_0
 10
519.87839087483735
 20
663.20460422828614
 30
0.0
 11
519.87839087483735
 21
427.20458422828619
 31
0.0
  0
LINE
  5
3693
  8
AM_0
 10
590.87839087483758
 20
582.31060422828625
 30
0.0
 11
590.87839087483758
 21
492.44359922828608
 31
0.0
  0
LINE
  5
3694
  8
AM_0
 10
506.87844087483751
 20
427.20461916833392
 30
0.0
 11
450.74755687483758
 21
425.7347802282863
 31
0.0
  0
LINE
  5
3695
  8
AM_0
 10
448.84115587483763
 20
432.96789822828629
 30
0.0
 11
473.61144287483751
 21
444.01976022828632
 31
0.0
  0
LINE
  5
3696
  8
AM_0
 10
448.84115587483763
 20
448.52424822828618
 30
0.0
 11
473.61144287483751
 21
459.57610922828621
 31
0.0
  0
LINE
  5
3697
  8
AM_0
 10
503.18144887483732
 20
470.6708592282863
 30
0.0
 11
450.74755687483758
 21
469.29782922828622
 31
0.0
  0
LINE
  5
3698
  8
AM_0
 10
425.87844087483751
 20
395.20461922828628
 30
0.0
 11
442.87844087483728
 21
395.20461922828628
 31
0.0
  0
ARC
  5
3699
  8
AM_0
 10
442.87844087483728
 20
398.20461922828628
 30
0.0
 40
3.0
 50
270.0
 51
0.0
  0
ARC
  5
369A
  8
AM_0
 10
450.87844087483751
 20
428.40177722828622
 30
0.0
 40
5.0
 50
114.0451930000003
 51
180.0
  0
ARC
  5
369B
  8
AM_0
 10
450.87844087483751
 20
420.73649422828629
 30
0.0
 40
5.0
 50
91.499999999996135
 51
180.0
  0
ARC
  5
369C
  8
AM_0
 10
450.87844087483751
 20
443.95812622828629
 30
0.0
 40
5.0
 50
114.0451930000003
 51
180.0
  0
ARC
  5
369D
  8
AM_0
 10
450.87844087483751
 20
464.29954222828621
 30
0.0
 40
5.0
 50
91.499999999996135
 51
150.7208910000015
  0
LINE
  5
369E
  8
AM_0
 10
502.87839087483741
 20
415.20461422828629
 30
0.0
 11
502.87839087483741
 21
390.20461422828618
 31
0.0
  0
LINE
  5
369F
  8
ｶｸﾚｾﾝ2
 10
542.37839087483735
 20
420.20461422828618
 30
0.0
 11
542.37839087483735
 21
390.20461422828618
 31
0.0
  0
LINE
  5
36A0
  8
ｶｸﾚｾﾝ2
 10
523.37839087483758
 20
420.20461422828618
 30
0.0
 11
523.37839087483758
 21
390.20461422828618
 31
0.0
  0
LINE
  5
36A1
  8
ﾁｭｳｼﾝｾﾝ1
 10
532.87839087483735
 20
424.11248422828629
 30
0.0
 11
532.87839087483735
 21
387.20461422828618
 31
0.0
  0
LINE
  5
36A2
  8
AM_0
 10
507.87839087483718
 20
420.20461422828618
 30
0.0
 11
554.70779087483766
 21
420.20461422828618
 31
0.0
  0
LINE
  5
36A3
  8
AM_0
 10
519.87839087483735
 20
458.52971922828618
 30
0.0
 11
566.37839087483735
 21
458.52971922828618
 31
0.0
  0
LINE
  5
36A4
  8
AM_0
 10
519.87839087483735
 20
474.27181422828608
 30
0.0
 11
566.37839087483735
 21
474.27181422828608
 31
0.0
  0
LINE
  5
36A5
  8
AM_0
 10
521.87844087483745
 20
433.20461422828618
 30
0.0
 11
564.0069408748376
 21
433.20461422828618
 31
0.0
  0
LINE
  5
36A6
  8
AM_0
 10
476.87844087483728
 20
446.48366122828622
 30
0.0
 11
476.87844087483728
 21
457.9638632282863
 31
0.0
  0
LINE
  5
36A7
  8
AM_0
 10
504.87844087483751
 20
462.03375922828621
 30
0.0
 11
504.87844087483751
 21
446.47741022828637
 31
0.0
  0
LINE
  5
36A8
  8
AM_0
 10
503.87905087483762
 20
460.99886022828639
 30
0.0
 11
503.87905087483762
 21
445.44251022828621
 31
0.0
  0
ARC
  5
36A9
  8
AM_0
 10
507.87839087483718
 20
415.20461422828629
 30
0.0
 40
5.0
 50
90.00000299999769
 51
180.00001000000091
  0
LINE
  5
36AA
  8
AM_0
 10
475.47423087483759
 20
444.45059222828621
 30
0.0
 11
503.87905087483762
 21
445.44251022828621
 31
0.0
  0
ARC
  5
36AB
  8
AM_0
 10
475.6487288748375
 20
439.45363822828631
 30
0.0
 40
5.0
 50
91.999999999997186
 51
114.0451930000003
  0
LINE
  5
36AC
  8
AM_0
 10
503.87905087483762
 20
445.44251022828621
 30
0.0
 11
504.87844087483751
 21
446.47741022828637
 31
0.0
  0
LINE
  5
36AD
  8
AM_0
 10
506.87844087483751
 20
425.20461422828618
 30
0.0
 11
517.87839087483735
 21
425.20461422828618
 31
0.0
  0
ARC
  5
36AE
  8
AM_0
 10
517.87839087483735
 20
427.20458422828619
 30
0.0
 40
2.0000000500000001
 50
270.0
 51
0.0
  0
ARC
  5
36AF
  8
AM_0
 10
521.87844087483745
 20
431.20461422828618
 30
0.0
 40
2.0000000500000001
 50
90.00000299999769
 51
180.00001000000091
  0
LINE
  5
36B0
  8
AM_0
 10
506.87844087483751
 20
445.47741422828619
 30
0.0
 11
517.87839087483735
 21
445.47741422828619
 31
0.0
  0
ARC
  5
36B1
  8
AM_0
 10
517.87839087483735
 20
447.47737922828628
 30
0.0
 40
2.0000000500000001
 50
270.0
 51
0.0
  0
LINE
  5
36B2
  8
AM_0
 10
503.87905087483762
 20
460.99886022828639
 30
0.0
 11
475.47423087483759
 21
460.00694122828622
 31
0.0
  0
ARC
  5
36B3
  8
AM_0
 10
475.6487288748375
 20
455.00998722828638
 30
0.0
 40
5.0
 50
91.999999999997186
 51
114.0451930000003
  0
LINE
  5
36B4
  8
AM_0
 10
504.87844087483751
 20
469.18111222828628
 30
0.0
 11
504.87844087483751
 21
462.03375922828621
 31
0.0
  0
LINE
  5
36B5
  8
AM_0
 10
503.87905087483762
 20
460.99886022828639
 30
0.0
 11
504.87844087483751
 21
462.03375922828621
 31
0.0
  0
LINE
  5
36B6
  8
AM_0
 10
506.87844087483751
 20
461.03374922828613
 30
0.0
 11
517.87839087483735
 21
461.03374922828613
 31
0.0
  0
ARC
  5
36B7
  8
AM_0
 10
517.87839087483735
 20
463.0337492282859
 30
0.0
 40
2.0000000500000001
 50
270.0
 51
0.0
  0
LINE
  5
36B8
  8
AM_0
 10
507.85729087483742
 20
470.76766422828592
 30
0.0
 11
518.88619087483767
 21
470.76766422828592
 31
0.0
  0
LINE
  5
36B9
  8
AM_0
 10
559.23039087483755
 20
423.07250422828628
 30
0.0
 11
589.92369087483769
 21
488.1794092282862
 31
0.0
  0
ARC
  5
36BA
  8
AM_0
 10
554.70779087483766
 20
425.20461422828618
 30
0.0
 40
5.0
 50
270.0
 51
334.759470000004
  0
ARC
  5
36BB
  8
AM_0
 10
580.87839087483769
 20
492.44359922828608
 30
0.0
 40
10.0
 50
334.759470000004
 51
0.0
  0
LINE
  5
36BC
  8
ﾁｭｳｼﾝｾﾝ
 10
409.43772822971641
 20
545.20461922828633
 30
0.0
 11
571.45144043069251
 21
545.20461922828633
 31
0.0
  0
LINE
  5
36BD
  8
AM_0
 10
448.84115587483763
 20
657.44134022828632
 30
0.0
 11
473.61144287483751
 21
646.3894792282864
 31
0.0
  0
LINE
  5
36BE
  8
AM_0
 10
448.84115587483763
 20
641.88499122828637
 30
0.0
 11
473.61144287483751
 21
630.83313022828634
 31
0.0
  0
LINE
  5
36BF
  8
AM_0
 10
503.18144887483732
 20
619.73838022828625
 30
0.0
 11
450.74755687483758
 21
621.11141022828633
 31
0.0
  0
LINE
  5
36C0
  8
AM_0
 10
506.87844087483751
 20
663.20461928823852
 30
0.0
 11
450.74755687483758
 21
664.67445822828631
 31
0.0
  0
ARC
  5
36C1
  8
AM_0
 10
450.87844087483751
 20
626.10969622828657
 30
0.0
 40
5.0
 50
209.2791089999983
 51
268.49999999999733
  0
ARC
  5
36C2
  8
AM_0
 10
450.87844087483751
 20
646.45111322828632
 30
0.0
 40
5.0
 50
180.0
 51
245.95480699999951
  0
ARC
  5
36C3
  8
AM_0
 10
450.87844087483751
 20
662.00746222828639
 30
0.0
 40
5.0
 50
180.0
 51
245.95480699999951
  0
LINE
  5
36C4
  8
AM_0
 10
519.87839087483735
 20
616.13744922828607
 30
0.0
 11
566.37839087483735
 21
616.13744922828607
 31
0.0
  0
LINE
  5
36C5
  8
AM_0
 10
519.87839087483735
 20
631.87950422828624
 30
0.0
 11
566.37839087483735
 21
631.87950422828624
 31
0.0
  0
LINE
  5
36C6
  8
AM_0
 10
521.87844087483745
 20
657.20460422828614
 30
0.0
 11
550.87839087483769
 21
657.20460422828614
 31
0.0
  0
LINE
  5
36C7
  8
AM_0
 10
504.87844087483751
 20
621.22812622828633
 30
0.0
 11
504.87844087483751
 21
628.37548022828639
 31
0.0
  0
LINE
  5
36C8
  8
AM_0
 10
507.85729087483742
 20
619.64156922828624
 30
0.0
 11
518.88619087483767
 21
619.64156922828624
 31
0.0
  0
LINE
  5
36C9
  8
AM_0
 10
475.47423087483759
 20
645.9586462282864
 30
0.0
 11
503.87905087483762
 21
644.96672822828634
 31
0.0
  0
LINE
  5
36CA
  8
AM_0
 10
503.87905087483762
 20
629.41037922828627
 30
0.0
 11
475.47423087483759
 21
630.40229722828633
 31
0.0
  0
ARC
  5
36CB
  8
AM_0
 10
475.6487288748375
 20
635.39925122828629
 30
0.0
 40
5.0
 50
245.95480699999951
 51
268.00000000000261
  0
LINE
  5
36CC
  8
AM_0
 10
476.87844087483728
 20
643.92557722828633
 30
0.0
 11
476.87844087483728
 21
632.44537622828625
 31
0.0
  0
LINE
  5
36CD
  8
AM_0
 10
503.87905087483762
 20
629.41037922828627
 30
0.0
 11
504.87844087483751
 21
628.37548022828639
 31
0.0
  0
LINE
  5
36CE
  8
AM_0
 10
504.87844087483751
 20
628.37548022828639
 30
0.0
 11
504.87844087483751
 21
643.93182922828635
 31
0.0
  0
LINE
  5
36CF
  8
AM_0
 10
503.87905087483762
 20
644.96672822828634
 30
0.0
 11
504.87844087483751
 21
643.93182922828635
 31
0.0
  0
LINE
  5
36D0
  8
AM_0
 10
503.87905087483762
 20
629.41037922828627
 30
0.0
 11
503.87905087483762
 21
644.96672822828634
 31
0.0
  0
ARC
  5
36D1
  8
AM_0
 10
475.6487288748375
 20
650.95560022828624
 30
0.0
 40
5.0
 50
245.95480699999951
 51
268.00000000000261
  0
LINE
  5
36D2
  8
AM_0
 10
506.87844087483751
 20
629.37545422828623
 30
0.0
 11
517.87839087483735
 21
629.37545422828623
 31
0.0
  0
LINE
  5
36D3
  8
AM_0
 10
506.87844087483751
 20
644.9318042282863
 30
0.0
 11
517.87839087483735
 21
644.9318042282863
 31
0.0
  0
ARC
  5
36D4
  8
AM_0
 10
517.87839087483735
 20
627.37545422828623
 30
0.0
 40
2.0000000500000001
 50
0.0
 51
90.00000299999769
  0
ARC
  5
36D5
  8
AM_0
 10
517.87839087483735
 20
642.93180422828607
 30
0.0
 40
2.0000000500000001
 50
0.0
 51
90.00000299999769
  0
ARC
  5
36D6
  8
AM_0
 10
521.87844087483745
 20
659.20460422828614
 30
0.0
 40
2.0000000500000001
 50
179.9999899999988
 51
270.0
  0
LINE
  5
36D7
  8
AM_0
 10
506.87844087483751
 20
665.20465422828624
 30
0.0
 11
517.87839087483735
 21
665.20465422828624
 31
0.0
  0
ARC
  5
36D8
  8
AM_0
 10
517.87839087483735
 20
663.20460422828614
 30
0.0
 40
2.0000000500000001
 50
0.0
 51
90.00000299999769
  0
LINE
  5
36D9
  8
AM_0
 10
550.87839087483769
 20
657.20460422828614
 30
0.0
 11
564.37844087483745
 21
657.20460422828614
 31
0.0
  0
ARC
  5
36DA
  8
AM_0
 10
550.87839087483769
 20
659.20460422828614
 30
0.0
 40
2.0000000500000001
 50
270.0
 51
0.0
  0
ARC
  5
36DB
  8
AM_0
 10
564.37844087483745
 20
659.20460422828614
 30
0.0
 40
2.0000000500000001
 50
270.0
 51
0.0
  0
LINE
  5
36DC
  8
AM_0
 10
667.87839087483735
 20
627.1622542282862
 30
0.0
 11
667.87839087483735
 21
430.20461422828618
 31
0.0
  0
LINE
  5
36DD
  8
ｶｸﾚｾﾝ2
 10
693.37839087483735
 20
420.20461422828618
 30
0.0
 11
693.37839087483735
 21
390.20461422828618
 31
0.0
  0
LINE
  5
36DE
  8
ｶｸﾚｾﾝ2
 10
712.37839087483735
 20
420.20461422828618
 30
0.0
 11
712.37839087483735
 21
390.20461422828618
 31
0.0
  0
LINE
  5
36DF
  8
ﾁｭｳｼﾝｾﾝ1
 10
702.87839087483735
 20
424.11248422828629
 30
0.0
 11
702.87839087483735
 21
387.20461422828618
 31
0.0
  0
LINE
  5
36E0
  8
AM_0
 10
732.87839087483724
 20
415.20461422828629
 30
0.0
 11
732.87839087483724
 21
390.20461422828618
 31
0.0
  0
ARC
  5
36E1
  8
AM_0
 10
677.87839087483735
 20
430.20461422828618
 30
0.0
 40
10.0
 50
179.9999899999988
 51
270.0
  0
LINE
  5
36E2
  8
AM_0
 10
667.87839087483735
 20
436.51162422828622
 30
0.0
 11
690.87839087483735
 21
436.51162422828622
 31
0.0
  0
LINE
  5
36E3
  8
AM_0
 10
677.87839087483735
 20
420.20461422828618
 30
0.0
 11
727.87839087483724
 21
420.20461422828618
 31
0.0
  0
ARC
  5
36E4
  8
AM_0
 10
690.87839087483735
 20
446.51162422828628
 30
0.0
 40
10.0
 50
270.0
 51
0.0
  0
ARC
  5
36E5
  8
AM_0
 10
732.87839087483724
 20
423.86486422828608
 30
0.0
 40
5.0
 50
179.9999899999988
 51
240.00000999999969
  0
ARC
  5
36E6
  8
AM_0
 10
727.87839087483724
 20
415.20461422828629
 30
0.0
 40
5.0
 50
0.0
 51
90.00000299999769
  0
LINE
  5
36E7
  8
AM_0
 10
732.87839087483724
 20
560.20461922828633
 30
0.0
 11
738.87839087483724
 21
560.20461922828633
 31
0.0
  0
LINE
  5
36E8
  8
AM_0
 10
732.87839087483724
 20
620.20461922828633
 30
0.0
 11
738.87839087483724
 21
620.20461922828633
 31
0.0
  0
LINE
  5
36E9
  8
AM_0
 10
732.87839087483724
 20
648.27325422828585
 30
0.0
 11
732.87839087483724
 21
532.13601422828617
 31
0.0
  0
ARC
  5
36EA
  8
AM_0
 10
730.87839087483724
 20
532.13601422828617
 30
0.0
 40
2.0000000500000001
 50
271.9999999999971
 51
0.0
  0
LINE
  5
36EB
  8
AM_0
 10
729.80859087483782
 20
530.09740922828632
 30
0.0
 11
730.94814087483724
 21
530.13720422828624
 31
0.0
  0
ARC
  5
36EC
  8
AM_0
 10
729.87839087483724
 20
528.09865922828624
 30
0.0
 40
2.0000000500000001
 50
91.999998000000545
 51
180.00001000000091
  0
ARC
  5
36ED
  8
AM_0
 10
682.87839087483735
 20
627.1622542282862
 30
0.0
 40
15.0
 50
90.00000299999769
 51
180.00001000000091
  0
LINE
  5
36EE
  8
AM_0
 10
682.87839087483735
 20
642.16225422828632
 30
0.0
 11
700.87839087483735
 21
642.16225422828632
 31
0.0
  0
ARC
  5
36EF
  8
AM_0
 10
730.87839087483724
 20
648.27325422828585
 30
0.0
 40
2.0000000500000001
 50
0.0
 51
88.000000000002785
  0
LINE
  5
36F0
  8
AM_0
 10
729.80864087483769
 20
650.3117542282863
 30
0.0
 11
730.94824087483778
 21
650.27195422828618
 31
0.0
  0
ARC
  5
36F1
  8
AM_0
 10
729.87839087483724
 20
652.31060422828625
 30
0.0
 40
2.0000000500000001
 50
179.9999899999988
 51
268.00000999999861
  0
LINE
  5
36F2
  8
AM_0
 10
738.87839087483724
 20
620.20461922828633
 30
0.0
 11
738.87839087483724
 21
560.20461922828633
 31
0.0
  0
LINE
  5
36F3
  8
AM_0
 10
820.87839087483724
 20
621.70461922828633
 30
0.0
 11
820.87839087483724
 21
562.70461922828633
 31
0.0
  0
LINE
  5
36F4
  8
AM_0
 10
738.87839087483724
 20
562.70461922828633
 30
0.0
 11
820.87839087483724
 21
562.70461922828633
 31
0.0
  0
LINE
  5
36F5
  8
AM_0
 10
738.87839087483724
 20
617.70461922828633
 30
0.0
 11
820.87839087483724
 21
617.70461922828633
 31
0.0
  0
LINE
  5
36F6
  8
AM_0
 10
758.87839087483724
 20
621.70461922828633
 30
0.0
 11
820.87839087483724
 21
621.70461922828633
 31
0.0
  0
LINE
  5
36F7
  8
AM_0
 10
758.87839087483724
 20
621.70461922828633
 30
0.0
 11
758.87839087483724
 21
617.70461922828633
 31
0.0
  0
LINE
  5
36F8
  8
AM_0
 10
585.87839087483758
 20
712.20460422828614
 30
0.0
 11
606.05289087483754
 21
711.50005422828644
 31
0.0
  0
LINE
  5
36F9
  8
AM_0
 10
425.87844087483751
 20
695.20461922828645
 30
0.0
 11
442.87844087483728
 21
695.20461922828645
 31
0.0
  0
ARC
  5
36FA
  8
AM_0
 10
442.87844087483728
 20
692.20461922828645
 30
0.0
 40
3.0
 50
0.0
 51
90.0
  0
ARC
  5
36FB
  8
AM_0
 10
567.87839087483735
 20
738.20460422828614
 30
0.0
 40
25.000000499999999
 50
306.46672000000012
 51
233.5332900000034
  0
ARC
  5
36FC
  8
AM_0
 10
557.87839087483735
 20
707.20460422828614
 30
0.0
 40
5.0
 50
90.00000299999769
 51
180.00001000000091
  0
ARC
  5
36FD
  8
AM_0
 10
577.87839087483735
 20
709.92400422828644
 30
0.0
 40
2.0000000500000001
 50
91.999998000000545
 51
180.00001000000091
  0
LINE
  5
36FE
  8
AM_0
 10
575.1024908748376
 20
689.97950422828615
 30
0.0
 11
567.15434087483754
 21
677.42970422828637
 31
0.0
  0
ARC
  5
36FF
  8
AM_0
 10
571.37839087483735
 20
674.75445422828625
 30
0.0
 40
5.0
 50
147.65256000000309
 51
180.00001000000091
  0
ARC
  5
3700
  8
AM_0
 10
570.87839087483769
 20
692.65480422828637
 30
0.0
 40
5.0
 50
327.65256000000318
 51
0.0
  0
LINE
  5
3701
  8
AM_0
 10
557.87839087483735
 20
712.20460422828614
 30
0.0
 11
585.57839087483774
 21
712.20460422828614
 31
0.0
  0
CIRCLE
  5
3702
  8
AM_0
 10
567.87839087483735
 20
738.20460422828614
 30
0.0
 40
15.0
  0
LINE
  5
3703
  8
AM_0
 10
558.08434087483772
 20
721.20460422828614
 30
0.0
 11
577.67239087483756
 21
721.20460422828614
 31
0.0
  0
LINE
  5
3704
  8
AM_0
 10
567.87839087483735
 20
723.20460422828614
 30
0.0
 11
577.35644087483763
 21
721.32560422828624
 31
0.0
  0
LINE
  5
3705
  8
AM_0
 10
555.16379087483756
 20
711.40350422828635
 30
0.0
 11
557.62894087483755
 21
720.60350422828606
 31
0.0
  0
ARC
  5
3706
  8
AM_0
 10
549.45334087483764
 20
713.27435422828614
 30
0.0
 40
6.0
 50
349.72994999999878
 51
53.533291000004859
  0
LINE
  5
3707
  8
AM_0
 10
558.40034087483775
 20
721.32555422828625
 30
0.0
 11
567.87844087483745
 21
723.20460422828614
 31
0.0
  0
ARC
  5
3708
  8
AM_0
 10
558.5948408748377
 20
720.34470422828645
 30
0.0
 40
1.0
 50
101.21328999999869
 51
164.99999000000491
  0
LINE
  5
3709
  8
AM_0
 10
580.37839087483735
 20
712.20460422828614
 30
0.0
 11
578.12794087483735
 21
720.60345422828607
 31
0.0
  0
ARC
  5
370A
  8
AM_0
 10
586.30339087483765
 20
713.27435422828614
 30
0.0
 40
6.0
 50
126.46669999999671
 51
190.27005999999909
  0
LINE
  5
370B
  8
AM_0
 10
585.57839087483774
 20
712.20460422828614
 30
0.0
 11
585.87839087483758
 21
712.20460422828614
 31
0.0
  0
LINE
  5
370C
  8
AM_0
 10
577.80864087483735
 20
711.92280422828628
 30
0.0
 11
585.57839087483774
 21
712.19410422828616
 31
0.0
  0
ARC
  5
370D
  8
AM_0
 10
577.16204087483754
 20
720.34470422828645
 30
0.0
 40
1.0
 50
15.000000000000741
 51
78.786710000001207
  0
LINE
  5
370E
  8
AM_0
 10
613.90669087483764
 20
707.22580422828639
 30
0.0
 11
691.22744087483761
 21
704.52575422828647
 31
0.0
  0
ARC
  5
370F
  8
AM_0
 10
605.87839087483769
 20
706.50315422828623
 30
0.0
 40
5.0
 50
34.887349999997149
 51
88.000000000002785
  0
ARC
  5
3710
  8
AM_0
 10
614.08119087483749
 20
712.22275422828614
 30
0.0
 40
5.0
 50
214.88733999999911
 51
268.00000000000261
  0
ARC
  5
3711
  8
AM_0
 10
710.87839087483746
 20
686.73010422828611
 30
0.0
 40
10.0
 50
179.9999899999988
 51
265.0
  0
ARC
  5
3712
  8
AM_0
 10
690.87839087483735
 20
694.53180422828609
 30
0.0
 40
10.0
 50
0.0
 51
88.000000000002785
  0
LINE
  5
3713
  8
AM_0
 10
710.00679087483752
 20
676.76820422828632
 30
0.0
 11
723.31414087483745
 21
675.6039542282864
 31
0.0
  0
ARC
  5
3714
  8
AM_0
 10
722.87839087483746
 20
670.62290422828619
 30
0.0
 40
5.0
 50
0.0
 51
84.999996999998885
  0
LINE
  5
3715
  8
ﾁｭｳｼﾝｾﾝ
 10
1106.4228924612139
 20
384.20461422828618
 30
0.0
 11
1106.4228924612139
 21
765.31255422828633
 31
0.0
  0
ARC
  5
3716
  8
AM_0
 10
1106.4228924612139
 20
565.20461922828611
 30
0.0
 40
142.0
 50
43.554364000002593
 51
90.00000299999769
  0
ARC
  5
3717
  8
AM_0
 10
1106.4228924612139
 20
575.20461922828633
 30
0.0
 40
100.0
 50
0.0
 51
90.00000299999769
  0
ARC
  5
3718
  8
AM_0
 10
1073.422862461214
 20
598.67101922828624
 30
0.0
 40
100.0
 50
134.59796000000341
 51
180.00001000000091
  0
ARC
  5
3719
  8
AM_0
 10
1106.4228924612139
 20
565.20461922828611
 30
0.0
 40
142.0
 50
90.00000299999769
 51
136.4456399999961
  0
ARC
  5
371A
  8
AM_0
 10
1106.4228924612139
 20
575.20461922828633
 30
0.0
 40
100.0
 50
90.00000299999769
 51
180.00001000000091
  0
ARC
  5
371B
  8
AM_0
 10
1139.4228624612131
 20
598.67101922828624
 30
0.0
 40
100.0
 50
0.0
 51
45.402042999998848
  0
ARC
  5
371C
  8
AM_0
 10
1106.4228924612139
 20
590.20461922828611
 30
0.0
 40
60.0
 50
270.0
 51
90.00000299999769
  0
LINE
  5
371D
  8
AM_0
 10
1106.4228924612139
 20
397.20461422828629
 30
0.0
 11
1196.422862461214
 21
397.20461422828629
 31
0.0
  0
LINE
  5
371E
  8
ﾁｭｳｼﾝｾﾝ
 10
971.68529097031774
 20
545.20461922828633
 30
0.0
 11
1240.694481757097
 21
545.20461922828633
 31
0.0
  0
LINE
  5
371F
  8
AM_0
 10
1106.4228924612139
 20
406.20461422828618
 30
0.0
 11
1165.432202461214
 21
406.20461422828618
 31
0.0
  0
LINE
  5
3720
  8
ﾁｭｳｼﾝｾﾝ
 10
1194.5786211442551
 20
590.20461922828633
 30
0.0
 11
1018.499877801743
 21
590.20461922828633
 31
0.0
  0
LINE
  5
3721
  8
AM_0
 10
941.42287246121475
 20
420.20461422828618
 30
0.0
 11
979.6202474612146
 21
616.71291922828607
 31
0.0
  0
LINE
  5
3722
  8
AM_0
 10
1006.422892461213
 20
432.20458422828619
 30
0.0
 11
1006.422892461213
 21
575.20461922828633
 31
0.0
  0
ARC
  5
3723
  8
AM_0
 10
1106.4228924612139
 20
497.20458422828602
 30
0.0
 40
117.0
 50
179.9999899999988
 51
211.27329999999591
  0
LINE
  5
3724
  8
AM_0
 10
1106.4228924612139
 20
397.20461422828629
 30
0.0
 11
1016.422892461214
 21
397.20461422828629
 31
0.0
  0
ARC
  5
3725
  8
AM_0
 10
1029.6133524612139
 20
404.25295422828628
 30
0.0
 40
10.0
 50
54.999999000001559
 51
135.0
  0
LINE
  5
3726
  8
AM_0
 10
941.42287246121475
 20
420.20461422828618
 30
0.0
 11
941.42287246121475
 21
390.20461422828629
 31
0.0
  0
LINE
  5
3727
  8
ｶｸﾚｾﾝ2
 10
964.42286246121455
 20
420.20461422828618
 30
0.0
 11
964.42286246121455
 21
390.20461422828629
 31
0.0
  0
LINE
  5
3728
  8
AM_0
 10
1011.422892461214
 20
415.20461422828629
 30
0.0
 11
1011.422892461214
 21
390.20461422828629
 31
0.0
  0
LINE
  5
3729
  8
ﾁｭｳｼﾝｾﾝ1
 10
973.9228924612147
 20
424.86586922828621
 30
0.0
 11
973.9228924612147
 21
387.20461422828618
 31
0.0
  0
LINE
  5
372A
  8
ｶｸﾚｾﾝ2
 10
983.42286246121444
 20
420.20461422828618
 30
0.0
 11
983.42286246121444
 21
390.20461422828629
 31
0.0
  0
LINE
  5
372B
  8
AM_0
 10
1014.351817461214
 20
403.13353922828622
 30
0.0
 11
1022.542277461214
 21
411.32402922828618
 31
0.0
  0
LINE
  5
372C
  8
AM_0
 10
1011.422892461214
 20
390.20461422828629
 30
0.0
 11
941.42287246121475
 21
390.20461422828629
 31
0.0
  0
ARC
  5
372D
  8
AM_0
 10
1016.422892461214
 20
392.20461422828629
 30
0.0
 40
5.0
 50
90.00000299999769
 51
180.00001000000091
  0
ARC
  5
372E
  8
AM_0
 10
1021.422892461214
 20
396.06246422828627
 30
0.0
 40
10.0
 50
135.0
 51
180.00001000000091
  0
LINE
  5
372F
  8
AM_0
 10
1006.422892461213
 20
420.20461422828618
 30
0.0
 11
946.42287246121475
 21
420.20461422828618
 31
0.0
  0
ARC
  5
3730
  8
AM_0
 10
946.42287246121475
 20
415.20461422828629
 30
0.0
 40
5.0
 50
90.00000299999769
 51
180.00001000000091
  0
ARC
  5
3731
  8
AM_0
 10
994.42286246121444
 20
432.20458422828619
 30
0.0
 40
12.0
 50
270.0
 51
0.0
  0
ARC
  5
3732
  8
AM_0
 10
1006.422892461213
 20
415.20461422828629
 30
0.0
 40
5.0
 50
0.0
 51
90.00000299999769
  0
ARC
  5
3733
  8
AM_0
 10
1047.4135524612141
 20
416.20461422828618
 30
0.0
 40
10.0
 50
235.0000000000025
 51
270.0
  0
LINE
  5
3734
  8
AM_0
 10
1106.4228924612139
 20
406.20461422828618
 30
0.0
 11
1047.4135524612141
 21
406.20461422828618
 31
0.0
  0
LINE
  5
3735
  8
AM_0
 10
1041.677777461214
 20
408.01308422828617
 30
0.0
 11
1035.3491324612139
 21
412.44448422828623
 31
0.0
  0
ARC
  5
3736
  8
AM_0
 10
1106.4228924612139
 20
545.20461922828633
 30
0.0
 40
150.0
 50
150.9216365801291
 51
191.95926182301031
  0
LINE
  5
3737
  8
AM_0
 10
989.42286246121455
 20
497.16851422828603
 30
0.0
 11
989.42286246121455
 21
641.13840422828605
 31
0.0
  0
ARC
  5
3738
  8
AM_0
 10
1070.9115724612141
 20
598.96770922828625
 30
0.0
 40
93.0
 50
136.4456399999961
 51
169.00000000000131
  0
LINE
  5
3739
  8
AM_0
 10
973.42286246121444
 20
598.67101922828624
 30
0.0
 11
973.42286246121444
 21
584.83031922828616
 31
0.0
  0
ARC
  5
373A
  8
AM_0
 10
999.42286246121444
 20
641.13840422828605
 30
0.0
 40
10.0
 50
149.46391999999909
 51
180.00001000000091
  0
ARC
  5
373B
  8
AM_0
 10
1106.4228924612139
 20
590.20461922828611
 30
0.0
 40
60.0
 50
90.00000299999769
 51
270.0
  0
ARC
  5
373C
  8
AM_0
 10
1106.4228924612139
 20
590.20461922828611
 30
0.0
 40
27.500000499999999
 50
106.91238999999661
 51
73.087596999997956
  0
CIRCLE
  5
373D
  8
AM_0
 10
1106.4228924612139
 20
590.20461922828611
 30
0.0
 40
4.500000049999997
  0
CIRCLE
  5
373E
  8
AM_5
 10
1106.4228924612139
 20
590.20461922828611
 30
0.0
 40
6.0
  0
LINE
  5
373F
  8
AM_0
 10
1098.422862461214
 20
621.70461922828633
 30
0.0
 11
1114.422862461214
 21
621.70461922828633
 31
0.0
  0
LINE
  5
3740
  8
AM_0
 10
1098.422862461214
 20
611.70461922828633
 30
0.0
 11
1114.422862461214
 21
611.70461922828633
 31
0.0
  0
LINE
  5
3741
  8
AM_0
 10
1098.422862461214
 20
611.70461922828633
 30
0.0
 11
1098.422862461214
 21
621.70461922828633
 31
0.0
  0
LINE
  5
3742
  8
AM_0
 10
1114.422862461214
 20
611.70461922828633
 30
0.0
 11
1114.422862461214
 21
621.70461922828633
 31
0.0
  0
LINE
  5
3743
  8
AM_0
 10
1271.422882461213
 20
420.20461422828618
 30
0.0
 11
1233.225522461214
 21
616.71294922828633
 31
0.0
  0
LINE
  5
3744
  8
AM_0
 10
1206.422862461214
 20
432.20458422828619
 30
0.0
 11
1206.422862461214
 21
575.20461922828633
 31
0.0
  0
ARC
  5
3745
  8
AM_0
 10
1106.4228924612139
 20
497.20458422828602
 30
0.0
 40
117.0
 50
328.72670000000397
 51
0.0
  0
LINE
  5
3746
  8
AM_0
 10
1198.493937461215
 20
403.13353922828622
 30
0.0
 11
1190.303447461215
 21
411.32402922828618
 31
0.0
  0
ARC
  5
3747
  8
AM_0
 10
1165.432202461214
 20
416.20461422828618
 30
0.0
 40
10.0
 50
270.0
 51
304.99999999999739
  0
LINE
  5
3748
  8
AM_0
 10
1201.422862461214
 20
415.20461422828629
 30
0.0
 11
1201.422862461214
 21
390.20461422828629
 31
0.0
  0
LINE
  5
3749
  8
ﾁｭｳｼﾝｾﾝ1
 10
1238.922867461215
 20
424.86586922828621
 30
0.0
 11
1238.922867461215
 21
387.20461422828618
 31
0.0
  0
LINE
  5
374A
  8
ｶｸﾚｾﾝ2
 10
1229.422882461213
 20
420.20461422828618
 30
0.0
 11
1229.422882461213
 21
390.20461422828629
 31
0.0
  0
LINE
  5
374B
  8
ｶｸﾚｾﾝ2
 10
1248.422867461215
 20
420.20461422828618
 30
0.0
 11
1248.422867461215
 21
390.20461422828629
 31
0.0
  0
LINE
  5
374C
  8
AM_0
 10
1271.422867461215
 20
420.20461422828618
 30
0.0
 11
1271.422867461215
 21
390.20461422828629
 31
0.0
  0
LINE
  5
374D
  8
AM_0
 10
1201.422862461214
 20
390.20461422828629
 30
0.0
 11
1271.422867461215
 21
390.20461422828629
 31
0.0
  0
ARC
  5
374E
  8
AM_0
 10
1196.422862461214
 20
392.20461422828629
 30
0.0
 40
5.0
 50
0.0
 51
90.00000299999769
  0
ARC
  5
374F
  8
AM_0
 10
1191.4228624612131
 20
396.06246422828627
 30
0.0
 40
10.0
 50
0.0
 51
45.000001000003799
  0
LINE
  5
3750
  8
AM_0
 10
1206.422862461214
 20
420.20461422828618
 30
0.0
 11
1266.422867461215
 21
420.20461422828618
 31
0.0
  0
LINE
  5
3751
  8
AM_0
 10
1171.167982461214
 20
408.01305422828602
 30
0.0
 11
1177.496657461214
 21
412.44445422828591
 31
0.0
  0
ARC
  5
3752
  8
AM_0
 10
1183.2323724612129
 20
404.25295422828628
 30
0.0
 40
10.0
 50
45.000001000003799
 51
124.9999999999972
  0
ARC
  5
3753
  8
AM_0
 10
1218.422862461214
 20
432.20458422828619
 30
0.0
 40
12.0
 50
180.00001000000091
 51
270.0
  0
ARC
  5
3754
  8
AM_0
 10
1206.422862461214
 20
415.20461422828629
 30
0.0
 40
5.0
 50
90.00000299999769
 51
180.00001000000091
  0
ARC
  5
3755
  8
AM_0
 10
1266.422867461215
 20
415.20461422828629
 30
0.0
 40
5.0
 50
0.0
 51
90.00000299999769
  0
ARC
  5
3756
  8
AM_0
 10
1106.4228924612139
 20
545.20461922828633
 30
0.0
 40
150.0
 50
348.04071891005918
 51
29.078436675072599
  0
LINE
  5
3757
  8
AM_0
 10
1223.422862461214
 20
497.16851422828603
 30
0.0
 11
1223.422862461214
 21
641.13840422828605
 31
0.0
  0
ARC
  5
3758
  8
AM_0
 10
1141.9341874612139
 20
598.96770922828625
 30
0.0
 40
93.0
 50
10.999999999998691
 51
43.554364000002593
  0
ARC
  5
3759
  8
AM_0
 10
1213.422862461214
 20
641.13840422828605
 30
0.0
 40
10.0
 50
0.0
 51
30.536085000004341
  0
LINE
  5
375A
  8
AM_0
 10
1239.4228824612139
 20
598.67101922828624
 30
0.0
 11
1239.4228824612139
 21
584.83031922828616
 31
0.0
  0
ARC
  5
375B
  8
AM_0
 10
1106.4228924612139
 20
565.20461922828611
 30
0.0
 40
147.0
 50
45.402042999998848
 51
90.00000299999769
  0
ARC
  5
375C
  8
AM_0
 10
1106.4228924612139
 20
565.20461922828611
 30
0.0
 40
147.0
 50
90.00000299999769
 51
134.59796000000341
  0
LINE
  5
375D
  8
AM_0
 10
1101.422892461213
 20
758.20460422828614
 30
0.0
 11
1101.422892461213
 21
716.20460422828614
 31
0.0
  0
LINE
  5
375E
  8
AM_0
 10
1111.422892461213
 20
758.20460422828614
 30
0.0
 11
1111.422892461213
 21
716.20460422828614
 31
0.0
  0
ARC
  5
375F
  8
AM_0
 10
1106.4228924612139
 20
758.20460422828614
 30
0.0
 40
5.0
 50
359.999989999999
 51
179.9999899999988
  0
LINE
  5
3760
  8
AM_0
 10
1093.776867461213
 20
711.6596542282864
 30
0.0
 11
1096.173382461214
 21
720.60350422828606
 31
0.0
  0
ARC
  5
3761
  8
AM_0
 10
1099.4228624612131
 20
716.20460422828614
 30
0.0
 40
2.0000000500000001
 50
270.0
 51
0.0
  0
LINE
  5
3762
  8
AM_0
 10
1096.9448374612141
 20
721.32555422828625
 30
0.0
 11
1101.422862461214
 21
722.21330422828623
 31
0.0
  0
ARC
  5
3763
  8
AM_0
 10
1097.139292461213
 20
720.34470422828645
 30
0.0
 40
1.0
 50
101.21328999999869
 51
164.99999000000491
  0
LINE
  5
3764
  8
AM_0
 10
1119.068887461214
 20
711.6596542282864
 30
0.0
 11
1116.672407461213
 21
720.60345422828607
 31
0.0
  0
ARC
  5
3765
  8
AM_0
 10
1113.422862461214
 20
716.20460422828614
 30
0.0
 40
2.0000000500000001
 50
179.9999899999988
 51
270.0
  0
LINE
  5
3766
  8
AM_0
 10
1111.422892461213
 20
722.21345422828642
 30
0.0
 11
1115.900952461214
 21
721.32560422828624
 31
0.0
  0
ARC
  5
3767
  8
AM_0
 10
1115.706432461214
 20
720.34470422828645
 30
0.0
 40
1.0
 50
15.000000000000741
 51
78.786710000001207
  0
LINE
  5
3768
  8
AM_0
 10
445.87845087483743
 20
1190.7647236000771
 30
0.0
 11
445.87845087483743
 21
1043.7647236000771
 31
0.0
  0
LINE
  5
3769
  8
AM_0
 10
425.87845087483743
 20
1193.7647236000771
 30
0.0
 11
425.87845087483743
 21
893.7647236000771
 31
0.0
  0
LINE
  5
376A
  8
AM_0
 10
445.87845087483743
 20
896.76472360007699
 30
0.0
 11
445.87845087483743
 21
1043.7647236000771
 31
0.0
  0
LINE
  5
376B
  8
AM_0
 10
425.87845087483743
 20
893.7647236000771
 30
0.0
 11
442.87845087483743
 21
893.7647236000771
 31
0.0
  0
ARC
  5
376C
  8
AM_0
 10
442.87845087483743
 20
896.76472360007699
 30
0.0
 40
3.0
 50
270.0
 51
0.0
  0
LINE
  5
376D
  8
AM_0
 10
503.18145887483729
 20
969.23096360007696
 30
0.0
 11
450.7475668748375
 21
967.85793360007733
 31
0.0
  0
LINE
  5
376E
  8
AM_0
 10
448.84116587483749
 20
947.08435260007661
 30
0.0
 11
473.61145287483708
 21
958.1362136000771
 31
0.0
  0
LINE
  5
376F
  8
AM_0
 10
448.84116587483749
 20
931.528002600077
 30
0.0
 11
473.61145287483708
 21
942.57986460007669
 31
0.0
  0
LINE
  5
3770
  8
AM_0
 10
506.87845087483743
 20
925.76472354012492
 30
0.0
 11
450.7475668748375
 21
924.29488460007701
 31
0.0
  0
ARC
  5
3771
  8
AM_0
 10
450.87845087483743
 20
919.29659860007689
 30
0.0
 40
5.0
 50
91.499999999996135
 51
180.0
  0
ARC
  5
3772
  8
AM_0
 10
450.87845087483743
 20
926.96188160007705
 30
0.0
 40
5.0
 50
114.0451930000003
 51
180.0
  0
ARC
  5
3773
  8
AM_0
 10
450.87845087483743
 20
942.518230600077
 30
0.0
 40
5.0
 50
114.0451930000003
 51
180.0
  0
ARC
  5
3774
  8
AM_0
 10
450.87845087483743
 20
962.85964660007699
 30
0.0
 40
5.0
 50
91.499999999996135
 51
150.7208910000015
  0
LINE
  5
3775
  8
AM_0
 10
503.87906087483742
 20
959.55896460007705
 30
0.0
 11
475.47424087483728
 21
958.56704560007711
 31
0.0
  0
LINE
  5
3776
  8
AM_0
 10
475.47424087483728
 20
943.01069660007715
 30
0.0
 11
503.87906087483742
 21
944.0026146000771
 31
0.0
  0
ARC
  5
3777
  8
AM_0
 10
475.64873887483719
 20
953.57009160007703
 30
0.0
 40
5.0
 50
91.999999999997186
 51
114.0451930000003
  0
ARC
  5
3778
  8
AM_0
 10
475.64873887483719
 20
938.01374260007685
 30
0.0
 40
5.0
 50
91.999999999997186
 51
114.0451930000003
  0
LINE
  5
3779
  8
AM_0
 10
476.87845087483743
 20
945.04376560007711
 30
0.0
 11
476.87845087483743
 21
956.52396760007696
 31
0.0
  0
LINE
  5
377A
  8
AM_0
 10
506.87845087483743
 20
1161.764723660028
 30
0.0
 11
450.7475668748375
 21
1163.234562600077
 31
0.0
  0
LINE
  5
377B
  8
AM_0
 10
503.18145887483729
 20
1118.298484600077
 30
0.0
 11
450.7475668748375
 21
1119.671514600077
 31
0.0
  0
LINE
  5
377C
  8
AM_0
 10
448.84116587483749
 20
1140.445095600076
 30
0.0
 11
473.61145287483708
 21
1129.393234600077
 31
0.0
  0
LINE
  5
377D
  8
AM_0
 10
448.84116587483749
 20
1156.0014446000771
 30
0.0
 11
473.61145287483708
 21
1144.949583600076
 31
0.0
  0
ARC
  5
377E
  8
AM_0
 10
450.87845087483743
 20
1124.669800600077
 30
0.0
 40
5.0
 50
209.2791089999985
 51
268.49999999999733
  0
ARC
  5
377F
  8
AM_0
 10
450.87845087483743
 20
1145.0112176000771
 30
0.0
 40
5.0
 50
180.0
 51
245.95480699999951
  0
ARC
  5
3780
  8
AM_0
 10
450.87845087483743
 20
1160.567566600077
 30
0.0
 40
5.0
 50
180.0
 51
245.95480699999951
  0
ARC
  5
3781
  8
AM_0
 10
450.87845087483743
 20
1168.2328496000771
 30
0.0
 40
5.0
 50
180.0
 51
268.49999999999733
  0
LINE
  5
3782
  8
AM_0
 10
425.87845087483743
 20
1193.7647236000771
 30
0.0
 11
442.87845087483743
 21
1193.7647236000771
 31
0.0
  0
ARC
  5
3783
  8
AM_0
 10
442.87845087483743
 20
1190.7647236000771
 30
0.0
 40
3.0
 50
0.0
 51
90.0
  0
LINE
  5
3784
  8
AM_0
 10
503.87906087483742
 20
1127.970483600076
 30
0.0
 11
475.47424087483728
 21
1128.962401600076
 31
0.0
  0
LINE
  5
3785
  8
AM_0
 10
475.47424087483728
 20
1144.5187506000771
 30
0.0
 11
503.87906087483742
 21
1143.526832600076
 31
0.0
  0
ARC
  5
3786
  8
AM_0
 10
475.64873887483719
 20
1149.515704600077
 30
0.0
 40
5.0
 50
245.95480699999951
 51
268.00000000000261
  0
LINE
  5
3787
  8
AM_0
 10
476.87845087483743
 20
1142.485681600077
 30
0.0
 11
476.87845087483743
 21
1131.005480600076
 31
0.0
  0
ARC
  5
3788
  8
AM_0
 10
475.64873887483719
 20
1133.9593556000771
 30
0.0
 40
5.0
 50
245.95480699999951
 51
268.00000000000261
  0
LINE
  5
3789
  8
AM_0
 10
504.87845087483743
 20
967.741216600077
 30
0.0
 11
504.87845087483743
 21
960.59386360007704
 31
0.0
  0
LINE
  5
378A
  8
AM_0
 10
503.87906087483742
 20
959.55896460007705
 30
0.0
 11
504.87845087483743
 21
960.59386360007704
 31
0.0
  0
LINE
  5
378B
  8
AM_0
 10
503.87906087483742
 20
944.0026146000771
 30
0.0
 11
504.87845087483743
 21
945.03751460007709
 31
0.0
  0
LINE
  5
378C
  8
AM_0
 10
503.87906087483742
 20
959.55896460007705
 30
0.0
 11
503.87906087483742
 21
944.0026146000771
 31
0.0
  0
LINE
  5
378D
  8
AM_0
 10
504.87845087483743
 20
960.59386360007704
 30
0.0
 11
504.87845087483743
 21
945.03751460007709
 31
0.0
  0
LINE
  5
378E
  8
AM_0
 10
504.87845087483743
 20
1119.788230600077
 30
0.0
 11
504.87845087483743
 21
1126.935584600076
 31
0.0
  0
LINE
  5
378F
  8
AM_0
 10
503.87906087483742
 20
1127.970483600076
 30
0.0
 11
503.87906087483742
 21
1143.526832600076
 31
0.0
  0
LINE
  5
3790
  8
AM_0
 10
503.87906087483742
 20
1143.526832600076
 30
0.0
 11
504.87845087483743
 21
1142.491933600076
 31
0.0
  0
LINE
  5
3791
  8
AM_0
 10
504.87845087483743
 20
1126.935584600076
 30
0.0
 11
504.87845087483743
 21
1142.491933600076
 31
0.0
  0
LINE
  5
3792
  8
AM_0
 10
503.87906087483742
 20
1127.970483600076
 30
0.0
 11
504.87845087483743
 21
1126.935584600076
 31
0.0
  0
TEXT
  5
3973
  8
AM_0
 10
986.93755534502804
 20
1064.4928686086189
 30
0.0
 40
20.0
  1
VX75-003A~VX75-020A
  0
ENDSEC
  0
EOF
