  0
SECTION
  2
HEADER
  9
$ACADVER
  1
AC1009
  9
$INSBASE
 10
0.0
 20
0.0
 30
0.0
  9
$EXTMIN
 10
379.31886733104329
 20
343.0128376298494
 30
-0.0000000349181948
  9
$EXTMAX
 10
1373.3931920626119
 20
1221.2285523908181
 30
0.0000000814935747
  9
$LIMMIN
 10
0.0
 20
0.0
  9
$LIMMAX
 10
1707.0
 20
1110.0
  9
$ORTHOMODE
 70
     0
  9
$REGENMODE
 70
     1
  9
$FILLMODE
 70
     1
  9
$QTEXTMODE
 70
     0
  9
$MIRRTEXT
 70
     1
  9
$DRAGMODE
 70
     2
  9
$LTSCALE
 40
6.0
  9
$OSMODE
 70
   551
  9
$ATTMODE
 70
     1
  9
$TEXTSIZE
 40
2.5
  9
$TRACEWID
 40
1.0
  9
$TEXTSTYLE
  7
STANDARD
  9
$CLAYER
  8
AM_0
  9
$CELTYPE
  6
BYLAYER
  9
$CECOLOR
 62
   256
  9
$DIMSCALE
 40
6.0
  9
$DIMASZ
 40
2.5
  9
$DIMEXO
 40
1.0
  9
$DIMDLI
 40
8.0
  9
$DIMRND
 40
0.0
  9
$DIMDLE
 40
0.0
  9
$DIMEXE
 40
0.6
  9
$DIMTP
 40
0.1
  9
$DIMTM
 40
0.1
  9
$DIMTXT
 40
2.5
  9
$DIMCEN
 40
0.0
  9
$DIMTSZ
 40
0.0
  9
$DIMTOL
 70
     0
  9
$DIMLIM
 70
     0
  9
$DIMTIH
 70
     0
  9
$DIMTOH
 70
     0
  9
$DIMSE1
 70
     0
  9
$DIMSE2
 70
     0
  9
$DIMTAD
 70
     1
  9
$DIMZIN
 70
     8
  9
$DIMBLK
  1

  9
$DIMASO
 70
     1
  9
$DIMSHO
 70
     1
  9
$DIMPOST
  1

  9
$DIMAPOST
  1
"
  9
$DIMALT
 70
     0
  9
$DIMALTD
 70
     2
  9
$DIMALTF
 40
0.0393701
  9
$DIMLFAC
 40
1.0
  9
$DIMTOFL
 70
     1
  9
$DIMTVP
 40
0.0
  9
$DIMTIX
 70
     0
  9
$DIMSOXD
 70
     0
  9
$DIMSAH
 70
     0
  9
$DIMBLK1
  1

  9
$DIMBLK2
  1

  9
$DIMSTYLE
  2
AM_ISO
  9
$DIMCLRD
 70
   256
  9
$DIMCLRE
 70
   256
  9
$DIMCLRT
 70
     4
  9
$DIMTFAC
 40
0.71
  9
$DIMGAP
 40
0.8
  9
$LUNITS
 70
     2
  9
$LUPREC
 70
     2
  9
$SKETCHINC
 40
1.0
  9
$FILLETRAD
 40
30.0
  9
$AUNITS
 70
     0
  9
$AUPREC
 70
     0
  9
$MENU
  1
.
  9
$ELEVATION
 40
0.0
  9
$PELEVATION
 40
0.0
  9
$THICKNESS
 40
0.0
  9
$LIMCHECK
 70
     0
  9
$BLIPMODE
 70
     0
  9
$CHAMFERA
 40
12.0
  9
$CHAMFERB
 40
6.0
  9
$SKPOLY
 70
     0
  9
$TDCREATE
 40
2452067.3979059951
  9
$TDUPDATE
 40
2458541.4803175349
  9
$TDINDWG
 40
0.132770081
  9
$TDUSRTIMER
 40
0.1327696991
  9
$USRTIMER
 70
     1
  9
$ANGBASE
 50
0.0
  9
$ANGDIR
 70
     0
  9
$PDMODE
 70
     0
  9
$PDSIZE
 40
0.0
  9
$PLINEWID
 40
0.0
  9
$COORDS
 70
     1
  9
$SPLFRAME
 70
     0
  9
$SPLINETYPE
 70
     6
  9
$SPLINESEGS
 70
     8
  9
$ATTDIA
 70
     1
  9
$ATTREQ
 70
     1
  9
$HANDLING
 70
     1
  9
$HANDSEED
  5
3A5E
  9
$SURFTAB1
 70
     6
  9
$SURFTAB2
 70
     6
  9
$SURFTYPE
 70
     6
  9
$SURFU
 70
     6
  9
$SURFV
 70
     6
  9
$UCSNAME
  2

  9
$UCSORG
 10
0.0
 20
0.0
 30
0.0
  9
$UCSXDIR
 10
1.0
 20
0.0
 30
0.0
  9
$UCSYDIR
 10
0.0
 20
1.0
 30
0.0
  9
$PUCSNAME
  2

  9
$PUCSORG
 10
0.0
 20
0.0
 30
0.0
  9
$PUCSXDIR
 10
1.0
 20
0.0
 30
0.0
  9
$PUCSYDIR
 10
0.0
 20
1.0
 30
0.0
  9
$USERI1
 70
     0
  9
$USERI2
 70
     0
  9
$USERI3
 70
     0
  9
$USERI4
 70
     0
  9
$USERI5
 70
     0
  9
$USERR1
 40
0.0
  9
$USERR2
 40
0.0
  9
$USERR3
 40
0.0
  9
$USERR4
 40
0.0
  9
$USERR5
 40
0.0
  9
$WORLDVIEW
 70
     1
  9
$SHADEDGE
 70
     3
  9
$SHADEDIF
 70
    70
  9
$TILEMODE
 70
     1
  9
$MAXACTVP
 70
    64
  9
$PLIMCHECK
 70
     0
  9
$PEXTMIN
 10
1.0000000000000000E+020
 20
1.0000000000000000E+020
 30
1.0000000000000000E+020
  9
$PEXTMAX
 10
-1.0000000000000000E+020
 20
-1.0000000000000000E+020
 30
-1.0000000000000000E+020
  9
$PLIMMIN
 10
0.0
 20
0.0
  9
$PLIMMAX
 10
420.0
 20
297.0
  9
$UNITMODE
 70
     0
  9
$VISRETAIN
 70
     1
  9
$PLINEGEN
 70
     0
  9
$PSLTSCALE
 70
     1
  0
ENDSEC
  0
SECTION
  2
TABLES
  0
TABLE
  2
VPORT
 70
     1
  0
VPORT
  2
*ACTIVE
 70
     0
 10
0.0
 20
0.0
 11
1.0
 21
1.0
 12
876.35602969682748
 22
782.12069501033375
 13
0.0
 23
0.0
 14
15.0
 24
15.0
 15
60.0
 25
60.0
 16
0.0
 26
0.0
 36
1.0
 17
0.0
 27
0.0
 37
0.0
 40
884.24465559456814
 41
1.7571592210767459
 42
50.0
 43
0.0
 44
0.0
 50
0.0
 51
0.0
 71
     0
 72
   100
 73
     1
 74
     3
 75
     0
 76
     0
 77
     0
 78
     0
  0
ENDTAB
  0
TABLE
  2
LTYPE
 70
    27
  0
LTYPE
  2
CONTINUOUS
 70
     0
  3
Solid line
 72
    65
 73
     0
 40
0.0
  0
LTYPE
  2
AM_ISO02W050
 70
     0
  3
__ __ __ __ __ __ __ __ __ __ __ __ __ __ __
 72
    65
 73
     2
 40
7.5
 49
6.0
 49
-1.5
  0
LTYPE
  2
AM_ISO08W050
 70
     0
  3
____ . ____ . ____ . ____ . ____ . ____ . ____
 72
    65
 73
     4
 40
18.0
 49
12.0
 49
-1.5
 49
3.0
 49
-1.5
  0
LTYPE
  2
AM_ISO09W050
 70
     0
  3
_____ . . _____ . . _____ . . ____ .. ____
 72
    65
 73
     6
 40
22.5
 49
12.0
 49
-1.5
 49
3.0
 49
-1.5
 49
3.0
 49
-1.5
  0
LTYPE
  2
AMCONSTR
 70
     0
  3
_______________________
 72
    65
 73
     2
 40
9999.0
 49
9999.0
 49
0.0
  0
LTYPE
  2
AM_ISO08W050X2
 70
     0
  3
__ . __ . __ . __ . __ . __
 72
    65
 73
     4
 40
9.0
 49
6.0
 49
-0.75
 49
1.5
 49
-0.75
  0
LTYPE
  2
AM_ISO02W050X2
 70
     0
  3
 _ _ _ _ _ _ _ _ _ _ _ _
 72
    65
 73
     2
 40
3.75
 49
3.0
 49
-0.75
  0
LTYPE
  2
AMZIGZAG
 70
     0
  3
/\/-/\/-/\/-/\/-/\/-/\/
 72
    65
 73
     2
 40
11.000099999999991
 49
0.0001
 49
-11.0
  0
LTYPE
  2
ACISOWELD
 70
     0
  3
_ _ _ _ _
 72
    65
 73
     2
 40
2.0
 49
2.0
 49
-1.0
  0
LTYPE
  2
ACISOTGB
 70
     0
  3
__ . . __ . .
 72
    65
 73
     6
 40
9.0
 49
4.0
 49
-1.0
 49
1.0
 49
-1.0
 49
1.0
 49
-1.0
  0
LTYPE
  2
ACISOTGL
 70
     0
  3
_ _ _ _ _
 72
    65
 73
     2
 40
3.0
 49
2.0
 49
-1.0
  0
LTYPE
  2
CENTER
 70
     0
  3
__ . __
 72
    65
 73
     4
 40
7.0
 49
4.0
 49
-1.0
 49
1.0
 49
-1.0
  0
LTYPE
  2
PHANTOM2
 70
     0
  3
Phantom (.5x) ___ _ _ ___ _ _ ___ _ _ ___ _ _
 72
    65
 73
     6
 40
31.75
 49
15.875
 49
-3.174999999999998
 49
3.174999999999998
 49
-3.174999999999998
 49
3.174999999999998
 49
-3.174999999999998
  0
LTYPE
  2
ACANSTGBM
 70
     0
  3
__ . . __ . .
 72
    65
 73
     6
 40
9.0
 49
4.0
 49
-1.0
 49
1.0
 49
-1.0
 49
1.0
 49
-1.0
  0
LTYPE
  2
ACANSTGLM
 70
     0
  3
_ _ _ _ _
 72
    65
 73
     2
 40
3.0
 49
2.0
 49
-1.0
  0
LTYPE
  2
GEN7
 70
     0
  3
____ . ____ . ____ . ____ . ____ . ____ . ____
 72
    65
 73
     4
 40
14.25
 49
9.75
 49
-1.5
 49
1.5
 49
-1.5
  0
LTYPE
  2
GEN3B
 70
     0
  3
 - - - - -
 72
    65
 73
     2
 40
1.0
 49
0.5
 49
-0.5
  0
LTYPE
  2
GEN7A
 70
     0
  3
__ . __ . __
 72
    65
 73
     4
 40
7.375
 49
4.75
 49
-0.875
 49
0.875
 49
-0.875
  0
LTYPE
  2
ACJISTGB
 70
     0
  3
__ . . __ . .
 72
    65
 73
     6
 40
9.0
 49
4.0
 49
-1.0
 49
1.0
 49
-1.0
 49
1.0
 49
-1.0
  0
LTYPE
  2
ACJISTGL
 70
     0
  3
_ _ _ _ _
 72
    65
 73
     2
 40
3.0
 49
2.0
 49
-1.0
  0
LTYPE
  2
HIDDEN
 70
     0
  3
Hidden __ __ __ __ __ __ __ __ __ __ __ __ __ _
 72
    65
 73
     2
 40
0.375
 49
0.25
 49
-0.125
  0
LTYPE
  2
CENTER2
 70
     0
  3
Center (.5x) ___ _ ___ _ ___ _ ___ _ ___ _ ___
 72
    65
 73
     4
 40
1.125
 49
0.75
 49
-0.125
 49
0.125
 49
-0.125
  0
LTYPE
  2
HIDDEN2
 70
     0
  3
Hidden (.5x) _ _ _ _ _ _ _ _ _ _ _ _ _ _ _ _ _
 72
    65
 73
     2
 40
0.1875
 49
0.125
 49
-0.0625
  0
LTYPE
  2
AMZIGZAG2
 70
     0
  3
/\/-/\/-/\/-/\/-/\/-/\/
 72
    65
 73
     2
 40
0.4401
 49
0.0001
 49
-0.4400000000000002
  0
LTYPE
  2
ACANSTGB
 70
     0
  3
__ . . __ . .
 72
    65
 73
     6
 40
0.35433070866
 49
0.15748031496
 49
-0.03937007874
 49
0.03937007874
 49
-0.03937007874
 49
0.03937007874
 49
-0.03937007874
  0
LTYPE
  2
ACANSTGL
 70
     0
  3
_ _ _ _ _
 72
    65
 73
     2
 40
0.11811023622
 49
0.07874015748
 49
-0.03937007874
  0
ENDTAB
  0
TABLE
  2
LAYER
 70
     7
  0
LAYER
  2
0
 70
     0
 62
     7
  6
CONTINUOUS
  0
LAYER
  2
AM_0
 70
     0
 62
     7
  6
CONTINUOUS
  0
LAYER
  2
AM_5
 70
     0
 62
     2
  6
CONTINUOUS
  0
LAYER
  2
DEFPOINTS
 70
     0
 62
     7
  6
CONTINUOUS
  0
LAYER
  2
ｶｸﾚｾﾝ2
 70
     0
 62
     3
  6
GEN3B
  0
LAYER
  2
ﾁｭｳｼﾝｾﾝ
 70
     0
 62
     1
  6
GEN7
  0
LAYER
  2
ﾁｭｳｼﾝｾﾝ1
 70
     0
 62
     1
  6
GEN7A
  0
ENDTAB
  0
TABLE
  2
STYLE
 70
     9
  0
STYLE
  2
STANDARD
 70
     0
 40
0.0
 41
0.8299999999999999
 50
0.0
 71
     0
 42
2.5
  3
txt.shx
  4
bigfont.shx
  0
STYLE
  2
ANNOTATIVE
 70
     0
 40
0.0
 41
1.0
 50
0.0
 71
     0
 42
0.2
  3
txt
  4

  0
STYLE
  2

 70
     1
 40
0.0
 41
1.0
 50
0.0
 71
     0
 42
2.5
  3
ltypeshp.shx
  4

  0
STYLE
  2
ACISOTS
 70
     0
 40
1.0
 41
1.0
 50
0.0
 71
     0
 42
2.5
  3
isocp.shx
  4
extfont.shx
  0
STYLE
  2
ACISOGDT
 70
     0
 40
0.0
 41
1.0
 50
0.0
 71
     0
 42
2.5
  3
amgdt.shx
  4

  0
STYLE
  2
ACANSTS
 70
     0
 40
1.0
 41
1.0
 50
0.0
 71
     0
 42
2.5
  3
romans.shx
  4
bigfont.shx
  0
STYLE
  2
ACANSGDT
 70
     0
 40
0.0
 41
1.0
 50
0.0
 71
     0
 42
2.5
  3
amgdt.shx
  4

  0
STYLE
  2
ACJISTS
 70
     0
 40
1.0
 41
1.0
 50
0.0
 71
     0
 42
2.5
  3
isocp.shx
  4
bigfont.shx
  0
STYLE
  2
ACJISGDT
 70
     0
 40
0.0
 41
1.0
 50
0.0
 71
     0
 42
2.5
  3
amgdt.shx
  4

  0
ENDTAB
  0
TABLE
  2
VIEW
 70
     6
  0
VIEW
  2
AM_VIEW1
 70
     0
 40
555.00000000000011
 10
499.2955801104971
 20
832.50000000000011
 41
998.59116022099431
 11
0.0
 21
0.0
 31
1.0
 12
0.0
 22
0.0
 32
0.0
 42
50.0
 43
0.0
 44
0.0
 50
0.0
 71
     0
  0
VIEW
  2
AM_VIEW2
 70
     0
 40
555.00000000000011
 10
1207.704419889501
 20
832.50000000000011
 41
998.59116022099431
 11
0.0
 21
0.0
 31
1.0
 12
0.0
 22
0.0
 32
0.0
 42
50.0
 43
0.0
 44
0.0
 50
0.0
 71
     0
  0
VIEW
  2
AM_VIEW3
 70
     0
 40
555.00000000000011
 10
499.2955801104971
 20
277.49999999999989
 41
998.59116022099431
 11
0.0
 21
0.0
 31
1.0
 12
0.0
 22
0.0
 32
0.0
 42
50.0
 43
0.0
 44
0.0
 50
0.0
 71
     0
  0
VIEW
  2
AM_VIEW4
 70
     0
 40
555.00000000000011
 10
1207.704419889501
 20
277.49999999999989
 41
998.59116022099431
 11
0.0
 21
0.0
 31
1.0
 12
0.0
 22
0.0
 32
0.0
 42
50.0
 43
0.0
 44
0.0
 50
0.0
 71
     0
  0
VIEW
  2
AM_VIEW5
 70
     0
 40
555.00000000000011
 10
853.5
 20
555.00000000000011
 41
998.59116022099431
 11
0.0
 21
0.0
 31
1.0
 12
0.0
 22
0.0
 32
0.0
 42
50.0
 43
0.0
 44
0.0
 50
0.0
 71
     0
  0
VIEW
  2
AM_VIEW6
 70
     0
 40
1109.9889000000001
 10
853.5
 20
555.0
 41
1997.162348618785
 11
0.0
 21
0.0
 31
1.0
 12
0.0
 22
0.0
 32
0.0
 42
50.0
 43
0.0
 44
0.0
 50
0.0
 71
     0
  0
ENDTAB
  0
TABLE
  2
UCS
 70
     0
  0
ENDTAB
  0
TABLE
  2
APPID
 70
    95
  0
APPID
  2
ACAD
 70
     0
  0
APPID
  2
ACADANNOTATIVE
 70
     0
  0
APPID
  2
MCAD_NO_VIS
 70
     0
  0
APPID
  2
ACAD_TEMP_GRAPHIC
 70
     0
  0
APPID
  2
ACATTRIBSERVICES
 70
     0
  0
APPID
  2
GENIUS_GENREC_14
 70
     0
  0
APPID
  2
GENIUS_GENOBJ-N-REC_13
 70
     0
  0
APPID
  2
GENIUS_GENODEF_13
 70
     0
  0
APPID
  2
GENIUS_GENOLIS_13
 70
     0
  0
APPID
  2
GENIUS_GENOBJ-N-TIT_13
 70
     0
  0
APPID
  2
GENIUS_GENOENT_13
 70
     0
  0
APPID
  2
GENIUS_GENTITLE_13
 70
     0
  0
APPID
  2
GENIUS_GENOREF_13
 70
     0
  0
APPID
  2
GENIUS_GENSCREG_15
 70
     0
  0
APPID
  2
GENIUS_GENOBJ-N-SDF_13
 70
     0
  0
APPID
  2
GENIUS_GENFIL_13
 70
     0
  0
APPID
  2
GENIUS_GENOBJ-N-CHA_13
 70
     0
  0
APPID
  2
GENIUS_GENDTOL_13
 70
     0
  0
APPID
  2
GENIUS_GENOBJ-N-FIL_13
 70
     0
  0
APPID
  2
AD_DRAW
 70
     0
  0
APPID
  2
DESIGNERASSEMBLIES
 70
     0
  0
APPID
  2
ASURF_PCURVE_APPNAME
 70
     0
  0
APPID
  2
GENIUS_GE3SECT_13
 70
     0
  0
APPID
  2
GENIUS_GENCFG_13
 70
     0
  0
APPID
  2
GENIUS_GE3CFG0_13
 70
     0
  0
APPID
  2
GENIUS_GENCFG0_13
 70
     0
  0
APPID
  2
GENIUS_GENCFG1_13
 70
     0
  0
APPID
  2
GENIUS_GENCFG2_13
 70
     0
  0
APPID
  2
GENIUS_GENCFG3_13
 70
     0
  0
APPID
  2
GENIUS_GENCFG4_13
 70
     0
  0
APPID
  2
GENIUS_GEVCFG0_13
 70
     0
  0
APPID
  2
GENIUS_GENHINW_13
 70
     0
  0
APPID
  2
GENIUS_FIRSTVISTXT_14
 70
     0
  0
APPID
  2
GENIUS_GENOBJ-N-LEADER_13
 70
     0
  0
APPID
  2
GEV_VCCNULL_SWITCH_OFF
 70
     0
  0
APPID
  2
GENIUS_GEFCFG0_13
 70
     0
  0
APPID
  2
GENIUS_GENZVEED_13
 70
     0
  0
APPID
  2
GENIUS_GENSCREG_13
 70
     0
  0
APPID
  2
GENIUS_DUMCFG0_13
 70
     0
  0
APPID
  2
GEVID936201362
 70
     0
  0
APPID
  2
GEVDC
 70
     0
  0
APPID
  2
GEVCON
 70
     0
  0
APPID
  2
VCC
 70
     0
  0
APPID
  2
GEVPT
 70
     0
  0
APPID
  2
GEVIT
 70
     0
  0
APPID
  2
GENBH
 70
     0
  0
APPID
  2
GEVMK
 70
     0
  0
APPID
  2
GENIUS_GENBH_13
 70
     0
  0
APPID
  2
GENIUS_GENOBJ-NBEHI-BHF_13
 70
     0
  0
APPID
  2
GENIUS_GENOBJ-NBEHI-BHB_13
 70
     0
  0
APPID
  2
GENIUS_GENOBJ-F-DESC_13
 70
     0
  0
APPID
  2
GENIUS_GEFDESC_14
 70
     0
  0
APPID
  2
GENIUS_GENOBJ-F-PART_13
 70
     0
  0
APPID
  2
GENIUS_GEFSTDP_13
 70
     0
  0
APPID
  2
GENIUS_GEFPARTINS_13
 70
     0
  0
APPID
  2
GENIUS_GENTRA_14
 70
     0
  0
APPID
  2
GENIUS_GENINF13_13
 70
     0
  0
APPID
  2
GENIUS_GENOBJ-N-INFOPT_13
 70
     0
  0
APPID
  2
GENIUS_GENOBJ-N-RSSYM_13
 70
     0
  0
APPID
  2
GENIUS_GENSYMENT_13
 70
     0
  0
APPID
  2
GENIUS_GENSCSYM_13
 70
     0
  0
APPID
  2
GENIUS_GEFINFNAM_13
 70
     0
  0
APPID
  2
GENIUS_GENOBJ-N-CEN_13
 70
     0
  0
APPID
  2
GENIUS_GENOBJ-N-CRS_13
 70
     0
  0
APPID
  2
GENIUS_GENOBJ-N-CRC_13
 70
     0
  0
APPID
  2
GENIUS_GENCRC_14
 70
     0
  0
APPID
  2
GEVID942827039
 70
     0
  0
APPID
  2
GEVID942827040
 70
     0
  0
APPID
  2
GEVID942827041
 70
     0
  0
APPID
  2
GENIUS_GENOBJ-F-SCPASSM_13
 70
     0
  0
APPID
  2
GENIUS_GENDIMSH_14
 70
     0
  0
APPID
  2
GEVID942827042
 70
     0
  0
APPID
  2
GEVID946020473
 70
     0
  0
APPID
  2
GEVID946020474
 70
     0
  0
APPID
  2
GEVID946020475
 70
     0
  0
APPID
  2
GENIUS_GENOBJ-N-HTC_13
 70
     0
  0
APPID
  2
GENIUS_GENHATCH_13
 70
     0
  0
APPID
  2
GEVID948854295
 70
     0
  0
APPID
  2
GEVID939402019
 70
     0
  0
APPID
  2
GEVID952919491
 70
     0
  0
APPID
  2
GEVID952919492
 70
     0
  0
APPID
  2
GENIUS_GEFWELD_13
 70
     0
  0
APPID
  2
GENIUS_GENOBJ-F-WELS_13
 70
     0
  0
APPID
  2
GEVID952919493
 70
     0
  0
APPID
  2
GENIUS_GENOBJ-N-RSBK_13
 70
     0
  0
APPID
  2
GENIUS_GENOBJ-N-LIB_13
 70
     0
  0
APPID
  2
GENIUS_GENSCALE_13
 70
     0
  0
APPID
  2
GEVID986376691
 70
     0
  0
APPID
  2
DCO15
 70
     0
  0
APPID
  2
ACAD_DSTYLE_DIMBREAK
 70
     0
  0
APPID
  2
ACAD_DSTYLE_DIMJAG
 70
     0
  0
APPID
  2
ACAD_NAV_VCDISPLAY
 70
     0
  0
APPID
  2
ACADANNOPO
 70
     0
  0
APPID
  2
ACAD_EXEMPT_FROM_CAD_STANDARDS
 70
     0
  0
APPID
  2
ACAD_MLEADERVER
 70
     0
  0
ENDTAB
  0
TABLE
  2
DIMSTYLE
 70
    22
  0
DIMSTYLE
  2
STANDARD
 70
     0
  3

  4

  5

  6

  7

 40
1.0
 41
0.18
 42
0.0625
 43
0.38
 44
0.18
 45
0.0
 46
0.0
 47
0.0
 48
0.0
140
0.18
141
0.09
142
0.0
143
25.399999999999999
144
1.0
145
0.0
146
1.0
147
0.09
 71
     0
 72
     0
 73
     1
 74
     1
 75
     0
 76
     0
 77
     0
 78
     0
170
     0
171
     2
172
     0
173
     0
174
     0
175
     0
176
     0
177
     0
178
     0
  0
DIMSTYLE
  2
ANNOTATIVE
 70
     0
  3

  4

  5

  6

  7

 40
1.0
 41
0.18
 42
0.0625
 43
0.38
 44
0.18
 45
0.0
 46
0.0
 47
0.0
 48
0.0
140
0.18
141
0.09
142
0.0
143
25.399999999999999
144
1.0
145
0.0
146
1.0
147
0.09
 71
     0
 72
     0
 73
     1
 74
     1
 75
     0
 76
     0
 77
     0
 78
     0
170
     0
171
     2
172
     0
173
     0
174
     0
175
     0
176
     0
177
     0
178
     0
  0
DIMSTYLE
  2
AM_ISO
 70
     0
  3

  4
"
  5

  6

  7

 40
1.0
 41
2.5
 42
1.0
 43
8.0
 44
0.6
 45
0.0
 46
0.0
 47
0.1
 48
0.1
140
2.5
141
0.0
142
0.0
143
0.0393701
144
1.0
145
0.0
146
0.71
147
0.8
 71
     0
 72
     0
 73
     0
 74
     0
 75
     0
 76
     0
 77
     1
 78
     8
170
     0
171
     2
172
     1
173
     0
174
     0
175
     0
176
   256
177
   256
178
     4
  0
DIMSTYLE
  2
AM_ISO$3
 70
     0
  3

  4
"
  5

  6

  7

 40
1.0
 41
2.5
 42
1.0
 43
8.0
 44
0.6
 45
0.0
 46
0.0
 47
0.1
 48
0.1
140
2.5
141
0.0
142
0.0
143
0.0393701
144
1.0
145
0.0
146
0.71
147
0.8
 71
     0
 72
     0
 73
     0
 74
     1
 75
     0
 76
     0
 77
     1
 78
     8
170
     0
171
     2
172
     0
173
     0
174
     0
175
     0
176
   256
177
   256
178
     4
  0
DIMSTYLE
  2
AM_ISO$4
 70
     0
  3

  4
"
  5

  6

  7

 40
1.0
 41
2.5
 42
1.0
 43
8.0
 44
0.6
 45
0.0
 46
0.0
 47
0.1
 48
0.1
140
2.5
141
0.0
142
0.0
143
0.0393701
144
1.0
145
0.0
146
0.71
147
0.8
 71
     0
 72
     0
 73
     0
 74
     1
 75
     0
 76
     0
 77
     1
 78
     8
170
     0
171
     2
172
     0
173
     0
174
     0
175
     0
176
   256
177
   256
178
     4
  0
DIMSTYLE
  2
AM_ISO$6
 70
     0
  3

  4
"
  5

  6

  7

 40
1.0
 41
2.5
 42
1.0
 43
8.0
 44
0.6
 45
0.0
 46
0.0
 47
0.1
 48
0.1
140
2.5
141
0.0
142
0.0
143
0.0393701
144
1.0
145
0.0
146
0.71
147
0.8
 71
     0
 72
     0
 73
     0
 74
     0
 75
     0
 76
     0
 77
     0
 78
     8
170
     0
171
     2
172
     1
173
     0
174
     0
175
     0
176
   256
177
   256
178
     4
  0
DIMSTYLE
  2
AM_ISO$7
 70
     0
  3

  4
"
  5

  6

  7

 40
1.0
 41
2.5
 42
1.0
 43
8.0
 44
0.6
 45
0.0
 46
0.0
 47
0.1
 48
0.1
140
2.5
141
0.0
142
0.0
143
0.0393701
144
1.0
145
0.0
146
0.71
147
0.8
 71
     0
 72
     0
 73
     0
 74
     0
 75
     0
 76
     0
 77
     1
 78
     8
170
     0
171
     2
172
     1
173
     0
174
     0
175
     0
176
   256
177
   256
178
     4
  0
DIMSTYLE
  2
AM_ISO$SF
 70
     0
  3

  4
"
  5

  6

  7

 40
1.0
 41
2.5
 42
1.0
 43
10.0
 44
1.0
 45
0.0
 46
0.0
 47
0.1
 48
0.1
140
3.5
141
0.0
142
0.0
143
0.0393701
144
1.0
145
0.0
146
0.71
147
1.5
 71
     0
 72
     0
 73
     0
 74
     0
 75
     1
 76
     1
 77
     1
 78
     8
170
     0
171
     2
172
     1
173
     0
174
     0
175
     0
176
   256
177
   256
178
     2
  0
DIMSTYLE
  2
AM_ISO$SH
 70
     0
  3

  4
"
  5

  6

  7

 40
1.0
 41
2.5
 42
1.0
 43
10.0
 44
1.0
 45
0.0
 46
0.0
 47
0.1
 48
0.1
140
3.5
141
0.0
142
0.0
143
0.0393701
144
2.0
145
0.0
146
0.71
147
1.5
 71
     0
 72
     0
 73
     0
 74
     0
 75
     1
 76
     1
 77
     1
 78
     8
170
     0
171
     2
172
     1
173
     1
174
     0
175
     0
176
   256
177
   256
178
     2
  0
DIMSTYLE
  2
AM_JIS
 70
     0
  3

  4
"
  5

  6

  7

 40
1.0
 41
2.5
 42
1.0
 43
7.0
 44
1.0
 45
0.0
 46
0.0
 47
0.1
 48
0.1000000001
140
2.5
141
0.0
142
0.0
143
0.0393701
144
1.0
145
0.0
146
0.71
147
1.0
 71
     0
 72
     0
 73
     0
 74
     0
 75
     0
 76
     0
 77
     3
 78
     8
170
     0
171
     2
172
     1
173
     0
174
     0
175
     0
176
   256
177
   256
178
     4
  0
DIMSTYLE
  2
AM_JIS$3
 70
     0
  3

  4
"
  5

  6

  7

 40
1.0
 41
2.5
 42
1.0
 43
7.0
 44
1.0
 45
0.0
 46
0.0
 47
0.1
 48
0.1000000001
140
2.5
141
0.0
142
0.0
143
0.0393701
144
1.0
145
0.0
146
0.71
147
1.0
 71
     0
 72
     0
 73
     0
 74
     1
 75
     0
 76
     0
 77
     3
 78
     8
170
     0
171
     2
172
     0
173
     0
174
     0
175
     0
176
   256
177
   256
178
     4
  0
DIMSTYLE
  2
AM_JIS$4
 70
     0
  3

  4
"
  5

  6

  7

 40
1.0
 41
2.5
 42
1.0
 43
7.0
 44
1.0
 45
0.0
 46
0.0
 47
0.1
 48
0.1000000001
140
2.5
141
0.0
142
0.0
143
0.0393701
144
1.0
145
0.0
146
0.71
147
1.0
 71
     0
 72
     0
 73
     0
 74
     0
 75
     0
 76
     0
 77
     3
 78
     8
170
     0
171
     2
172
     0
173
     0
174
     0
175
     0
176
   256
177
   256
178
     4
  0
DIMSTYLE
  2
AM_JIS$6
 70
     0
  3

  4
"
  5

  6

  7

 40
1.0
 41
2.5
 42
1.0
 43
7.0
 44
1.0
 45
0.0
 46
0.0
 47
0.1
 48
0.1000000001
140
2.5
141
0.0
142
0.0
143
0.0393701
144
1.0
145
0.0
146
0.71
147
1.0
 71
     0
 72
     0
 73
     0
 74
     0
 75
     0
 76
     0
 77
     0
 78
     8
170
     0
171
     2
172
     1
173
     0
174
     0
175
     0
176
   256
177
   256
178
     4
  0
DIMSTYLE
  2
AM_JIS$7
 70
     0
  3

  4
"
  5

  6

  7

 40
1.0
 41
2.5
 42
1.0
 43
7.0
 44
1.0
 45
0.0
 46
0.0
 47
0.1
 48
0.1000000001
140
2.5
141
0.0
142
0.0
143
0.0393701
144
1.0
145
0.0
146
0.71
147
1.0
 71
     0
 72
     0
 73
     0
 74
     0
 75
     0
 76
     0
 77
     3
 78
     8
170
     0
171
     2
172
     1
173
     0
174
     0
175
     0
176
   256
177
   256
178
     4
  0
DIMSTYLE
  2
AM_JIS$SF
 70
     0
  3

  4
"
  5

  6

  7

 40
1.0
 41
2.5
 42
1.0
 43
10.0
 44
1.0
 45
0.0
 46
0.0
 47
0.1
 48
0.1
140
3.5
141
0.0
142
0.0
143
0.0393701
144
1.0
145
0.0
146
0.71
147
1.5
 71
     0
 72
     0
 73
     0
 74
     0
 75
     1
 76
     1
 77
     3
 78
     8
170
     0
171
     2
172
     1
173
     0
174
     0
175
     0
176
   256
177
   256
178
     4
  0
DIMSTYLE
  2
AM_JIS$SH
 70
     0
  3

  4
"
  5

  6

  7

 40
1.0
 41
2.5
 42
1.0
 43
10.0
 44
1.0
 45
0.0
 46
0.0
 47
0.1
 48
0.1
140
3.5
141
0.0
142
0.0
143
0.0393701
144
1.0
145
0.0
146
0.71
147
1.5
 71
     0
 72
     0
 73
     0
 74
     0
 75
     1
 76
     0
 77
     3
 78
     8
170
     0
171
     2
172
     1
173
     1
174
     0
175
     0
176
   256
177
   256
178
     4
  0
DIMSTYLE
  2
AM_ANSI
 70
     0
  3

  4
mm
  5

  6

  7

 40
1.0
 41
0.1
 42
0.05
 43
0.5
 44
0.1
 45
0.0
 46
0.0
 47
0.1
 48
0.1
140
0.12
141
0.0
142
0.0
143
25.399999999999999
144
1.0
145
0.0
146
0.71
147
0.06
 71
     0
 72
     0
 73
     1
 74
     1
 75
     0
 76
     0
 77
     0
 78
     7
170
     0
171
     2
172
     0
173
     0
174
     0
175
     0
176
   256
177
   256
178
     2
  0
DIMSTYLE
  2
AM_ANSI$3
 70
     0
  3

  4
mm
  5

  6

  7

 40
1.0
 41
0.1
 42
0.05
 43
0.5
 44
0.1
 45
0.0
 46
0.0
 47
0.1
 48
0.1
140
0.12
141
0.0
142
0.0
143
25.399999999999999
144
1.0
145
0.0
146
0.71
147
0.06
 71
     0
 72
     0
 73
     1
 74
     1
 75
     0
 76
     0
 77
     0
 78
     7
170
     0
171
     2
172
     0
173
     0
174
     0
175
     0
176
   256
177
   256
178
     2
  0
DIMSTYLE
  2
AM_ANSI$4
 70
     0
  3

  4
mm
  5

  6

  7

 40
1.0
 41
0.1
 42
0.05
 43
0.5
 44
0.1
 45
0.0
 46
0.0
 47
0.1
 48
0.1
140
0.12
141
0.0
142
0.0
143
25.399999999999999
144
1.0
145
0.0
146
0.71
147
0.06
 71
     0
 72
     0
 73
     1
 74
     1
 75
     0
 76
     0
 77
     0
 78
     7
170
     0
171
     2
172
     0
173
     0
174
     0
175
     0
176
   256
177
   256
178
     2
  0
DIMSTYLE
  2
AM_ANSI$7
 70
     0
  3

  4
mm
  5

  6

  7

 40
1.0
 41
0.1
 42
0.05
 43
0.5
 44
0.1
 45
0.0
 46
0.0
 47
0.1
 48
0.1
140
0.24
141
0.0
142
0.0
143
25.399999999999999
144
1.0
145
0.0
146
0.71
147
0.06
 71
     0
 72
     0
 73
     1
 74
     1
 75
     0
 76
     0
 77
     0
 78
     7
170
     0
171
     2
172
     0
173
     0
174
     0
175
     0
176
   256
177
   256
178
     2
  0
DIMSTYLE
  2
AM_ANSI$SF
 70
     0
  3

  4
mm
  5

  6

  7

 40
1.0
 41
0.1
 42
0.05
 43
0.5
 44
0.1
 45
0.0
 46
0.0
 47
0.1
 48
0.1
140
0.12
141
0.0
142
0.0
143
25.399999999999999
144
1.0
145
0.0
146
0.71
147
0.06
 71
     0
 72
     0
 73
     1
 74
     1
 75
     1
 76
     1
 77
     0
 78
     7
170
     0
171
     2
172
     0
173
     0
174
     0
175
     0
176
   256
177
   256
178
     2
  0
DIMSTYLE
  2
AM_ANSI$SH
 70
     0
  3

  4
mm
  5

  6

  7

 40
1.0
 41
0.1
 42
0.05
 43
0.5
 44
0.1
 45
0.0
 46
0.0
 47
0.1
 48
0.1
140
0.12
141
0.0
142
0.0
143
25.399999999999999
144
1.0
145
0.0
146
0.71
147
0.06
 71
     0
 72
     0
 73
     1
 74
     1
 75
     1
 76
     1
 77
     0
 78
     7
170
     0
171
     2
172
     0
173
     1
174
     0
175
     0
176
   256
177
   256
178
     2
  0
ENDTAB
  0
ENDSEC
  0
SECTION
  2
BLOCKS
  0
BLOCK
  8
0
  2
$MODEL_SPACE
 70
     0
 10
0.0
 20
0.0
 30
0.0
  3
$MODEL_SPACE
  1

  0
ENDBLK
  5
38D0
  8
0
  0
BLOCK
 67
     1
  8
0
  2
$PAPER_SPACE
 70
     0
 10
0.0
 20
0.0
 30
0.0
  3
$PAPER_SPACE
  1

  0
ENDBLK
  5
38CC
 67
     1
  8
0
  0
BLOCK
  8
0
  2
GENAXEH
 70
     0
 10
0.0
 20
0.0
 30
0.0
  3
GENAXEH
  1

  0
LINE
  5
3678
  8
0
 10
-1.0
 20
0.0
 30
0.0
 11
1.0
 21
0.0
 31
0.0
  0
ENDBLK
  5
3679
  8
0
  0
BLOCK
  8
0
  2
_OPEN30
 70
     0
 10
0.0
 20
0.0
 30
0.0
  3
_OPEN30
  1

  0
LINE
  5
367C
  8
0
 62
     0
 10
-1.0
 20
0.26794919
 30
0.0
 11
0.0
 21
0.0
 31
0.0
  0
LINE
  5
367D
  8
0
 62
     0
 10
0.0
 20
0.0
 30
0.0
 11
-1.0
 21
-0.26794919
 31
0.0
  0
LINE
  5
367E
  8
0
 62
     0
 10
0.0
 20
0.0
 30
0.0
 11
-1.0
 21
0.0
 31
0.0
  0
ENDBLK
  5
367F
  8
0
  0
BLOCK
  8
0
  2
_NONE
 70
     0
 10
0.0
 20
0.0
 30
0.0
  3
_NONE
  1

  0
ENDBLK
  5
3682
  8
0
  0
BLOCK
  8
0
  2
_ACMFILLEDHALF
 70
     0
 10
0.0
 20
0.0
 30
0.0
  3
_ACMFILLEDHALF
  1

  0
TRACE
  5
39C8
  8
AM_0
 62
     0
 10
-0.8
 20
0.0
 30
0.0
 11
-1.0
 21
0.166666666
 31
0.0
 12
0.0
 22
0.0
 32
0.0
 13
0.0
 23
0.0
 33
0.0
  0
LINE
  5
39C9
  8
AM_0
 62
     0
 10
-1.0
 20
0.0
 30
0.0
 11
-0.8
 21
0.0
 31
0.0
  0
ENDBLK
  5
39C7
  8
0
  0
ENDSEC
  0
SECTION
  2
ENTITIES
  0
LINE
  5
3684
  8
ﾁｭｳｼﾝｾﾝ
 10
379.36252980413462
 20
1041.1540121099861
 30
0.0
 11
839.62541266437779
 21
1041.1540121099861
 31
0.0
  0
LINE
  5
3685
  8
AM_0
 10
570.30247266437789
 20
1036.1540121099861
 30
0.0
 11
570.30247266437789
 21
882.20699210998646
 31
0.0
  0
LINE
  5
3686
  8
AM_0
 10
530.30241266437804
 20
916.22262210998645
 30
0.0
 11
530.30241266437804
 21
1036.5714321099861
 31
0.0
  0
LINE
  5
3687
  8
AM_0
 10
550.30241266437815
 20
887.73385210998629
 30
0.0
 11
550.30241266437815
 21
1022.419032109985
 31
0.0
  0
LINE
  5
3688
  8
AM_0
 10
473.30247266437812
 20
1161.154042109986
 30
0.0
 11
473.30247266437812
 21
921.15401210998687
 31
0.0
  0
LINE
  5
3689
  8
AM_0
 10
486.30241266437798
 20
1159.154042109986
 30
0.0
 11
486.30241266437798
 21
923.15401210998652
 31
0.0
  0
LINE
  5
368A
  8
AM_0
 10
488.302472664378
 20
929.1540121099863
 30
0.0
 11
525.30241266437804
 21
929.1540121099863
 31
0.0
  0
LINE
  5
368B
  8
AM_0
 10
486.30241266437798
 20
970.22121210998648
 30
0.0
 11
530.30241266437804
 21
970.22121210998648
 31
0.0
  0
LINE
  5
368C
  8
AM_0
 10
486.30241266437798
 20
954.47915210998644
 30
0.0
 11
530.30241266437804
 21
954.47915210998644
 31
0.0
  0
ARC
  5
368D
  8
AM_0
 10
484.302472664378
 20
923.15401210998652
 30
0.0
 40
2.0
 50
270.0
 51
0.0
  0
LINE
  5
368E
  8
AM_0
 10
473.30247266437812
 20
921.15401210998687
 30
0.0
 11
484.302472664378
 21
921.15401210998687
 31
0.0
  0
LINE
  5
368F
  8
AM_0
 10
473.30247266437812
 20
941.42678210998645
 30
0.0
 11
486.30241266437798
 21
941.42678210998645
 31
0.0
  0
ARC
  5
3690
  8
AM_0
 10
488.302472664378
 20
927.15401210998641
 30
0.0
 40
2.0
 50
90.00000299999769
 51
180.00001000000091
  0
LINE
  5
3691
  8
AM_0
 10
473.30247266437812
 20
956.98312210998665
 30
0.0
 11
486.30241266437798
 21
956.98312210998665
 31
0.0
  0
LINE
  5
3692
  8
AM_0
 10
473.30247266437812
 20
965.13729210998645
 30
0.0
 11
486.30241266437798
 21
965.13729210998645
 31
0.0
  0
LINE
  5
3693
  8
AM_0
 10
534.96843266437804
 20
911.23379210998644
 30
0.0
 11
545.63645266437777
 21
910.51943210998695
 31
0.0
  0
ARC
  5
3694
  8
AM_0
 10
535.30241266437804
 20
916.22262210998645
 30
0.0
 40
5.0
 50
180.00001000000091
 51
266.16915999999748
  0
LINE
  5
3695
  8
AM_0
 10
570.30247266437789
 20
882.20705210998653
 30
0.0
 11
555.12791266437785
 21
882.73696210998651
 31
0.0
  0
ARC
  5
3696
  8
AM_0
 10
555.30241266437793
 20
887.73385210998629
 30
0.0
 40
5.0
 50
180.00001000000091
 51
268.00000999999878
  0
ARC
  5
3697
  8
AM_0
 10
545.30241266437804
 20
905.53060210998626
 30
0.0
 40
5.0
 50
0.0
 51
86.16916099999878
  0
ARC
  5
3698
  8
AM_0
 10
525.30241266437804
 20
924.15401210998641
 30
0.0
 40
5.0
 50
0.0
 51
90.00000299999769
  0
LINE
  5
3699
  8
AM_0
 10
550.30241266437815
 20
1059.889002109986
 30
0.0
 11
550.30241266437815
 21
1194.574142109986
 31
0.0
  0
LINE
  5
369A
  8
AM_0
 10
570.30247266437789
 20
1200.1010421099861
 30
0.0
 11
570.30247266437789
 21
1046.1540121099861
 31
0.0
  0
LINE
  5
369B
  8
AM_0
 10
488.302472664378
 20
1153.154042109986
 30
0.0
 11
525.30241266437804
 21
1153.154042109986
 31
0.0
  0
LINE
  5
369C
  8
AM_0
 10
486.30241266437798
 20
1127.828842109986
 30
0.0
 11
530.30241266437804
 21
1127.828842109986
 31
0.0
  0
LINE
  5
369D
  8
AM_0
 10
486.30241266437798
 20
1112.0867421099861
 30
0.0
 11
530.30241266437804
 21
1112.0867421099861
 31
0.0
  0
LINE
  5
369E
  8
AM_0
 10
473.30247266437812
 20
1117.170742109985
 30
0.0
 11
486.30241266437798
 21
1117.170742109985
 31
0.0
  0
LINE
  5
369F
  8
AM_0
 10
473.30247266437812
 20
1140.8811421099861
 30
0.0
 11
486.30241266437798
 21
1140.8811421099861
 31
0.0
  0
LINE
  5
36A0
  8
AM_0
 10
473.30247266437812
 20
1125.324842109985
 30
0.0
 11
486.30241266437798
 21
1125.324842109985
 31
0.0
  0
LINE
  5
36A1
  8
AM_0
 10
473.30247266437812
 20
1161.154042109986
 30
0.0
 11
484.302472664378
 21
1161.154042109986
 31
0.0
  0
ARC
  5
36A2
  8
AM_0
 10
488.302472664378
 20
1155.1540421099851
 30
0.0
 40
2.0
 50
179.9999899999988
 51
270.0
  0
ARC
  5
36A3
  8
AM_0
 10
484.302472664378
 20
1159.154042109986
 30
0.0
 40
2.0
 50
0.0
 51
90.00000299999769
  0
LINE
  5
36A4
  8
AM_0
 10
530.30241266437804
 20
1045.7365921099849
 30
0.0
 11
530.30241266437804
 21
1166.085442109985
 31
0.0
  0
ARC
  5
36A5
  8
AM_0
 10
552.302472664378
 20
1041.1540121099861
 30
0.0
 40
15.0
 50
199.4712300000005
 51
249.5126300000021
  0
ARC
  5
36A6
  8
AM_0
 10
552.302472664378
 20
1041.1540121099861
 30
0.0
 40
15.0
 50
110.4873699999977
 51
160.52876999999901
  0
ARC
  5
36A7
  8
AM_0
 10
552.302472664378
 20
1041.1540121099861
 30
0.0
 40
12.5
 50
203.5781799999973
 51
336.42182999999471
  0
ARC
  5
36A8
  8
AM_0
 10
552.302472664378
 20
1041.1540121099861
 30
0.0
 40
12.5
 50
23.578179999997531
 51
156.42182000000241
  0
LINE
  5
36A9
  8
AM_0
 10
532.302472664378
 20
1046.1540121099861
 30
0.0
 11
572.30247266437755
 21
1046.1540121099861
 31
0.0
  0
LINE
  5
36AA
  8
AM_0
 10
532.302472664378
 20
1036.1540121099861
 30
0.0
 11
572.30247266437755
 21
1036.1540121099861
 31
0.0
  0
ARC
  5
36AB
  8
AM_0
 10
532.302472664378
 20
1041.1540121099861
 30
0.0
 40
5.0
 50
90.00000299999769
 51
270.0
  0
ARC
  5
36AC
  8
AM_0
 10
545.30241266437804
 20
1059.889002109986
 30
0.0
 40
5.0
 50
290.4873799999977
 51
0.0
  0
ARC
  5
36AD
  8
AM_0
 10
572.30247266437755
 20
1041.1540121099861
 30
0.0
 40
5.0
 50
270.0
 51
90.00000299999769
  0
ARC
  5
36AE
  8
AM_0
 10
545.30241266437804
 20
1022.419032109985
 30
0.0
 40
5.0
 50
0.0
 51
69.512624999999204
  0
LINE
  5
36AF
  8
AM_0
 10
534.96836266437811
 20
1171.074142109984
 30
0.0
 11
545.63645266437777
 21
1171.7885421099861
 31
0.0
  0
ARC
  5
36B0
  8
AM_0
 10
535.30241266437804
 20
1166.085442109985
 30
0.0
 40
5.0
 50
93.830836999998056
 51
180.00001000000091
  0
ARC
  5
36B1
  8
AM_0
 10
525.30241266437804
 20
1158.154042109986
 30
0.0
 40
5.0
 50
270.0
 51
0.0
  0
ARC
  5
36B2
  8
AM_0
 10
545.30241266437804
 20
1176.7774421099859
 30
0.0
 40
5.0
 50
273.83084000000241
 51
0.0
  0
LINE
  5
36B3
  8
AM_0
 10
570.30247266437789
 20
1200.1010421099861
 30
0.0
 11
555.12791266437785
 21
1199.571142109985
 31
0.0
  0
ARC
  5
36B4
  8
AM_0
 10
555.30241266437793
 20
1194.574142109986
 30
0.0
 40
5.0
 50
91.999998000000787
 51
180.00001000000091
  0
LINE
  5
36B5
  8
AM_0
 10
742.802472664378
 20
1050.154012240886
 30
0.0
 11
823.802472664378
 21
1050.154012240886
 31
0.0
  0
LINE
  5
36B6
  8
AM_0
 10
742.802472664378
 20
1032.1540522408859
 30
0.0
 11
823.802472664378
 21
1032.1540522408859
 31
0.0
  0
LINE
  5
36B7
  8
AM_0
 10
718.802472664378
 20
1011.154052240885
 30
0.0
 11
823.802472664378
 21
1011.154052240885
 31
0.0
  0
LINE
  5
36B8
  8
AM_0
 10
718.802472664378
 20
1071.154012240886
 30
0.0
 11
823.802472664378
 21
1071.154012240886
 31
0.0
  0
LINE
  5
36B9
  8
AM_0
 10
600.30241266437815
 20
1199.053512240886
 30
0.0
 11
600.30241266437815
 21
883.25470224088599
 31
0.0
  0
LINE
  5
36BA
  8
AM_0
 10
676.802472664378
 20
920.81091224088595
 30
0.0
 11
676.802472664378
 21
1161.497212240884
 31
0.0
  0
LINE
  5
36BB
  8
AM_0
 10
712.80247266437766
 20
1103.256912240885
 30
0.0
 11
712.80247266437766
 21
979.05114224088595
 31
0.0
  0
LINE
  5
36BC
  8
AM_0
 10
706.802472664378
 20
1141.618912240885
 30
0.0
 11
706.802472664378
 21
940.68914224088576
 31
0.0
  0
LINE
  5
36BD
  8
AM_0
 10
639.08165266437811
 20
884.60888224088592
 30
0.0
 11
570.30247266437789
 21
882.20709224088603
 31
0.0
  0
LINE
  5
36BE
  8
AM_0
 10
575.30247266437766
 20
861.15405224088602
 30
0.0
 11
707.97697266437808
 21
865.78717224088575
 31
0.0
  0
CIRCLE
  5
36BF
  8
AM_0
 10
682.80247266437789
 20
896.15405224088624
 30
0.0
 40
12.0
  0
LINE
  5
36C0
  8
AM_0
 10
699.08165266437777
 20
933.8843922408862
 30
0.0
 11
686.45347266437795
 21
933.44342224088575
 31
0.0
  0
LINE
  5
36C1
  8
ﾁｭｳｼﾝｾﾝ1
 10
663.52867266437795
 20
896.15405224088624
 30
0.0
 11
702.96916266437802
 21
896.15405224088624
 31
0.0
  0
ARC
  5
36C2
  8
AM_0
 10
661.80247266437789
 20
895.62109224088601
 30
0.0
 40
15.0
 50
91.999998000000787
 51
180.00001000000091
  0
LINE
  5
36C3
  8
ﾁｭｳｼﾝｾﾝ1
 10
682.80247266437789
 20
875.03326224088596
 30
0.0
 11
682.80247266437789
 21
915.47644224088594
 31
0.0
  0
LINE
  5
36C4
  8
AM_0
 10
646.802472664378
 20
874.00616224088606
 30
0.0
 11
646.802472664378
 21
895.62109224088601
 31
0.0
  0
ARC
  5
36C5
  8
AM_0
 10
656.802472664378
 20
874.00616224088606
 30
0.0
 40
10.0
 50
180.00001000000091
 51
271.99999000000111
  0
ARC
  5
36C6
  8
AM_0
 10
638.802472664378
 20
892.60400224088573
 30
0.0
 40
8.0
 50
271.99999999999682
 51
0.0
  0
ARC
  5
36C7
  8
AM_0
 10
686.80247266437789
 20
923.44952224088604
 30
0.0
 40
10.0
 50
91.999998000000787
 51
180.00001000000091
  0
ARC
  5
36C8
  8
AM_0
 10
666.80247266437766
 20
920.81091224088595
 30
0.0
 40
10.0
 50
271.99999999999682
 51
0.0
  0
LINE
  5
36C9
  8
AM_0
 10
667.15141266437797
 20
910.81707224088552
 30
0.0
 11
661.27897266437799
 21
910.61200224088589
 31
0.0
  0
LINE
  5
36CA
  8
AM_0
 10
712.80247266437766
 20
870.78411224088597
 30
0.0
 11
712.80247266437766
 21
931.52398224088552
 31
0.0
  0
ARC
  5
36CB
  8
AM_0
 10
707.80247266437789
 20
870.78411224088597
 30
0.0
 40
5.0
 50
271.99999999999682
 51
0.0
  0
ARC
  5
36CC
  8
AM_0
 10
698.802472664378
 20
941.87957224088575
 30
0.0
 40
8.0
 50
271.99999999999682
 51
0.0
  0
ARC
  5
36CD
  8
AM_0
 10
707.80247266437789
 20
931.52398224088552
 30
0.0
 40
5.0
 50
0.0
 51
66.421821000003519
  0
ARC
  5
36CE
  8
AM_0
 10
711.80247266437789
 20
940.68914224088576
 30
0.0
 40
5.0
 50
180.00001000000091
 51
246.421820000005
  0
ARC
  5
36CF
  8
AM_0
 10
709.802472664378
 20
979.05114224088595
 30
0.0
 40
3.0
 50
271.99999999999682
 51
0.0
  0
ARC
  5
36D0
  8
AM_0
 10
709.802472664378
 20
973.04748224088576
 30
0.0
 40
3.0
 50
91.999998000000787
 51
180.00001000000091
  0
LINE
  5
36D1
  8
AM_0
 10
709.69780266437795
 20
976.04559224088598
 30
0.0
 11
709.90721266437811
 21
976.05291224088592
 31
0.0
  0
LINE
  5
36D2
  8
AM_0
 10
639.08165266437811
 20
1197.699312240886
 30
0.0
 11
570.30247266437789
 21
1200.1011122408861
 31
0.0
  0
LINE
  5
36D3
  8
AM_0
 10
575.30241266437815
 20
1221.154012240886
 30
0.0
 11
707.97691266437801
 21
1216.520912240886
 31
0.0
  0
ARC
  5
36D4
  8
AM_0
 10
661.80247266437789
 20
1186.687012240885
 30
0.0
 40
15.0
 50
180.00001000000091
 51
268.0000000000029
  0
CIRCLE
  5
36D5
  8
AM_0
 10
682.80247266437789
 20
1186.154012240886
 30
0.0
 40
12.0
  0
LINE
  5
36D6
  8
AM_0
 10
712.80247266437766
 20
1211.5240122408859
 30
0.0
 11
712.80247266437766
 21
1150.7840122408861
 31
0.0
  0
LINE
  5
36D7
  8
ﾁｭｳｼﾝｾﾝ1
 10
682.80247266437789
 20
1204.289712240884
 30
0.0
 11
682.80247266437789
 21
1165.012212240885
 31
0.0
  0
LINE
  5
36D8
  8
AM_0
 10
699.08165266437777
 20
1148.4237122408849
 30
0.0
 11
686.45347266437795
 21
1148.8646122408841
 31
0.0
  0
ARC
  5
36D9
  8
AM_0
 10
686.80247266437789
 20
1158.858512240884
 30
0.0
 40
10.0
 50
180.00001000000091
 51
268.0000000000029
  0
ARC
  5
36DA
  8
AM_0
 10
666.80247266437766
 20
1161.497212240884
 30
0.0
 40
10.0
 50
0.0
 51
88.000000000002998
  0
LINE
  5
36DB
  8
AM_0
 10
667.15141266437797
 20
1171.491112240886
 30
0.0
 11
661.27897266437799
 21
1171.696212240885
 31
0.0
  0
ARC
  5
36DC
  8
AM_0
 10
742.802472664378
 20
1041.1540122408851
 30
0.0
 40
8.9999962
 50
90.00000299999769
 51
270.0
  0
LINE
  5
36DD
  8
AM_0
 10
718.802472664378
 20
1073.6540122408851
 30
0.0
 11
718.802472664378
 21
1008.654052240886
 31
0.0
  0
LINE
  5
36DE
  8
AM_0
 10
712.80247266437766
 20
1008.654052240886
 30
0.0
 11
718.802472664378
 21
1008.654052240886
 31
0.0
  0
LINE
  5
36DF
  8
AM_0
 10
712.80247266437766
 20
1073.6540122408851
 30
0.0
 11
718.802472664378
 21
1073.6540122408851
 31
0.0
  0
LINE
  5
36E0
  8
AM_0
 10
742.802472664378
 20
1050.154012240886
 30
0.0
 11
742.802472664378
 21
1032.1540522408859
 31
0.0
  0
ARC
  5
36E1
  8
AM_0
 10
709.802472664378
 20
1109.2606122408849
 30
0.0
 40
3.0
 50
180.00001000000091
 51
268.0000000000029
  0
ARC
  5
36E2
  8
AM_0
 10
709.802472664378
 20
1103.256912240885
 30
0.0
 40
3.0
 50
0.0
 51
88.000000000002998
  0
LINE
  5
36E3
  8
AM_0
 10
709.69780266437795
 20
1106.2624122408849
 30
0.0
 11
709.90715266437803
 21
1106.255112240885
 31
0.0
  0
ARC
  5
36E4
  8
AM_0
 10
698.802472664378
 20
1140.428612240886
 30
0.0
 40
8.0
 50
0.0
 51
88.000000000002998
  0
ARC
  5
36E5
  8
AM_0
 10
711.80247266437789
 20
1141.618912240885
 30
0.0
 40
5.0
 50
113.5781799999949
 51
180.00001000000091
  0
ARC
  5
36E6
  8
AM_0
 10
707.80247266437789
 20
1150.7840122408861
 30
0.0
 40
5.0
 50
293.57817999999492
 51
0.0
  0
LINE
  5
36E7
  8
ﾁｭｳｼﾝｾﾝ1
 10
663.43492266437795
 20
1186.154012240886
 30
0.0
 11
702.71238266437797
 21
1186.154012240886
 31
0.0
  0
LINE
  5
36E8
  8
AM_0
 10
646.802472664378
 20
1208.3019122408859
 30
0.0
 11
646.802472664378
 21
1186.687012240885
 31
0.0
  0
ARC
  5
36E9
  8
AM_0
 10
638.802472664378
 20
1189.7041122408859
 30
0.0
 40
8.0
 50
0.0
 51
88.000000000002998
  0
ARC
  5
36EA
  8
AM_0
 10
656.802472664378
 20
1208.3019122408859
 30
0.0
 40
10.0
 50
88.000000000002998
 51
180.00001000000091
  0
ARC
  5
36EB
  8
AM_0
 10
707.80247266437789
 20
1211.5240122408859
 30
0.0
 40
5.0
 50
0.0
 51
88.000000000002998
  0
LINE
  5
36EC
  8
AM_0
 10
823.802472664378
 20
1071.154012240886
 30
0.0
 11
823.802472664378
 21
1011.154052240885
 31
0.0
  0
LINE
  5
36ED
  8
AM_0
 10
457.62791266437807
 20
1217.044812240885
 30
0.0
 11
575.30247266437766
 21
1221.154012240886
 31
0.0
  0
LINE
  5
36EE
  8
AM_0
 10
523.58787266437798
 20
1219.2236122408849
 30
0.0
 11
566.52964266437812
 21
1213.9136122408861
 31
0.0
  0
LINE
  5
36EF
  8
AM_0
 10
571.11564266437813
 20
1203.518912240886
 30
0.0
 11
528.6156426643779
 21
1210.5242122408849
 31
0.0
  0
ARC
  5
36F0
  8
AM_0
 10
565.302472664378
 20
1203.989112240886
 30
0.0
 40
10.0
 50
0.0
 51
82.950795999998775
  0
LINE
  5
36F1
  8
AM_0
 10
575.30247266437766
 20
1203.989112240886
 30
0.0
 11
575.30247266437766
 21
1199.9264122408849
 31
0.0
  0
ARC
  5
36F2
  8
AM_0
 10
527.802472664378
 20
1205.5907122408851
 30
0.0
 40
5.0
 50
80.640142999995817
 51
180.00001000000091
  0
CIRCLE
  5
36F3
  8
AM_0
 10
482.80247266437777
 20
1186.154012240886
 30
0.0
 40
12.0
  0
LINE
  5
36F4
  8
ﾁｭｳｼﾝｾﾝ1
 10
482.80247266437777
 20
1204.685012240886
 30
0.0
 11
482.80247266437777
 21
1167.082912240885
 31
0.0
  0
LINE
  5
36F5
  8
AM_0
 10
452.80251266437813
 20
1212.0478122408849
 30
0.0
 11
452.80251266437813
 21
1159.6908225197881
 31
0.0
  0
LINE
  5
36F6
  8
ﾁｭｳｼﾝｾﾝ1
 10
463.48511266437799
 20
1186.154012240886
 30
0.0
 11
502.00437266437802
 21
1186.154012240886
 31
0.0
  0
ARC
  5
36F7
  8
AM_0
 10
457.80251266437813
 20
1212.0478122408849
 30
0.0
 40
5.0
 50
91.999998000000787
 51
180.00001000000091
  0
LINE
  5
36F8
  8
AM_0
 10
457.6278126643781
 20
865.26336224088595
 30
0.0
 11
575.30247266437766
 21
861.15411224088598
 31
0.0
  0
ARC
  5
36F9
  8
AM_0
 10
527.802472664378
 20
876.71740224088614
 30
0.0
 40
5.0
 50
180.00001000000091
 51
279.35984999999653
  0
LINE
  5
36FA
  8
AM_0
 10
523.58781266437802
 20
863.08453224088589
 30
0.0
 11
566.52964266437812
 21
868.39453224088595
 31
0.0
  0
LINE
  5
36FB
  8
AM_0
 10
571.11564266437813
 20
878.7892422408861
 30
0.0
 11
528.6156426643779
 21
871.78399224088605
 31
0.0
  0
ARC
  5
36FC
  8
AM_0
 10
565.302472664378
 20
878.31897224088596
 30
0.0
 40
10.0
 50
277.0491999999964
 51
0.0
  0
ARC
  5
36FD
  8
AM_0
 10
570.30247266437789
 20
883.72265224088596
 30
0.0
 40
5.0
 50
279.35985999999889
 51
344.36583000000519
  0
LINE
  5
36FE
  8
AM_0
 10
575.30247266437766
 20
878.31897224088596
 30
0.0
 11
575.30247266437766
 21
882.38165224088596
 31
0.0
  0
CIRCLE
  5
36FF
  8
AM_0
 10
482.80247266437777
 20
896.15405224088624
 30
0.0
 40
12.0
  0
LINE
  5
3700
  8
ﾁｭｳｼﾝｾﾝ1
 10
462.78911266437791
 20
896.15405224088624
 30
0.0
 11
501.55595266437791
 21
896.15405224088624
 31
0.0
  0
LINE
  5
3701
  8
AM_0
 10
452.80251266437813
 20
870.26031224088592
 30
0.0
 11
452.80251266437818
 21
922.6172017001843
 31
0.0
  0
ARC
  5
3702
  8
AM_0
 10
457.80251266437813
 20
870.26031224088592
 30
0.0
 40
5.0
 50
180.00001000000091
 51
268.0000000000029
  0
LINE
  5
3703
  8
ﾁｭｳｼﾝｾﾝ1
 10
482.80247266437777
 20
876.04931224088602
 30
0.0
 11
482.80247266437777
 21
915.71777224088601
 31
0.0
  0
LINE
  5
3704
  8
AM_0
 10
718.80242266437756
 20
547.46993802368024
 30
0.0
 11
823.80247266437789
 21
547.46993802368024
 31
0.0
  0
LINE
  5
3705
  8
ﾁｭｳｼﾝｾﾝ
 10
826.74147266437762
 20
577.46993802368013
 30
0.0
 11
497.34619657739341
 21
577.46993802368013
 31
0.0
  0
LINE
  5
3706
  8
AM_0
 10
742.8024226643779
 20
611.46995802367985
 30
0.0
 11
823.80247266437789
 21
611.46995802367985
 31
0.0
  0
LINE
  5
3707
  8
AM_0
 10
718.80242266437756
 20
607.46995802367985
 30
0.0
 11
823.80247266437789
 21
607.46995802367985
 31
0.0
  0
LINE
  5
3708
  8
AM_0
 10
392.3024726643776
 20
679.46993802368013
 30
0.0
 11
392.3024726643776
 21
379.46993802368019
 31
0.0
  0
LINE
  5
3709
  8
AM_0
 10
412.30247266437777
 20
676.46993802368013
 30
0.0
 11
412.30247266437777
 21
529.46993802368024
 31
0.0
  0
LINE
  5
370A
  8
AM_0
 10
718.80242266437756
 20
609.96995802368008
 30
0.0
 11
718.80242266437756
 21
544.96993802368024
 31
0.0
  0
LINE
  5
370B
  8
AM_0
 10
570.30242266437745
 20
709.46995802368008
 30
0.0
 11
570.30242266437745
 21
429.70803302368
 31
0.0
  0
LINE
  5
370C
  8
AM_0
 10
712.80242266437779
 20
639.57285802368006
 30
0.0
 11
712.80242266437779
 21
515.36700302368024
 31
0.0
  0
LINE
  5
370D
  8
AM_0
 10
706.80242266437756
 20
662.13925802367999
 30
0.0
 11
706.80242266437756
 21
384.4699330236802
 31
0.0
  0
LINE
  5
370E
  8
AM_0
 10
676.80242266437779
 20
691.09090802367984
 30
0.0
 11
676.80242266437779
 21
433.12191302368001
 31
0.0
  0
LINE
  5
370F
  8
AM_0
 10
646.80242266437779
 20
613.39690802368011
 30
0.0
 11
646.80242266437779
 21
399.4699330236802
 31
0.0
  0
LINE
  5
3710
  8
AM_0
 10
600.30242266437779
 20
707.78455802368035
 30
0.0
 11
600.30242266437779
 21
506.77215302367989
 31
0.0
  0
LINE
  5
3711
  8
AM_0
 10
550.30242266437779
 20
706.85060802368025
 30
0.0
 11
550.30242266437779
 21
410.94613302367998
 31
0.0
  0
LINE
  5
3712
  8
AM_0
 10
530.30242266437779
 20
657.66365802368011
 30
0.0
 11
530.30242266437779
 21
397.37053802368001
 31
0.0
  0
LINE
  5
3713
  8
AM_0
 10
486.3024226643775
 20
647.46995802368008
 30
0.0
 11
486.3024226643775
 21
411.46996302368018
 31
0.0
  0
LINE
  5
3714
  8
AM_0
 10
473.30247266437772
 20
649.46995802367985
 30
0.0
 11
473.30247266437772
 21
409.46993302367991
 31
0.0
  0
LINE
  5
3715
  8
AM_0
 10
486.3024226643775
 20
458.53713302368021
 30
0.0
 11
530.30242266437779
 21
458.53713302368021
 31
0.0
  0
LINE
  5
3716
  8
AM_0
 10
486.3024226643775
 20
442.79506802368019
 30
0.0
 11
530.30242266437779
 21
442.79506802368019
 31
0.0
  0
LINE
  5
3717
  8
AM_0
 10
452.80242266437762
 20
352.46993302368003
 30
0.0
 11
712.80242266437779
 21
352.46993302368003
 31
0.0
  0
LINE
  5
3718
  8
ﾁｭｳｼﾝｾﾝ
 10
379.36252980413462
 20
529.46993802368024
 30
0.0
 11
524.33773056514406
 21
529.46993802368024
 31
0.0
  0
LINE
  5
3719
  8
AM_0
 10
457.8024226643775
 20
384.4699330236802
 30
0.0
 11
518.80242266437767
 21
384.4699330236802
 31
0.0
  0
LINE
  5
371A
  8
AM_0
 10
488.3024726643776
 20
417.46993302368003
 30
0.0
 11
525.30242266437779
 21
417.46993302368003
 31
0.0
  0
LINE
  5
371B
  8
AM_0
 10
452.80242266437762
 20
379.46993302368003
 30
0.0
 11
452.80242266437762
 21
352.46993302368003
 31
0.0
  0
LINE
  5
371C
  8
ﾁｭｳｼﾝｾﾝ1
 10
482.8024226643775
 20
388.76973802368002
 30
0.0
 11
482.8024226643775
 21
347.1567780236802
 31
0.0
  0
LINE
  5
371D
  8
ｶｸﾚｾﾝ2
 10
470.80247266437777
 20
384.4699330236802
 30
0.0
 11
470.80247266437777
 21
352.46993302368003
 31
0.0
  0
LINE
  5
371E
  8
ｶｸﾚｾﾝ2
 10
494.80247266437777
 20
384.4699330236802
 30
0.0
 11
494.80247266437777
 21
352.46993302368003
 31
0.0
  0
LINE
  5
371F
  8
AM_0
 10
412.30247266437777
 20
382.46993802368002
 30
0.0
 11
412.30247266437777
 21
529.46993802368024
 31
0.0
  0
LINE
  5
3720
  8
AM_0
 10
469.60548066437752
 20
454.93617802368033
 30
0.0
 11
417.17158866437819
 21
453.5631480236803
 31
0.0
  0
LINE
  5
3721
  8
AM_0
 10
473.30247266437772
 20
411.46993796372789
 30
0.0
 11
417.17158866437819
 21
410.00009902368032
 31
0.0
  0
LINE
  5
3722
  8
AM_0
 10
415.26518766437778
 20
417.23321702368042
 30
0.0
 11
440.03547466437777
 21
428.28507902368023
 31
0.0
  0
LINE
  5
3723
  8
AM_0
 10
415.26518766437778
 20
432.78956702368032
 30
0.0
 11
440.03547466437777
 21
443.84142802368029
 31
0.0
  0
LINE
  5
3724
  8
AM_0
 10
392.3024726643776
 20
379.46993802368019
 30
0.0
 11
409.3024726643776
 21
379.46993802368019
 31
0.0
  0
ARC
  5
3725
  8
AM_0
 10
409.3024726643776
 20
382.46993802368002
 30
0.0
 40
3.0
 50
270.0
 51
0.0
  0
ARC
  5
3726
  8
AM_0
 10
417.3024726643776
 20
412.66709602368002
 30
0.0
 40
5.0
 50
114.0451930000003
 51
180.0
  0
ARC
  5
3727
  8
AM_0
 10
417.3024726643776
 20
405.0018130236802
 30
0.0
 40
5.0
 50
91.500000000002629
 51
180.0
  0
ARC
  5
3728
  8
AM_0
 10
417.3024726643776
 20
428.22344502368043
 30
0.0
 40
5.0
 50
114.0451930000003
 51
180.0
  0
ARC
  5
3729
  8
AM_0
 10
417.3024726643776
 20
448.56486102368012
 30
0.0
 40
5.0
 50
91.500000000002629
 51
150.7208910000015
  0
ARC
  5
372A
  8
AM_0
 10
457.8024226643775
 20
379.46993302368003
 30
0.0
 40
5.0
 50
90.00000299999769
 51
180.00001000000091
  0
LINE
  5
372B
  8
AM_0
 10
473.30247266437772
 20
409.46993302367991
 30
0.0
 11
484.30242266437762
 21
409.46993302367991
 31
0.0
  0
ARC
  5
372C
  8
AM_0
 10
484.30242266437762
 20
411.46996302368018
 30
0.0
 40
2.0000000500000001
 50
270.0
 51
0.0
  0
ARC
  5
372D
  8
AM_0
 10
488.3024726643776
 20
415.4699330236802
 30
0.0
 40
2.0000000500000001
 50
90.00000299999769
 51
180.00001000000091
  0
LINE
  5
372E
  8
AM_0
 10
443.3024726643776
 20
430.7489800236803
 30
0.0
 11
443.3024726643776
 21
442.22918202368032
 31
0.0
  0
LINE
  5
372F
  8
AM_0
 10
470.30308266437771
 20
445.2641790236803
 30
0.0
 11
470.30308266437771
 21
429.70782902368029
 31
0.0
  0
LINE
  5
3730
  8
AM_0
 10
471.30247266437772
 20
446.29907802368012
 30
0.0
 11
471.30247266437772
 21
430.74272902368028
 31
0.0
  0
LINE
  5
3731
  8
AM_0
 10
441.89826266437751
 20
428.71591102368012
 30
0.0
 11
470.30308266437771
 21
429.70782902368029
 31
0.0
  0
ARC
  5
3732
  8
AM_0
 10
442.07276066437782
 20
423.71895702368022
 30
0.0
 40
5.0
 50
92.000000000003666
 51
114.0451930000003
  0
LINE
  5
3733
  8
AM_0
 10
470.30308266437771
 20
429.70782902368029
 30
0.0
 11
471.30247266437772
 21
430.74272902368028
 31
0.0
  0
LINE
  5
3734
  8
AM_0
 10
470.30308266437771
 20
445.2641790236803
 30
0.0
 11
441.89826266437751
 21
444.27226002368042
 31
0.0
  0
ARC
  5
3735
  8
AM_0
 10
442.07276066437782
 20
439.27530602368029
 30
0.0
 40
5.0
 50
92.000000000003666
 51
114.0451930000003
  0
LINE
  5
3736
  8
AM_0
 10
470.30308266437771
 20
445.2641790236803
 30
0.0
 11
471.30247266437772
 21
446.29907802368012
 31
0.0
  0
LINE
  5
3737
  8
AM_0
 10
471.30247266437772
 20
453.44643102368042
 30
0.0
 11
471.30247266437772
 21
446.29907802368012
 31
0.0
  0
LINE
  5
3738
  8
AM_0
 10
473.30247266437772
 20
429.74273302368027
 30
0.0
 11
486.3024226643775
 21
429.74273302368027
 31
0.0
  0
LINE
  5
3739
  8
AM_0
 10
473.30247266437772
 20
453.45324302368027
 30
0.0
 11
486.3024226643775
 21
453.45324302368027
 31
0.0
  0
LINE
  5
373A
  8
AM_0
 10
473.30247266437772
 20
445.29906802367998
 30
0.0
 11
486.3024226643775
 21
445.29906802367998
 31
0.0
  0
LINE
  5
373B
  8
AM_0
 10
712.80242266437779
 20
379.46993302368003
 30
0.0
 11
712.80242266437779
 21
352.46993302368003
 31
0.0
  0
LINE
  5
373C
  8
ﾁｭｳｼﾝｾﾝ1
 10
682.80242266437745
 20
388.76973802368002
 30
0.0
 11
682.80242266437745
 21
347.1567780236802
 31
0.0
  0
LINE
  5
373D
  8
ｶｸﾚｾﾝ2
 10
670.80247266437777
 20
384.4699330236802
 30
0.0
 11
670.80247266437777
 21
352.46993302368003
 31
0.0
  0
LINE
  5
373E
  8
ｶｸﾚｾﾝ2
 10
694.80247266437789
 20
384.4699330236802
 30
0.0
 11
694.80247266437789
 21
352.46993302368003
 31
0.0
  0
LINE
  5
373F
  8
AM_0
 10
575.30242266437779
 20
506.77215302367989
 30
0.0
 11
575.30242266437779
 21
438.75564302367991
 31
0.0
  0
ARC
  5
3740
  8
AM_0
 10
565.30242266437756
 20
438.75564302367991
 30
0.0
 40
10.0
 50
313.60281999999847
 51
0.0
  0
LINE
  5
3741
  8
AM_0
 10
525.69902266437771
 20
387.22850802368021
 30
0.0
 11
572.19902266437748
 21
431.51421802368031
 31
0.0
  0
ARC
  5
3742
  8
AM_0
 10
518.80242266437767
 20
394.46993302368008
 30
0.0
 40
10.0
 50
270.0
 51
313.60281999999847
  0
ARC
  5
3743
  8
AM_0
 10
540.30242266437756
 20
397.37053802368001
 30
0.0
 40
10.0
 50
179.9999899999988
 51
206.5409200000035
  0
ARC
  5
3744
  8
AM_0
 10
525.30242266437779
 20
412.4699330236802
 30
0.0
 40
5.0
 50
0.0
 51
90.00000299999769
  0
LINE
  5
3745
  8
AM_0
 10
570.30242266437745
 20
506.77215302367989
 30
0.0
 11
600.30242266437779
 21
506.77215302367989
 31
0.0
  0
LINE
  5
3746
  8
AM_0
 10
661.80242266437745
 20
384.4699330236802
 30
0.0
 11
707.80242266437745
 21
384.4699330236802
 31
0.0
  0
ARC
  5
3747
  8
AM_0
 10
661.80242266437745
 20
399.4699330236802
 30
0.0
 40
15.0
 50
179.9999899999988
 51
270.0
  0
ARC
  5
3748
  8
AM_0
 10
666.80242266437779
 20
433.12191302368001
 30
0.0
 40
10.0
 50
270.0
 51
0.0
  0
LINE
  5
3749
  8
AM_0
 10
646.80242266437779
 20
423.12191302368018
 30
0.0
 11
666.80242266437779
 21
423.12191302368018
 31
0.0
  0
ARC
  5
374A
  8
AM_0
 10
707.80242266437745
 20
379.46993302368003
 30
0.0
 40
5.0
 50
0.0
 51
90.00000299999769
  0
ARC
  5
374B
  8
AM_0
 10
709.80247266437755
 20
509.36336802368032
 30
0.0
 40
3.0000000500000001
 50
91.999998000000545
 51
180.00001000000091
  0
ARC
  5
374C
  8
AM_0
 10
709.80247266437755
 20
515.36700302368024
 30
0.0
 40
3.0000000500000001
 50
271.9999999999971
 51
0.0
  0
LINE
  5
374D
  8
AM_0
 10
709.69777266437802
 20
512.36153802368017
 30
0.0
 11
709.90717266437775
 21
512.36883302368005
 31
0.0
  0
LINE
  5
374E
  8
AM_0
 10
712.80242266437779
 20
544.96993802368024
 30
0.0
 11
718.80242266437756
 21
544.96993802368024
 31
0.0
  0
LINE
  5
374F
  8
AM_0
 10
486.3024226643775
 20
616.1448080236803
 30
0.0
 11
530.30242266437779
 21
616.1448080236803
 31
0.0
  0
LINE
  5
3750
  8
AM_0
 10
486.3024226643775
 20
600.40276802367998
 30
0.0
 11
530.30242266437779
 21
600.40276802367998
 31
0.0
  0
LINE
  5
3751
  8
AM_0
 10
488.3024726643776
 20
641.46995802367985
 30
0.0
 11
525.30242266437779
 21
641.46995802367985
 31
0.0
  0
LINE
  5
3752
  8
AM_0
 10
415.26518766437778
 20
641.70665902368
 30
0.0
 11
440.03547466437777
 21
630.6547980236802
 31
0.0
  0
LINE
  5
3753
  8
AM_0
 10
469.60548066437752
 20
604.00369902368016
 30
0.0
 11
417.17158866437819
 21
605.37672902368013
 31
0.0
  0
LINE
  5
3754
  8
AM_0
 10
415.26518766437778
 20
626.15031002368028
 30
0.0
 11
440.03547466437777
 21
615.09844902368013
 31
0.0
  0
ARC
  5
3755
  8
AM_0
 10
417.3024726643776
 20
610.37501502368036
 30
0.0
 40
5.0
 50
209.2791089999985
 51
268.49999999999733
  0
ARC
  5
3756
  8
AM_0
 10
417.3024726643776
 20
630.71643202367989
 30
0.0
 40
5.0
 50
180.0
 51
245.95480699999951
  0
LINE
  5
3757
  8
AM_0
 10
470.30308266437771
 20
613.67569802368007
 30
0.0
 11
441.89826266437751
 21
614.66761602368001
 31
0.0
  0
LINE
  5
3758
  8
AM_0
 10
470.30308266437771
 20
613.67569802368007
 30
0.0
 11
470.30308266437771
 21
629.23204702368025
 31
0.0
  0
LINE
  5
3759
  8
AM_0
 10
471.30247266437772
 20
612.6407990236803
 30
0.0
 11
471.30247266437772
 21
628.19714802368026
 31
0.0
  0
LINE
  5
375A
  8
AM_0
 10
471.30247266437772
 20
605.49344502368001
 30
0.0
 11
471.30247266437772
 21
612.6407990236803
 31
0.0
  0
LINE
  5
375B
  8
AM_0
 10
470.30308266437771
 20
613.67569802368007
 30
0.0
 11
471.30247266437772
 21
612.6407990236803
 31
0.0
  0
LINE
  5
375C
  8
AM_0
 10
441.89826266437751
 20
630.22396502367985
 30
0.0
 11
470.30308266437771
 21
629.23204702368025
 31
0.0
  0
ARC
  5
375D
  8
AM_0
 10
442.07276066437782
 20
635.22091902368015
 30
0.0
 40
5.0
 50
245.95480699999951
 51
267.99999999999631
  0
ARC
  5
375E
  8
AM_0
 10
442.07276066437782
 20
619.6645700236802
 30
0.0
 40
5.0
 50
245.95480699999951
 51
267.99999999999631
  0
LINE
  5
375F
  8
AM_0
 10
443.3024726643776
 20
628.19089602368012
 30
0.0
 11
443.3024726643776
 21
616.71069502368005
 31
0.0
  0
LINE
  5
3760
  8
AM_0
 10
470.30308266437771
 20
629.23204702368025
 30
0.0
 11
471.30247266437772
 21
628.19714802368026
 31
0.0
  0
LINE
  5
3761
  8
AM_0
 10
473.30247266437772
 20
613.64075802367995
 30
0.0
 11
486.3024226643775
 21
613.64075802367995
 31
0.0
  0
LINE
  5
3762
  8
AM_0
 10
473.30247266437772
 20
605.48660802367988
 30
0.0
 11
486.3024226643775
 21
605.48660802367988
 31
0.0
  0
LINE
  5
3763
  8
AM_0
 10
473.30247266437772
 20
629.19715802368012
 30
0.0
 11
486.3024226643775
 21
629.19715802368012
 31
0.0
  0
LINE
  5
3764
  8
AM_0
 10
473.30247266437772
 20
647.46993808363254
 30
0.0
 11
417.17158866437819
 21
648.93977702368034
 31
0.0
  0
ARC
  5
3765
  8
AM_0
 10
409.3024726643776
 20
676.46993802368013
 30
0.0
 40
3.0
 50
0.0
 51
90.0
  0
ARC
  5
3766
  8
AM_0
 10
417.3024726643776
 20
653.93806402367989
 30
0.0
 40
5.0
 50
180.0
 51
268.49999999999733
  0
ARC
  5
3767
  8
AM_0
 10
417.3024726643776
 20
646.27278102367995
 30
0.0
 40
5.0
 50
180.0
 51
245.95480699999951
  0
LINE
  5
3768
  8
AM_0
 10
392.3024726643776
 20
679.46993802368013
 30
0.0
 11
409.3024726643776
 21
679.46993802368013
 31
0.0
  0
LINE
  5
3769
  8
AM_0
 10
473.30247266437772
 20
649.46995802367985
 30
0.0
 11
484.30242266437762
 21
649.46995802367985
 31
0.0
  0
ARC
  5
376A
  8
AM_0
 10
484.30242266437762
 20
647.46995802368008
 30
0.0
 40
2.0000000500000001
 50
0.0
 51
90.00000299999769
  0
ARC
  5
376B
  8
AM_0
 10
488.3024726643776
 20
643.46995802367996
 30
0.0
 40
2.0000000500000001
 50
179.9999899999988
 51
270.0
  0
CIRCLE
  5
376C
  8
AM_0
 10
552.30247266437755
 20
735.46995802367985
 30
0.0
 40
15.0
  0
ARC
  5
376D
  8
AM_0
 10
552.30247266437755
 20
735.46995802367985
 30
0.0
 40
25.000000499999999
 50
306.46672000000012
 51
233.5332899999996
  0
LINE
  5
376E
  8
AM_0
 10
612.01757266437755
 20
703.01015802368045
 30
0.0
 11
667.15142266437749
 21
701.08480802368035
 31
0.0
  0
LINE
  5
376F
  8
AM_0
 10
570.30247266437789
 20
709.46995802368008
 30
0.0
 11
595.31892266437785
 21
708.5963580236803
 31
0.0
  0
ARC
  5
3770
  8
AM_0
 10
547.30247266437755
 20
679.91175802368025
 30
0.0
 40
3.0000000500000001
 50
308.65980999999641
 51
0.0
  0
LINE
  5
3771
  8
AM_0
 10
537.30247266437777
 20
707.46995802367985
 30
0.0
 11
537.30247266437777
 21
670.47305802368032
 31
0.0
  0
LINE
  5
3772
  8
AM_0
 10
549.17657266437777
 20
677.56915802367996
 30
0.0
 11
535.42597266437758
 21
666.56875802367995
 31
0.0
  0
ARC
  5
3773
  8
AM_0
 10
525.30242266437779
 20
646.46995802368008
 30
0.0
 40
5.0
 50
270.0
 51
0.0
  0
LINE
  5
3774
  8
AM_0
 10
535.72587266437756
 20
666.56875802367995
 30
0.0
 11
534.35552266437765
 21
665.47245802368025
 31
0.0
  0
ARC
  5
3775
  8
AM_0
 10
532.30247266437777
 20
670.47305802368032
 30
0.0
 40
5.0
 50
308.65980999999641
 51
0.0
  0
ARC
  5
3776
  8
AM_0
 10
540.30242266437756
 20
657.66365802368011
 30
0.0
 40
10.0
 50
128.65980999999641
 51
180.00001000000091
  0
LINE
  5
3777
  8
AM_0
 10
539.30242266437779
 20
709.46995802368008
 30
0.0
 11
570.00242266437726
 21
709.46995802368008
 31
0.0
  0
ARC
  5
3778
  8
AM_0
 10
533.8774226643776
 20
710.53965802368043
 30
0.0
 40
6.0
 50
349.72994999999878
 51
53.533291000000993
  0
ARC
  5
3779
  8
AM_0
 10
539.30242266437779
 20
707.46995802367985
 30
0.0
 40
2.0000000500000001
 50
90.00000299999769
 51
180.00001000000091
  0
LINE
  5
377A
  8
AM_0
 10
552.30247266437755
 20
720.46995802367985
 30
0.0
 11
561.7805226643776
 21
718.59095802368029
 31
0.0
  0
LINE
  5
377B
  8
AM_0
 10
542.50842266437735
 20
718.46995802367996
 30
0.0
 11
562.09652266437774
 21
718.46995802367996
 31
0.0
  0
LINE
  5
377C
  8
AM_0
 10
552.23267266437745
 20
708.84945802368043
 30
0.0
 11
570.00242266437726
 21
709.47000802368029
 31
0.0
  0
LINE
  5
377D
  8
AM_0
 10
542.82442266437761
 20
718.59090802367984
 30
0.0
 11
552.30247266437755
 21
720.4698580236801
 31
0.0
  0
LINE
  5
377E
  8
AM_0
 10
539.80247266437755
 20
709.46995802368008
 30
0.0
 11
542.05297266437788
 21
717.86885802368045
 31
0.0
  0
ARC
  5
377F
  8
AM_0
 10
543.01887266437745
 20
717.61005802368015
 30
0.0
 40
1.0
 50
101.21328999999869
 51
164.99998999999869
  0
ARC
  5
3780
  8
AM_0
 10
552.30247266437755
 20
706.85060802368025
 30
0.0
 40
2.0000000500000001
 50
91.999998000000545
 51
180.00001000000091
  0
LINE
  5
3781
  8
AM_0
 10
570.00242266437726
 20
709.46995802368008
 30
0.0
 11
570.30242266437745
 21
709.46995802368008
 31
0.0
  0
LINE
  5
3782
  8
AM_0
 10
564.80242266437756
 20
709.46995802368008
 30
0.0
 11
562.55192266437768
 21
717.86885802368045
 31
0.0
  0
ARC
  5
3783
  8
AM_0
 10
561.58602266437777
 20
717.61005802368015
 30
0.0
 40
1.0
 50
15.000000000000741
 51
78.786710000001207
  0
ARC
  5
3784
  8
AM_0
 10
570.72747266437761
 20
710.53965802368043
 30
0.0
 40
6.0
 50
126.46669999999671
 51
190.27005999999909
  0
LINE
  5
3785
  8
AM_0
 10
604.62092266437764
 20
705.92905802368011
 30
0.0
 11
607.36662266437816
 21
704.34385802368013
 31
0.0
  0
ARC
  5
3786
  8
AM_0
 10
594.62092266437764
 20
688.60850802368043
 30
0.0
 40
20.000000499999999
 50
60.000002000001302
 51
88.000000000002785
  0
ARC
  5
3787
  8
AM_0
 10
612.36662266437816
 20
713.00405802368005
 30
0.0
 40
10.0
 50
239.99999999999949
 51
268.00000000000261
  0
LINE
  5
3788
  8
AM_0
 10
661.80242266437745
 20
628.39685802368012
 30
0.0
 11
676.80242266437779
 21
628.39685802368012
 31
0.0
  0
ARC
  5
3789
  8
AM_0
 10
661.80242266437745
 20
613.39690802368011
 30
0.0
 40
15.0
 50
90.00000299999769
 51
180.00001000000091
  0
LINE
  5
378A
  8
AM_0
 10
712.80242266437779
 20
609.96995802368008
 30
0.0
 11
718.80242266437756
 21
609.96995802368008
 31
0.0
  0
LINE
  5
378B
  8
AM_0
 10
742.8024226643779
 20
611.46995802367985
 30
0.0
 11
742.8024226643779
 21
607.46995802367985
 31
0.0
  0
ARC
  5
378C
  8
AM_0
 10
709.80247266437755
 20
645.57650802368005
 30
0.0
 40
3.0000000500000001
 50
179.9999899999988
 51
268.00000999999861
  0
ARC
  5
378D
  8
AM_0
 10
698.80242266437745
 20
662.13925802367999
 30
0.0
 40
8.0
 50
0.0
 51
84.999996999998885
  0
ARC
  5
378E
  8
AM_0
 10
686.80242266437745
 20
681.25790802368033
 30
0.0
 40
10.0
 50
179.9999899999988
 51
265.0
  0
LINE
  5
378F
  8
AM_0
 10
685.93092266437804
 20
671.29600802368032
 30
0.0
 11
699.49962266437785
 21
670.10885802368011
 31
0.0
  0
ARC
  5
3790
  8
AM_0
 10
666.80242266437779
 20
691.09090802367984
 30
0.0
 40
10.0
 50
0.0
 51
88.000000000002785
  0
ARC
  5
3791
  8
AM_0
 10
709.80247266437755
 20
639.57285802368006
 30
0.0
 40
3.0000000500000001
 50
0.0
 51
88.000000000002785
  0
LINE
  5
3792
  8
AM_0
 10
709.69777266437802
 20
642.57835802368015
 30
0.0
 11
709.90712266437811
 21
642.57100802367995
 31
0.0
  0
LINE
  5
3793
  8
AM_0
 10
823.80247266437789
 20
611.46995802367985
 30
0.0
 11
823.80247266437789
 21
547.46993802368024
 31
0.0
  0
CIRCLE
  5
3794
  8
AM_0
 10
1125.82984527493
 20
577.46993802368013
 30
0.0
 40
65.0
  0
ARC
  5
3795
  8
AM_0
 10
1125.82984527493
 20
577.46993802368013
 30
0.0
 40
30.000000499999999
 50
107.45760000000089
 51
72.542383999997952
  0
LINE
  5
3796
  8
AM_0
 10
1262.648220274931
 20
609.27150802368033
 30
0.0
 11
1305.8298302749311
 21
387.12142302367999
 31
0.0
  0
LINE
  5
3797
  8
AM_0
 10
1255.8298302749311
 20
626.77195802368033
 30
0.0
 11
1255.8298302749311
 21
489.46993802368019
 31
0.0
  0
LINE
  5
3798
  8
AM_0
 10
1232.829815274931
 20
562.46993802368024
 30
0.0
 11
1232.829815274931
 21
399.4699330236802
 31
0.0
  0
LINE
  5
3799
  8
AM_0
 10
1018.829815274931
 20
562.46993802368024
 30
0.0
 11
1018.829815274931
 21
399.4699330236802
 31
0.0
  0
LINE
  5
379A
  8
AM_0
 10
995.82984527493113
 20
626.77195802368033
 30
0.0
 11
995.82984527493113
 21
489.46993802368019
 31
0.0
  0
LINE
  5
379B
  8
AM_0
 10
989.01142027493086
 20
609.27150802368033
 30
0.0
 11
945.82983027493094
 21
387.1214530236802
 31
0.0
  0
LINE
  5
379C
  8
ﾁｭｳｼﾝｾﾝ
 10
1125.82984527493
 20
771.9462241540067
 30
0.0
 11
1125.82984527493
 21
343.03241802368018
 31
0.0
  0
LINE
  5
379D
  8
AM_0
 10
1300.8298302749311
 20
384.4699330236802
 30
0.0
 11
1230.8298302749311
 21
384.4699330236802
 31
0.0
  0
LINE
  5
379E
  8
AM_0
 10
1305.8298302749311
 20
352.46993302368003
 30
0.0
 11
1225.8298302749311
 21
352.46993302368003
 31
0.0
  0
LINE
  5
379F
  8
ﾁｭｳｼﾝｾﾝ
 10
977.92413487557747
 20
529.46993802368024
 30
0.0
 11
1273.432435001102
 21
529.46993802368024
 31
0.0
  0
LINE
  5
37A0
  8
AM_0
 10
950.82983027493083
 20
384.4699330236802
 30
0.0
 11
1020.829845274931
 21
384.4699330236802
 31
0.0
  0
LINE
  5
37A1
  8
AM_0
 10
945.82983027493094
 20
352.46993302368003
 30
0.0
 11
1025.82984527493
 21
352.46993302368003
 31
0.0
  0
ARC
  5
37A2
  8
AM_0
 10
1125.82984527493
 20
489.46993802368019
 30
0.0
 40
130.0
 50
179.9999899999988
 51
214.60599000000229
  0
ARC
  5
37A3
  8
AM_0
 10
1003.829810274931
 20
399.4699330236802
 30
0.0
 40
15.0
 50
270.0
 51
0.0
  0
LINE
  5
37A4
  8
ｶｸﾚｾﾝ2
 10
968.82983027493106
 20
384.4699330236802
 30
0.0
 11
968.82983027493106
 21
352.46993302368003
 31
0.0
  0
LINE
  5
37A5
  8
AM_0
 10
945.82983027493094
 20
387.1214530236802
 30
0.0
 11
945.82983027493094
 21
352.46993302368003
 31
0.0
  0
LINE
  5
37A6
  8
ﾁｭｳｼﾝｾﾝ1
 10
980.82984527493102
 20
389.3083430236801
 30
0.0
 11
980.82984527493102
 21
346.23037302368027
 31
0.0
  0
LINE
  5
37A7
  8
ｶｸﾚｾﾝ2
 10
992.82984527493113
 20
384.4699330236802
 30
0.0
 11
992.82984527493113
 21
352.46993302368003
 31
0.0
  0
ARC
  5
37A8
  8
AM_0
 10
950.82983027493083
 20
379.46993302368003
 30
0.0
 40
5.0
 50
90.00000299999769
 51
180.00001000000091
  0
ARC
  5
37A9
  8
AM_0
 10
1207.70570027493
 20
366.45189802368043
 30
0.0
 40
10.0
 50
45.000001000003799
 51
126.0000000000027
  0
LINE
  5
37AA
  8
AM_0
 10
1225.8298302749311
 20
379.46993302368003
 30
0.0
 11
1225.8298302749311
 21
352.46993302368003
 31
0.0
  0
ARC
  5
37AB
  8
AM_0
 10
1043.9539302749311
 20
366.45189802368043
 30
0.0
 40
10.0
 50
54.000001999999917
 51
135.0
  0
LINE
  5
37AC
  8
AM_0
 10
1025.82984527493
 20
379.46993302368003
 30
0.0
 11
1025.82984527493
 21
352.46993302368003
 31
0.0
  0
LINE
  5
37AD
  8
ﾁｭｳｼﾝｾﾝ1
 10
1270.8298302749311
 20
389.3083430236801
 30
0.0
 11
1270.8298302749311
 21
346.23037302368027
 31
0.0
  0
LINE
  5
37AE
  8
ｶｸﾚｾﾝ2
 10
1258.8298302749311
 20
384.4699330236802
 30
0.0
 11
1258.8298302749311
 21
352.46993302368003
 31
0.0
  0
LINE
  5
37AF
  8
AM_0
 10
1222.829815274931
 20
355.4699330236802
 30
0.0
 11
1125.82984527493
 21
355.4699330236802
 31
0.0
  0
LINE
  5
37B0
  8
AM_0
 10
1185.774975274931
 20
365.23964802368022
 30
0.0
 11
1125.82984527493
 21
365.23964802368022
 31
0.0
  0
LINE
  5
37B1
  8
AM_0
 10
1065.88468527493
 20
365.23964802368022
 30
0.0
 11
1125.82984527493
 21
365.23964802368022
 31
0.0
  0
LINE
  5
37B2
  8
AM_0
 10
1028.8298152749301
 20
355.4699330236802
 30
0.0
 11
1125.82984527493
 21
355.4699330236802
 31
0.0
  0
ARC
  5
37B3
  8
AM_0
 10
1028.8298152749301
 20
352.46993302368003
 30
0.0
 40
3.0000000500000001
 50
90.00000299999769
 51
180.00001000000091
  0
LINE
  5
37B4
  8
AM_0
 10
1028.758735274931
 20
365.39888802368012
 30
0.0
 11
1036.88285027493
 21
373.52300302368019
 31
0.0
  0
ARC
  5
37B5
  8
AM_0
 10
1035.82984527493
 20
358.32781302368028
 30
0.0
 40
10.0
 50
135.0
 51
180.00001000000091
  0
ARC
  5
37B6
  8
AM_0
 10
1065.88468527493
 20
375.23964802368022
 30
0.0
 40
10.0
 50
233.9999999999971
 51
270.0
  0
LINE
  5
37B7
  8
AM_0
 10
1060.006845274931
 20
367.14946802368041
 30
0.0
 11
1049.8317652749311
 21
374.54207802368018
 31
0.0
  0
LINE
  5
37B8
  8
AM_0
 10
1222.900890274931
 20
365.3988580236803
 30
0.0
 11
1214.7767752749301
 21
373.52297302368021
 31
0.0
  0
LINE
  5
37B9
  8
AM_0
 10
1191.6528152749311
 20
367.14946802368041
 30
0.0
 11
1201.8278952749311
 21
374.54207802368018
 31
0.0
  0
ARC
  5
37BA
  8
AM_0
 10
1185.774975274931
 20
375.23964802368022
 30
0.0
 40
10.0
 50
270.0
 51
306.00000000000261
  0
ARC
  5
37BB
  8
AM_0
 10
1222.829815274931
 20
352.46993302368003
 30
0.0
 40
3.0000000500000001
 50
0.0
 51
90.00000299999769
  0
ARC
  5
37BC
  8
AM_0
 10
1215.82984527493
 20
358.32781302368028
 30
0.0
 40
10.0
 50
0.0
 51
45.000001000003799
  0
ARC
  5
37BD
  8
AM_0
 10
1020.829845274931
 20
379.46993302368003
 30
0.0
 40
5.0
 50
0.0
 51
90.00000299999769
  0
ARC
  5
37BE
  8
AM_0
 10
1125.82984527493
 20
489.46993802368019
 30
0.0
 40
130.0
 50
325.39400000000001
 51
0.0
  0
ARC
  5
37BF
  8
AM_0
 10
1247.829815274931
 20
399.4699330236802
 30
0.0
 40
15.0
 50
179.9999899999988
 51
270.0
  0
ARC
  5
37C0
  8
AM_0
 10
1230.8298302749311
 20
379.46993302368003
 30
0.0
 40
5.0
 50
90.00000299999769
 51
180.00001000000091
  0
LINE
  5
37C1
  8
AM_0
 10
1305.8298302749311
 20
387.1214530236802
 30
0.0
 11
1305.8298302749311
 21
352.46993302368003
 31
0.0
  0
LINE
  5
37C2
  8
ｶｸﾚｾﾝ2
 10
1282.829815274931
 20
384.4699330236802
 30
0.0
 11
1282.829815274931
 21
352.46993302368003
 31
0.0
  0
ARC
  5
37C3
  8
AM_0
 10
1300.8298302749311
 20
379.46993302368003
 30
0.0
 40
5.0
 50
0.0
 51
90.00000299999769
  0
ARC
  5
37C4
  8
AM_0
 10
1105.694255274931
 20
580.65157802368014
 30
0.0
 40
120.0
 50
111.4753500000013
 51
169.00000000000131
  0
ARC
  5
37C5
  8
AM_0
 10
1106.806710274931
 20
586.37444802368009
 30
0.0
 40
120.0
 50
108.4847599999984
 51
169.00000000000131
  0
ARC
  5
37C6
  8
AM_0
 10
1125.82984527493
 20
562.46993802368024
 30
0.0
 40
107.0
 50
90.00000299999769
 51
180.00001000000091
  0
ARC
  5
37C7
  8
AM_0
 10
1005.829845274931
 20
626.77195802368033
 30
0.0
 40
10.0
 50
155.21109000000271
 51
180.00001000000091
  0
LINE
  5
37C8
  8
AM_0
 10
1130.82984527493
 20
755.46995802367985
 30
0.0
 11
1130.82984527493
 21
713.46995802368008
 31
0.0
  0
LINE
  5
37C9
  8
AM_0
 10
1120.82984527493
 20
755.46995802367985
 30
0.0
 11
1120.82984527493
 21
713.46995802368008
 31
0.0
  0
ARC
  5
37CA
  8
AM_0
 10
1125.82984527493
 20
562.46993802368024
 30
0.0
 40
107.0
 50
0.0
 51
90.00000299999769
  0
LINE
  5
37CB
  8
ﾁｭｳｼﾝｾﾝ
 10
1026.875567854951
 20
577.46993802368013
 30
0.0
 11
1224.121059710239
 21
577.46993802368013
 31
0.0
  0
ARC
  5
37CC
  8
AM_0
 10
1125.82984527493
 20
529.46993802368024
 30
0.0
 40
180.0000049999999
 50
71.515243000000595
 51
90.00000299999769
  0
ARC
  5
37CD
  8
AM_0
 10
1125.82984527493
 20
529.46993802368024
 30
0.0
 40
175.0000049999999
 50
68.524644999998387
 51
90.00000299999769
  0
CIRCLE
  5
37CE
  8
AM_5
 10
1125.82984527493
 20
577.46993802368013
 30
0.0
 40
6.0
  0
CIRCLE
  5
37CF
  8
AM_0
 10
1125.82984527493
 20
577.46993802368013
 30
0.0
 40
4.500000049999997
  0
LINE
  5
37D0
  8
AM_0
 10
1116.8298152749301
 20
611.46995802367985
 30
0.0
 11
1134.8298152749301
 21
611.46995802367985
 31
0.0
  0
LINE
  5
37D1
  8
AM_0
 10
1116.8298152749301
 20
600.46993802368013
 30
0.0
 11
1134.8298152749301
 21
600.46993802368013
 31
0.0
  0
LINE
  5
37D2
  8
AM_0
 10
1116.8298152749301
 20
611.46995802367985
 30
0.0
 11
1116.8298152749301
 21
600.46993802368013
 31
0.0
  0
LINE
  5
37D3
  8
AM_0
 10
1134.8298152749301
 20
611.46995802367985
 30
0.0
 11
1134.8298152749301
 21
600.46993802368013
 31
0.0
  0
ARC
  5
37D4
  8
AM_0
 10
1125.82984527493
 20
529.46993802368024
 30
0.0
 40
175.0000049999999
 50
90.00000299999769
 51
111.4753500000013
  0
ARC
  5
37D5
  8
AM_0
 10
1125.82984527493
 20
529.46993802368024
 30
0.0
 40
180.0000049999999
 50
90.00000299999769
 51
108.4847599999984
  0
LINE
  5
37D6
  8
AM_0
 10
1113.211160274931
 20
709.02705802368041
 30
0.0
 11
1115.580335274931
 21
717.86885802368045
 31
0.0
  0
ARC
  5
37D7
  8
AM_0
 10
1132.82984527493
 20
713.46995802368008
 30
0.0
 40
2.0000000500000001
 50
179.9999899999988
 51
270.0
  0
LINE
  5
37D8
  8
AM_0
 10
1130.829815274931
 20
719.47870802368016
 30
0.0
 11
1135.307870274931
 21
718.59090802367984
 31
0.0
  0
ARC
  5
37D9
  8
AM_0
 10
1116.54624527493
 20
717.61005802368015
 30
0.0
 40
1.0
 50
101.21328999999869
 51
164.99998999999869
  0
ARC
  5
37DA
  8
AM_0
 10
1118.8298152749301
 20
713.46995802368008
 30
0.0
 40
2.0000000500000001
 50
270.0
 51
0.0
  0
LINE
  5
37DB
  8
AM_0
 10
1116.3517852749301
 20
718.59090802367984
 30
0.0
 11
1120.82984527493
 21
719.47865802368028
 31
0.0
  0
ARC
  5
37DC
  8
AM_0
 10
1135.1134452749311
 20
717.61005802368015
 30
0.0
 40
1.0
 50
15.000000000000741
 51
78.786710000001207
  0
LINE
  5
37DD
  8
AM_0
 10
1138.4484652749311
 20
709.02705802368041
 30
0.0
 11
1136.079325274929
 21
717.86885802368045
 31
0.0
  0
ARC
  5
37DE
  8
AM_0
 10
1144.85297527493
 20
586.37444802368009
 30
0.0
 40
120.0
 50
10.999999999998691
 51
71.515243000000595
  0
ARC
  5
37DF
  8
AM_0
 10
1145.96537527493
 20
580.65157802368014
 30
0.0
 40
120.0
 50
10.999999999998691
 51
68.524651000000731
  0
ARC
  5
37E0
  8
AM_0
 10
1245.8298302749311
 20
626.77195802368033
 30
0.0
 40
10.0
 50
0.0
 51
24.788911000003161
  0
ARC
  5
37E1
  8
AM_0
 10
1125.82984527493
 20
755.46995802367985
 30
0.0
 40
5.0
 50
0.0
 51
179.9999899999988
  0
LINE
  5
37E2
  8
AM_0
 10
443.302472664378
 20
1139.874970109985
 30
0.0
 11
443.302472664378
 21
1128.3947691099861
 31
0.0
  0
LINE
  5
37E3
  8
AM_0
 10
415.26518766437817
 20
1137.8343841099861
 30
0.0
 11
440.03547466437777
 21
1126.782523109985
 31
0.0
  0
LINE
  5
37E4
  8
AM_0
 10
412.30247266437789
 20
1188.1540121099861
 30
0.0
 11
412.30247266437789
 21
1041.1540121099861
 31
0.0
  0
LINE
  5
37E5
  8
AM_0
 10
392.302472664378
 20
1191.1540121099861
 30
0.0
 11
392.302472664378
 21
891.1540121099863
 31
0.0
  0
LINE
  5
37E6
  8
AM_0
 10
443.302472664378
 20
942.43305410998641
 30
0.0
 11
443.302472664378
 21
953.91325610998581
 31
0.0
  0
ARC
  5
37E7
  8
AM_0
 10
417.30247266437789
 20
939.90751910998642
 30
0.0
 40
5.0
 50
114.0451930000003
 51
180.0
  0
LINE
  5
37E8
  8
AM_0
 10
412.30247266437789
 20
894.15401210998618
 30
0.0
 11
412.30247266437789
 21
1041.1540121099861
 31
0.0
  0
LINE
  5
37E9
  8
AM_0
 10
441.89826266437802
 20
940.39998510998646
 30
0.0
 11
470.30308266437811
 21
941.39190310998629
 31
0.0
  0
LINE
  5
37EA
  8
AM_0
 10
473.30247266437812
 20
923.15401205003388
 30
0.0
 11
417.17158866437842
 21
921.68417310998632
 31
0.0
  0
LINE
  5
37EB
  8
AM_0
 10
392.302472664378
 20
891.1540121099863
 30
0.0
 11
409.302472664378
 21
891.1540121099863
 31
0.0
  0
ARC
  5
37EC
  8
AM_0
 10
409.302472664378
 20
894.15401210998618
 30
0.0
 40
3.0
 50
270.0
 51
0.0
  0
LINE
  5
37ED
  8
AM_0
 10
415.26518766437817
 20
928.91729110998642
 30
0.0
 11
440.03547466437777
 21
939.96915310998645
 31
0.0
  0
ARC
  5
37EE
  8
AM_0
 10
417.30247266437789
 20
916.68588710998631
 30
0.0
 40
5.0
 50
91.500000000002629
 51
180.0
  0
ARC
  5
37EF
  8
AM_0
 10
417.30247266437789
 20
924.35117010998636
 30
0.0
 40
5.0
 50
114.0451930000003
 51
180.0
  0
ARC
  5
37F0
  8
AM_0
 10
442.07276066437822
 20
935.40303110998582
 30
0.0
 40
5.0
 50
92.000000000003666
 51
114.0451930000003
  0
LINE
  5
37F1
  8
AM_0
 10
470.30308266437811
 20
1125.359772109985
 30
0.0
 11
441.89826266437802
 21
1126.3516901099861
 31
0.0
  0
LINE
  5
37F2
  8
AM_0
 10
469.60548066437792
 20
1115.6877731099851
 30
0.0
 11
417.17158866437842
 21
1117.060803109986
 31
0.0
  0
LINE
  5
37F3
  8
AM_0
 10
470.30308266437811
 20
956.94825310998647
 30
0.0
 11
441.89826266437802
 21
955.9563341099863
 31
0.0
  0
LINE
  5
37F4
  8
AM_0
 10
469.60548066437792
 20
966.62025210998615
 30
0.0
 11
417.17158866437842
 21
965.24722210998652
 31
0.0
  0
LINE
  5
37F5
  8
AM_0
 10
415.26518766437817
 20
944.47364110998637
 30
0.0
 11
440.03547466437777
 21
955.52550210998629
 31
0.0
  0
ARC
  5
37F6
  8
AM_0
 10
417.30247266437789
 20
960.24893510998641
 30
0.0
 40
5.0
 50
91.500000000002629
 51
150.7208910000015
  0
ARC
  5
37F7
  8
AM_0
 10
442.07276066437822
 20
950.95938010998645
 30
0.0
 40
5.0
 50
92.000000000003666
 51
114.0451930000003
  0
ARC
  5
37F8
  8
AM_0
 10
417.30247266437789
 20
1122.0590891099851
 30
0.0
 40
5.0
 50
209.2791089999985
 51
268.49999999999733
  0
ARC
  5
37F9
  8
AM_0
 10
442.07276066437822
 20
1131.348644109986
 30
0.0
 40
5.0
 50
245.95480699999951
 51
267.99999999999631
  0
LINE
  5
37FA
  8
AM_0
 10
473.30247266437812
 20
1159.1540121699379
 30
0.0
 11
417.17158866437842
 21
1160.6238511099859
 31
0.0
  0
LINE
  5
37FB
  8
AM_0
 10
441.89826266437802
 20
1141.908039109986
 30
0.0
 11
470.30308266437811
 21
1140.916121109984
 31
0.0
  0
LINE
  5
37FC
  8
AM_0
 10
415.26518766437817
 20
1153.3907331099861
 30
0.0
 11
440.03547466437777
 21
1142.3388721099859
 31
0.0
  0
ARC
  5
37FD
  8
AM_0
 10
417.30247266437789
 20
1157.956855109986
 30
0.0
 40
5.0
 50
180.0
 51
245.95480699999951
  0
ARC
  5
37FE
  8
AM_0
 10
417.30247266437789
 20
1142.4005061099861
 30
0.0
 40
5.0
 50
180.0
 51
245.95480699999951
  0
ARC
  5
37FF
  8
AM_0
 10
417.30247266437789
 20
1165.6221381099861
 30
0.0
 40
5.0
 50
180.0
 51
268.49999999999733
  0
ARC
  5
3800
  8
AM_0
 10
442.07276066437822
 20
1146.904993109986
 30
0.0
 40
5.0
 50
245.95480699999951
 51
267.99999999999631
  0
LINE
  5
3801
  8
AM_0
 10
392.302472664378
 20
1191.1540121099861
 30
0.0
 11
409.302472664378
 21
1191.1540121099861
 31
0.0
  0
ARC
  5
3802
  8
AM_0
 10
409.302472664378
 20
1188.1540121099861
 30
0.0
 40
3.0
 50
0.0
 51
90.0
  0
LINE
  5
3803
  8
AM_0
 10
471.30247266437789
 20
1124.324873109985
 30
0.0
 11
471.30247266437789
 21
1139.881222109984
 31
0.0
  0
LINE
  5
3804
  8
AM_0
 10
470.30308266437811
 20
1125.359772109985
 30
0.0
 11
470.30308266437811
 21
1140.916121109984
 31
0.0
  0
LINE
  5
3805
  8
AM_0
 10
471.30247266437789
 20
957.98315210998635
 30
0.0
 11
471.30247266437789
 21
942.42680310998628
 31
0.0
  0
LINE
  5
3806
  8
AM_0
 10
470.30308266437811
 20
956.94825310998647
 30
0.0
 11
470.30308266437811
 21
941.39190310998629
 31
0.0
  0
LINE
  5
3807
  8
AM_0
 10
470.30308266437811
 20
941.39190310998629
 30
0.0
 11
471.30247266437789
 21
942.42680310998628
 31
0.0
  0
LINE
  5
3808
  8
AM_0
 10
471.30247266437789
 20
965.13050510998642
 30
0.0
 11
471.30247266437789
 21
957.98315210998635
 31
0.0
  0
LINE
  5
3809
  8
AM_0
 10
470.30308266437811
 20
956.94825310998647
 30
0.0
 11
471.30247266437789
 21
957.98315210998635
 31
0.0
  0
LINE
  5
380A
  8
AM_0
 10
470.30308266437811
 20
1125.359772109985
 30
0.0
 11
471.30247266437789
 21
1124.324873109985
 31
0.0
  0
LINE
  5
380B
  8
AM_0
 10
471.30247266437789
 20
1117.177519109985
 30
0.0
 11
471.30247266437789
 21
1124.324873109985
 31
0.0
  0
LINE
  5
380C
  8
AM_0
 10
470.30308266437811
 20
1140.916121109984
 30
0.0
 11
471.30247266437789
 21
1139.881222109984
 31
0.0
  0
TEXT
  5
39ED
  8
AM_0
 10
996.62446774993543
 20
1097.05970169948
 30
0.0
 40
20.0
  1
VX75-025A~VX75-030A
  0
ENDSEC
  0
EOF
