  0
SECTION
  2
HEADER
  9
$ACADVER
  1
AC1009
  9
$INSBASE
 10
0.0
 20
0.0
 30
0.0
  9
$EXTMIN
 10
340.28346755737857
 20
304.05769909967921
 30
-0.0000000349181948
  9
$EXTMAX
 10
1461.4442407751269
 20
1399.24688102798
 30
0.0000000814935747
  9
$LIMMIN
 10
0.0
 20
0.0
  9
$LIMMAX
 10
1991.5
 20
1295.0
  9
$ORTHOMODE
 70
     0
  9
$REGENMODE
 70
     1
  9
$FILLMODE
 70
     1
  9
$QTEXTMODE
 70
     0
  9
$MIRRTEXT
 70
     1
  9
$DRAGMODE
 70
     2
  9
$LTSCALE
 40
7.0
  9
$OSMODE
 70
   551
  9
$ATTMODE
 70
     1
  9
$TEXTSIZE
 40
2.5
  9
$TRACEWID
 40
1.0
  9
$TEXTSTYLE
  7
STANDARD
  9
$CLAYER
  8
AM_0
  9
$CELTYPE
  6
BYLAYER
  9
$CECOLOR
 62
   256
  9
$DIMSCALE
 40
7.0
  9
$DIMASZ
 40
2.5
  9
$DIMEXO
 40
1.0
  9
$DIMDLI
 40
8.0
  9
$DIMRND
 40
0.0
  9
$DIMDLE
 40
0.0
  9
$DIMEXE
 40
0.6
  9
$DIMTP
 40
0.1
  9
$DIMTM
 40
0.1
  9
$DIMTXT
 40
2.5
  9
$DIMCEN
 40
0.0
  9
$DIMTSZ
 40
0.0
  9
$DIMTOL
 70
     0
  9
$DIMLIM
 70
     0
  9
$DIMTIH
 70
     0
  9
$DIMTOH
 70
     0
  9
$DIMSE1
 70
     0
  9
$DIMSE2
 70
     0
  9
$DIMTAD
 70
     1
  9
$DIMZIN
 70
     8
  9
$DIMBLK
  1

  9
$DIMASO
 70
     1
  9
$DIMSHO
 70
     1
  9
$DIMPOST
  1

  9
$DIMAPOST
  1
"
  9
$DIMALT
 70
     0
  9
$DIMALTD
 70
     2
  9
$DIMALTF
 40
0.0393701
  9
$DIMLFAC
 40
1.0
  9
$DIMTOFL
 70
     1
  9
$DIMTVP
 40
0.0
  9
$DIMTIX
 70
     0
  9
$DIMSOXD
 70
     0
  9
$DIMSAH
 70
     0
  9
$DIMBLK1
  1

  9
$DIMBLK2
  1

  9
$DIMSTYLE
  2
AM_ISO
  9
$DIMCLRD
 70
   256
  9
$DIMCLRE
 70
   256
  9
$DIMCLRT
 70
     4
  9
$DIMTFAC
 40
0.71
  9
$DIMGAP
 40
0.8
  9
$LUNITS
 70
     2
  9
$LUPREC
 70
     2
  9
$SKETCHINC
 40
1.0
  9
$FILLETRAD
 40
35.0
  9
$AUNITS
 70
     0
  9
$AUPREC
 70
     0
  9
$MENU
  1
.
  9
$ELEVATION
 40
0.0
  9
$PELEVATION
 40
0.0
  9
$THICKNESS
 40
0.0
  9
$LIMCHECK
 70
     0
  9
$BLIPMODE
 70
     0
  9
$CHAMFERA
 40
14.0
  9
$CHAMFERB
 40
7.0
  9
$SKPOLY
 70
     0
  9
$TDCREATE
 40
2452067.4122366901
  9
$TDUPDATE
 40
2458541.4807679048
  9
$TDINDWG
 40
0.1266334259
  9
$TDUSRTIMER
 40
0.1266332176
  9
$USRTIMER
 70
     1
  9
$ANGBASE
 50
0.0
  9
$ANGDIR
 70
     0
  9
$PDMODE
 70
     0
  9
$PDSIZE
 40
0.0
  9
$PLINEWID
 40
0.0
  9
$COORDS
 70
     1
  9
$SPLFRAME
 70
     0
  9
$SPLINETYPE
 70
     6
  9
$SPLINESEGS
 70
     8
  9
$ATTDIA
 70
     1
  9
$ATTREQ
 70
     1
  9
$HANDLING
 70
     1
  9
$HANDSEED
  5
3FA4
  9
$SURFTAB1
 70
     6
  9
$SURFTAB2
 70
     6
  9
$SURFTYPE
 70
     6
  9
$SURFU
 70
     6
  9
$SURFV
 70
     6
  9
$UCSNAME
  2

  9
$UCSORG
 10
0.0
 20
0.0
 30
0.0
  9
$UCSXDIR
 10
1.0
 20
0.0
 30
0.0
  9
$UCSYDIR
 10
0.0
 20
1.0
 30
0.0
  9
$PUCSNAME
  2

  9
$PUCSORG
 10
0.0
 20
0.0
 30
0.0
  9
$PUCSXDIR
 10
1.0
 20
0.0
 30
0.0
  9
$PUCSYDIR
 10
0.0
 20
1.0
 30
0.0
  9
$USERI1
 70
     0
  9
$USERI2
 70
     0
  9
$USERI3
 70
     0
  9
$USERI4
 70
     0
  9
$USERI5
 70
     0
  9
$USERR1
 40
0.0
  9
$USERR2
 40
0.0
  9
$USERR3
 40
0.0
  9
$USERR4
 40
0.0
  9
$USERR5
 40
0.0
  9
$WORLDVIEW
 70
     1
  9
$SHADEDGE
 70
     3
  9
$SHADEDIF
 70
    70
  9
$TILEMODE
 70
     1
  9
$MAXACTVP
 70
    64
  9
$PLIMCHECK
 70
     0
  9
$PEXTMIN
 10
1.0000000000000000E+020
 20
1.0000000000000000E+020
 30
1.0000000000000000E+020
  9
$PEXTMAX
 10
-1.0000000000000000E+020
 20
-1.0000000000000000E+020
 30
-1.0000000000000000E+020
  9
$PLIMMIN
 10
0.0
 20
0.0
  9
$PLIMMAX
 10
420.0
 20
297.0
  9
$UNITMODE
 70
     0
  9
$VISRETAIN
 70
     1
  9
$PLINEGEN
 70
     0
  9
$PSLTSCALE
 70
     1
  0
ENDSEC
  0
SECTION
  2
TABLES
  0
TABLE
  2
VPORT
 70
     1
  0
VPORT
  2
*ACTIVE
 70
     0
 10
0.0
 20
0.0
 11
1.0
 21
1.0
 12
900.86385416625251
 22
851.65229006382935
 13
0.0
 23
0.0
 14
17.5
 24
17.5
 15
70.0
 25
70.0
 16
0.0
 26
0.0
 36
1.0
 17
0.0
 27
0.0
 37
0.0
 40
1102.707643131469
 41
1.7571592210767459
 42
50.0
 43
0.0
 44
0.0
 50
0.0
 51
0.0
 71
     0
 72
   100
 73
     1
 74
     3
 75
     0
 76
     0
 77
     0
 78
     0
  0
ENDTAB
  0
TABLE
  2
LTYPE
 70
    27
  0
LTYPE
  2
CONTINUOUS
 70
     0
  3
Solid line
 72
    65
 73
     0
 40
0.0
  0
LTYPE
  2
AM_ISO02W050
 70
     0
  3
__ __ __ __ __ __ __ __ __ __ __ __ __ __ __
 72
    65
 73
     2
 40
7.5
 49
6.0
 49
-1.5
  0
LTYPE
  2
AM_ISO08W050
 70
     0
  3
____ . ____ . ____ . ____ . ____ . ____ . ____
 72
    65
 73
     4
 40
18.0
 49
12.0
 49
-1.5
 49
3.0
 49
-1.5
  0
LTYPE
  2
AM_ISO09W050
 70
     0
  3
_____ . . _____ . . _____ . . ____ .. ____
 72
    65
 73
     6
 40
22.5
 49
12.0
 49
-1.5
 49
3.0
 49
-1.5
 49
3.0
 49
-1.5
  0
LTYPE
  2
AMCONSTR
 70
     0
  3
_______________________
 72
    65
 73
     2
 40
9999.0
 49
9999.0
 49
0.0
  0
LTYPE
  2
AM_ISO08W050X2
 70
     0
  3
__ . __ . __ . __ . __ . __
 72
    65
 73
     4
 40
9.0
 49
6.0
 49
-0.75
 49
1.5
 49
-0.75
  0
LTYPE
  2
AM_ISO02W050X2
 70
     0
  3
 _ _ _ _ _ _ _ _ _ _ _ _
 72
    65
 73
     2
 40
3.75
 49
3.0
 49
-0.75
  0
LTYPE
  2
AMZIGZAG
 70
     0
  3
/\/-/\/-/\/-/\/-/\/-/\/
 72
    65
 73
     2
 40
11.000099999999991
 49
0.0001
 49
-11.0
  0
LTYPE
  2
ACISOWELD
 70
     0
  3
_ _ _ _ _
 72
    65
 73
     2
 40
2.0
 49
2.0
 49
-1.0
  0
LTYPE
  2
ACISOTGB
 70
     0
  3
__ . . __ . .
 72
    65
 73
     6
 40
9.0
 49
4.0
 49
-1.0
 49
1.0
 49
-1.0
 49
1.0
 49
-1.0
  0
LTYPE
  2
ACISOTGL
 70
     0
  3
_ _ _ _ _
 72
    65
 73
     2
 40
3.0
 49
2.0
 49
-1.0
  0
LTYPE
  2
CENTER
 70
     0
  3
__ . __
 72
    65
 73
     4
 40
7.0
 49
4.0
 49
-1.0
 49
1.0
 49
-1.0
  0
LTYPE
  2
PHANTOM2
 70
     0
  3
Phantom (.5x) ___ _ _ ___ _ _ ___ _ _ ___ _ _
 72
    65
 73
     6
 40
31.75
 49
15.875
 49
-3.174999999999998
 49
3.174999999999998
 49
-3.174999999999998
 49
3.174999999999998
 49
-3.174999999999998
  0
LTYPE
  2
ACANSTGBM
 70
     0
  3
__ . . __ . .
 72
    65
 73
     6
 40
9.0
 49
4.0
 49
-1.0
 49
1.0
 49
-1.0
 49
1.0
 49
-1.0
  0
LTYPE
  2
ACANSTGLM
 70
     0
  3
_ _ _ _ _
 72
    65
 73
     2
 40
3.0
 49
2.0
 49
-1.0
  0
LTYPE
  2
GEN7
 70
     0
  3
____ . ____ . ____ . ____ . ____ . ____ . ____
 72
    65
 73
     4
 40
14.25
 49
9.75
 49
-1.5
 49
1.5
 49
-1.5
  0
LTYPE
  2
GEN3B
 70
     0
  3
 - - - - -
 72
    65
 73
     2
 40
1.0
 49
0.5
 49
-0.5
  0
LTYPE
  2
GEN7A
 70
     0
  3
__ . __ . __
 72
    65
 73
     4
 40
7.375
 49
4.75
 49
-0.875
 49
0.875
 49
-0.875
  0
LTYPE
  2
ACJISTGB
 70
     0
  3
__ . . __ . .
 72
    65
 73
     6
 40
9.0
 49
4.0
 49
-1.0
 49
1.0
 49
-1.0
 49
1.0
 49
-1.0
  0
LTYPE
  2
ACJISTGL
 70
     0
  3
_ _ _ _ _
 72
    65
 73
     2
 40
3.0
 49
2.0
 49
-1.0
  0
LTYPE
  2
HIDDEN
 70
     0
  3
Hidden __ __ __ __ __ __ __ __ __ __ __ __ __ _
 72
    65
 73
     2
 40
0.375
 49
0.25
 49
-0.125
  0
LTYPE
  2
CENTER2
 70
     0
  3
Center (.5x) ___ _ ___ _ ___ _ ___ _ ___ _ ___
 72
    65
 73
     4
 40
1.125
 49
0.75
 49
-0.125
 49
0.125
 49
-0.125
  0
LTYPE
  2
HIDDEN2
 70
     0
  3
Hidden (.5x) _ _ _ _ _ _ _ _ _ _ _ _ _ _ _ _ _
 72
    65
 73
     2
 40
0.1875
 49
0.125
 49
-0.0625
  0
LTYPE
  2
AMZIGZAG2
 70
     0
  3
/\/-/\/-/\/-/\/-/\/-/\/
 72
    65
 73
     2
 40
0.4401
 49
0.0001
 49
-0.4400000000000002
  0
LTYPE
  2
ACANSTGB
 70
     0
  3
__ . . __ . .
 72
    65
 73
     6
 40
0.35433070866
 49
0.15748031496
 49
-0.03937007874
 49
0.03937007874
 49
-0.03937007874
 49
0.03937007874
 49
-0.03937007874
  0
LTYPE
  2
ACANSTGL
 70
     0
  3
_ _ _ _ _
 72
    65
 73
     2
 40
0.11811023622
 49
0.07874015748
 49
-0.03937007874
  0
ENDTAB
  0
TABLE
  2
LAYER
 70
     7
  0
LAYER
  2
0
 70
     0
 62
     7
  6
CONTINUOUS
  0
LAYER
  2
AM_0
 70
     0
 62
     7
  6
CONTINUOUS
  0
LAYER
  2
AM_5
 70
     0
 62
     2
  6
CONTINUOUS
  0
LAYER
  2
DEFPOINTS
 70
     0
 62
     7
  6
CONTINUOUS
  0
LAYER
  2
ｶｸﾚｾﾝ2
 70
     0
 62
     3
  6
GEN3B
  0
LAYER
  2
ﾁｭｳｼﾝｾﾝ
 70
     0
 62
     1
  6
GEN7
  0
LAYER
  2
ﾁｭｳｼﾝｾﾝ1
 70
     0
 62
     1
  6
GEN7A
  0
ENDTAB
  0
TABLE
  2
STYLE
 70
     9
  0
STYLE
  2
STANDARD
 70
     0
 40
0.0
 41
0.8299999999999999
 50
0.0
 71
     0
 42
2.5
  3
txt.shx
  4
bigfont.shx
  0
STYLE
  2
ANNOTATIVE
 70
     0
 40
0.0
 41
1.0
 50
0.0
 71
     0
 42
0.2
  3
txt
  4

  0
STYLE
  2

 70
     1
 40
0.0
 41
1.0
 50
0.0
 71
     0
 42
2.5
  3
ltypeshp.shx
  4

  0
STYLE
  2
ACISOTS
 70
     0
 40
1.0
 41
1.0
 50
0.0
 71
     0
 42
2.5
  3
isocp.shx
  4
extfont.shx
  0
STYLE
  2
ACISOGDT
 70
     0
 40
0.0
 41
1.0
 50
0.0
 71
     0
 42
2.5
  3
amgdt.shx
  4

  0
STYLE
  2
ACANSTS
 70
     0
 40
1.0
 41
1.0
 50
0.0
 71
     0
 42
2.5
  3
romans.shx
  4
bigfont.shx
  0
STYLE
  2
ACANSGDT
 70
     0
 40
0.0
 41
1.0
 50
0.0
 71
     0
 42
2.5
  3
amgdt.shx
  4

  0
STYLE
  2
ACJISTS
 70
     0
 40
1.0
 41
1.0
 50
0.0
 71
     0
 42
2.5
  3
isocp.shx
  4
bigfont.shx
  0
STYLE
  2
ACJISGDT
 70
     0
 40
0.0
 41
1.0
 50
0.0
 71
     0
 42
2.5
  3
amgdt.shx
  4

  0
ENDTAB
  0
TABLE
  2
VIEW
 70
     6
  0
VIEW
  2
AM_VIEW1
 70
     0
 40
647.50000000000011
 10
582.51151012891353
 20
971.25000000000023
 41
1165.0230202578271
 11
0.0
 21
0.0
 31
1.0
 12
0.0
 22
0.0
 32
0.0
 42
50.0
 43
0.0
 44
0.0
 50
0.0
 71
     0
  0
VIEW
  2
AM_VIEW2
 70
     0
 40
647.50000000000011
 10
1408.9884898710859
 20
971.25000000000023
 41
1165.0230202578271
 11
0.0
 21
0.0
 31
1.0
 12
0.0
 22
0.0
 32
0.0
 42
50.0
 43
0.0
 44
0.0
 50
0.0
 71
     0
  0
VIEW
  2
AM_VIEW3
 70
     0
 40
647.50000000000011
 10
582.51151012891353
 20
323.75
 41
1165.0230202578271
 11
0.0
 21
0.0
 31
1.0
 12
0.0
 22
0.0
 32
0.0
 42
50.0
 43
0.0
 44
0.0
 50
0.0
 71
     0
  0
VIEW
  2
AM_VIEW4
 70
     0
 40
647.50000000000011
 10
1408.9884898710859
 20
323.75
 41
1165.0230202578271
 11
0.0
 21
0.0
 31
1.0
 12
0.0
 22
0.0
 32
0.0
 42
50.0
 43
0.0
 44
0.0
 50
0.0
 71
     0
  0
VIEW
  2
AM_VIEW5
 70
     0
 40
647.50000000000011
 10
995.74999999999989
 20
647.50000000000011
 41
1165.0230202578259
 11
0.0
 21
0.0
 31
1.0
 12
0.0
 22
0.0
 32
0.0
 42
50.0
 43
0.0
 44
0.0
 50
0.0
 71
     0
  0
VIEW
  2
AM_VIEW6
 70
     0
 40
1294.98705
 10
995.74999999999989
 20
647.50000000000011
 41
2330.0227400552481
 11
0.0
 21
0.0
 31
1.0
 12
0.0
 22
0.0
 32
0.0
 42
50.0
 43
0.0
 44
0.0
 50
0.0
 71
     0
  0
ENDTAB
  0
TABLE
  2
UCS
 70
     0
  0
ENDTAB
  0
TABLE
  2
APPID
 70
    95
  0
APPID
  2
ACAD
 70
     0
  0
APPID
  2
ACADANNOTATIVE
 70
     0
  0
APPID
  2
MCAD_NO_VIS
 70
     0
  0
APPID
  2
ACAD_TEMP_GRAPHIC
 70
     0
  0
APPID
  2
ACATTRIBSERVICES
 70
     0
  0
APPID
  2
GENIUS_GENREC_14
 70
     0
  0
APPID
  2
GENIUS_GENOBJ-N-REC_13
 70
     0
  0
APPID
  2
GENIUS_GENODEF_13
 70
     0
  0
APPID
  2
GENIUS_GENOLIS_13
 70
     0
  0
APPID
  2
GENIUS_GENOBJ-N-TIT_13
 70
     0
  0
APPID
  2
GENIUS_GENOENT_13
 70
     0
  0
APPID
  2
GENIUS_GENTITLE_13
 70
     0
  0
APPID
  2
GENIUS_GENOREF_13
 70
     0
  0
APPID
  2
GENIUS_GENSCREG_15
 70
     0
  0
APPID
  2
GENIUS_GENOBJ-N-SDF_13
 70
     0
  0
APPID
  2
GENIUS_GENFIL_13
 70
     0
  0
APPID
  2
GENIUS_GENOBJ-N-CHA_13
 70
     0
  0
APPID
  2
GENIUS_GENDTOL_13
 70
     0
  0
APPID
  2
GENIUS_GENOBJ-N-FIL_13
 70
     0
  0
APPID
  2
AD_DRAW
 70
     0
  0
APPID
  2
DESIGNERASSEMBLIES
 70
     0
  0
APPID
  2
ASURF_PCURVE_APPNAME
 70
     0
  0
APPID
  2
GENIUS_GE3SECT_13
 70
     0
  0
APPID
  2
GENIUS_GENCFG_13
 70
     0
  0
APPID
  2
GENIUS_GE3CFG0_13
 70
     0
  0
APPID
  2
GENIUS_GENCFG0_13
 70
     0
  0
APPID
  2
GENIUS_GENCFG1_13
 70
     0
  0
APPID
  2
GENIUS_GENCFG2_13
 70
     0
  0
APPID
  2
GENIUS_GENCFG3_13
 70
     0
  0
APPID
  2
GENIUS_GENCFG4_13
 70
     0
  0
APPID
  2
GENIUS_GEVCFG0_13
 70
     0
  0
APPID
  2
GENIUS_GENHINW_13
 70
     0
  0
APPID
  2
GENIUS_FIRSTVISTXT_14
 70
     0
  0
APPID
  2
GENIUS_GENOBJ-N-LEADER_13
 70
     0
  0
APPID
  2
GEV_VCCNULL_SWITCH_OFF
 70
     0
  0
APPID
  2
GENIUS_GEFCFG0_13
 70
     0
  0
APPID
  2
GENIUS_GENZVEED_13
 70
     0
  0
APPID
  2
GENIUS_GENSCREG_13
 70
     0
  0
APPID
  2
GENIUS_DUMCFG0_13
 70
     0
  0
APPID
  2
GEVID936201362
 70
     0
  0
APPID
  2
GEVDC
 70
     0
  0
APPID
  2
GEVCON
 70
     0
  0
APPID
  2
VCC
 70
     0
  0
APPID
  2
GEVPT
 70
     0
  0
APPID
  2
GEVIT
 70
     0
  0
APPID
  2
GENBH
 70
     0
  0
APPID
  2
GEVMK
 70
     0
  0
APPID
  2
GENIUS_GENBH_13
 70
     0
  0
APPID
  2
GENIUS_GENOBJ-NBEHI-BHF_13
 70
     0
  0
APPID
  2
GENIUS_GENOBJ-NBEHI-BHB_13
 70
     0
  0
APPID
  2
GENIUS_GENOBJ-F-DESC_13
 70
     0
  0
APPID
  2
GENIUS_GEFDESC_14
 70
     0
  0
APPID
  2
GENIUS_GENOBJ-F-PART_13
 70
     0
  0
APPID
  2
GENIUS_GEFSTDP_13
 70
     0
  0
APPID
  2
GENIUS_GEFPARTINS_13
 70
     0
  0
APPID
  2
GENIUS_GENTRA_14
 70
     0
  0
APPID
  2
GENIUS_GENINF13_13
 70
     0
  0
APPID
  2
GENIUS_GENOBJ-N-INFOPT_13
 70
     0
  0
APPID
  2
GENIUS_GENOBJ-N-RSSYM_13
 70
     0
  0
APPID
  2
GENIUS_GENSYMENT_13
 70
     0
  0
APPID
  2
GENIUS_GENSCSYM_13
 70
     0
  0
APPID
  2
GENIUS_GEFINFNAM_13
 70
     0
  0
APPID
  2
GENIUS_GENOBJ-N-CEN_13
 70
     0
  0
APPID
  2
GENIUS_GENOBJ-N-CRS_13
 70
     0
  0
APPID
  2
GENIUS_GENOBJ-N-CRC_13
 70
     0
  0
APPID
  2
GENIUS_GENCRC_14
 70
     0
  0
APPID
  2
GEVID942827039
 70
     0
  0
APPID
  2
GEVID942827040
 70
     0
  0
APPID
  2
GEVID942827041
 70
     0
  0
APPID
  2
GENIUS_GENOBJ-F-SCPASSM_13
 70
     0
  0
APPID
  2
GENIUS_GENDIMSH_14
 70
     0
  0
APPID
  2
GEVID942827042
 70
     0
  0
APPID
  2
GEVID946020473
 70
     0
  0
APPID
  2
GEVID946020474
 70
     0
  0
APPID
  2
GEVID946020475
 70
     0
  0
APPID
  2
GENIUS_GENOBJ-N-HTC_13
 70
     0
  0
APPID
  2
GENIUS_GENHATCH_13
 70
     0
  0
APPID
  2
GEVID948854295
 70
     0
  0
APPID
  2
GEVID939402019
 70
     0
  0
APPID
  2
GEVID952919491
 70
     0
  0
APPID
  2
GEVID952919492
 70
     0
  0
APPID
  2
GENIUS_GEFWELD_13
 70
     0
  0
APPID
  2
GENIUS_GENOBJ-F-WELS_13
 70
     0
  0
APPID
  2
GEVID952919493
 70
     0
  0
APPID
  2
GENIUS_GENOBJ-N-RSBK_13
 70
     0
  0
APPID
  2
GENIUS_GENOBJ-N-LIB_13
 70
     0
  0
APPID
  2
GENIUS_GENSCALE_13
 70
     0
  0
APPID
  2
GEVID986376691
 70
     0
  0
APPID
  2
DCO15
 70
     0
  0
APPID
  2
ACAD_DSTYLE_DIMBREAK
 70
     0
  0
APPID
  2
ACAD_DSTYLE_DIMJAG
 70
     0
  0
APPID
  2
ACAD_NAV_VCDISPLAY
 70
     0
  0
APPID
  2
ACADANNOPO
 70
     0
  0
APPID
  2
ACAD_EXEMPT_FROM_CAD_STANDARDS
 70
     0
  0
APPID
  2
ACAD_MLEADERVER
 70
     0
  0
ENDTAB
  0
TABLE
  2
DIMSTYLE
 70
    22
  0
DIMSTYLE
  2
STANDARD
 70
     0
  3

  4

  5

  6

  7

 40
1.0
 41
0.18
 42
0.0625
 43
0.38
 44
0.18
 45
0.0
 46
0.0
 47
0.0
 48
0.0
140
0.18
141
0.09
142
0.0
143
25.399999999999999
144
1.0
145
0.0
146
1.0
147
0.09
 71
     0
 72
     0
 73
     1
 74
     1
 75
     0
 76
     0
 77
     0
 78
     0
170
     0
171
     2
172
     0
173
     0
174
     0
175
     0
176
     0
177
     0
178
     0
  0
DIMSTYLE
  2
ANNOTATIVE
 70
     0
  3

  4

  5

  6

  7

 40
1.0
 41
0.18
 42
0.0625
 43
0.38
 44
0.18
 45
0.0
 46
0.0
 47
0.0
 48
0.0
140
0.18
141
0.09
142
0.0
143
25.399999999999999
144
1.0
145
0.0
146
1.0
147
0.09
 71
     0
 72
     0
 73
     1
 74
     1
 75
     0
 76
     0
 77
     0
 78
     0
170
     0
171
     2
172
     0
173
     0
174
     0
175
     0
176
     0
177
     0
178
     0
  0
DIMSTYLE
  2
AM_ISO
 70
     0
  3

  4
"
  5

  6

  7

 40
1.0
 41
2.5
 42
1.0
 43
8.0
 44
0.6
 45
0.0
 46
0.0
 47
0.1
 48
0.1
140
2.5
141
0.0
142
0.0
143
0.0393701
144
1.0
145
0.0
146
0.71
147
0.8
 71
     0
 72
     0
 73
     0
 74
     0
 75
     0
 76
     0
 77
     1
 78
     8
170
     0
171
     2
172
     1
173
     0
174
     0
175
     0
176
   256
177
   256
178
     4
  0
DIMSTYLE
  2
AM_ISO$3
 70
     0
  3

  4
"
  5

  6

  7

 40
1.0
 41
2.5
 42
1.0
 43
8.0
 44
0.6
 45
0.0
 46
0.0
 47
0.1
 48
0.1
140
2.5
141
0.0
142
0.0
143
0.0393701
144
1.0
145
0.0
146
0.71
147
0.8
 71
     0
 72
     0
 73
     0
 74
     1
 75
     0
 76
     0
 77
     1
 78
     8
170
     0
171
     2
172
     0
173
     0
174
     0
175
     0
176
   256
177
   256
178
     4
  0
DIMSTYLE
  2
AM_ISO$4
 70
     0
  3

  4
"
  5

  6

  7

 40
1.0
 41
2.5
 42
1.0
 43
8.0
 44
0.6
 45
0.0
 46
0.0
 47
0.1
 48
0.1
140
2.5
141
0.0
142
0.0
143
0.0393701
144
1.0
145
0.0
146
0.71
147
0.8
 71
     0
 72
     0
 73
     0
 74
     1
 75
     0
 76
     0
 77
     1
 78
     8
170
     0
171
     2
172
     0
173
     0
174
     0
175
     0
176
   256
177
   256
178
     4
  0
DIMSTYLE
  2
AM_ISO$6
 70
     0
  3

  4
"
  5

  6

  7

 40
1.0
 41
2.5
 42
1.0
 43
8.0
 44
0.6
 45
0.0
 46
0.0
 47
0.1
 48
0.1
140
2.5
141
0.0
142
0.0
143
0.0393701
144
1.0
145
0.0
146
0.71
147
0.8
 71
     0
 72
     0
 73
     0
 74
     0
 75
     0
 76
     0
 77
     0
 78
     8
170
     0
171
     2
172
     1
173
     0
174
     0
175
     0
176
   256
177
   256
178
     4
  0
DIMSTYLE
  2
AM_ISO$7
 70
     0
  3

  4
"
  5

  6

  7

 40
1.0
 41
2.5
 42
1.0
 43
8.0
 44
0.6
 45
0.0
 46
0.0
 47
0.1
 48
0.1
140
2.5
141
0.0
142
0.0
143
0.0393701
144
1.0
145
0.0
146
0.71
147
0.8
 71
     0
 72
     0
 73
     0
 74
     0
 75
     0
 76
     0
 77
     1
 78
     8
170
     0
171
     2
172
     1
173
     0
174
     0
175
     0
176
   256
177
   256
178
     4
  0
DIMSTYLE
  2
AM_ISO$SF
 70
     0
  3

  4
"
  5

  6

  7

 40
1.0
 41
2.5
 42
1.0
 43
10.0
 44
1.0
 45
0.0
 46
0.0
 47
0.1
 48
0.1
140
3.5
141
0.0
142
0.0
143
0.0393701
144
1.0
145
0.0
146
0.71
147
1.5
 71
     0
 72
     0
 73
     0
 74
     0
 75
     1
 76
     1
 77
     1
 78
     8
170
     0
171
     2
172
     1
173
     0
174
     0
175
     0
176
   256
177
   256
178
     2
  0
DIMSTYLE
  2
AM_ISO$SH
 70
     0
  3

  4
"
  5

  6

  7

 40
1.0
 41
2.5
 42
1.0
 43
10.0
 44
1.0
 45
0.0
 46
0.0
 47
0.1
 48
0.1
140
3.5
141
0.0
142
0.0
143
0.0393701
144
2.0
145
0.0
146
0.71
147
1.5
 71
     0
 72
     0
 73
     0
 74
     0
 75
     1
 76
     1
 77
     1
 78
     8
170
     0
171
     2
172
     1
173
     1
174
     0
175
     0
176
   256
177
   256
178
     2
  0
DIMSTYLE
  2
AM_JIS
 70
     0
  3

  4
"
  5

  6

  7

 40
1.0
 41
2.5
 42
1.0
 43
7.0
 44
1.0
 45
0.0
 46
0.0
 47
0.1
 48
0.1000000001
140
2.5
141
0.0
142
0.0
143
0.0393701
144
1.0
145
0.0
146
0.71
147
1.0
 71
     0
 72
     0
 73
     0
 74
     0
 75
     0
 76
     0
 77
     3
 78
     8
170
     0
171
     2
172
     1
173
     0
174
     0
175
     0
176
   256
177
   256
178
     4
  0
DIMSTYLE
  2
AM_JIS$3
 70
     0
  3

  4
"
  5

  6

  7

 40
1.0
 41
2.5
 42
1.0
 43
7.0
 44
1.0
 45
0.0
 46
0.0
 47
0.1
 48
0.1000000001
140
2.5
141
0.0
142
0.0
143
0.0393701
144
1.0
145
0.0
146
0.71
147
1.0
 71
     0
 72
     0
 73
     0
 74
     1
 75
     0
 76
     0
 77
     3
 78
     8
170
     0
171
     2
172
     0
173
     0
174
     0
175
     0
176
   256
177
   256
178
     4
  0
DIMSTYLE
  2
AM_JIS$4
 70
     0
  3

  4
"
  5

  6

  7

 40
1.0
 41
2.5
 42
1.0
 43
7.0
 44
1.0
 45
0.0
 46
0.0
 47
0.1
 48
0.1000000001
140
2.5
141
0.0
142
0.0
143
0.0393701
144
1.0
145
0.0
146
0.71
147
1.0
 71
     0
 72
     0
 73
     0
 74
     0
 75
     0
 76
     0
 77
     3
 78
     8
170
     0
171
     2
172
     0
173
     0
174
     0
175
     0
176
   256
177
   256
178
     4
  0
DIMSTYLE
  2
AM_JIS$6
 70
     0
  3

  4
"
  5

  6

  7

 40
1.0
 41
2.5
 42
1.0
 43
7.0
 44
1.0
 45
0.0
 46
0.0
 47
0.1
 48
0.1000000001
140
2.5
141
0.0
142
0.0
143
0.0393701
144
1.0
145
0.0
146
0.71
147
1.0
 71
     0
 72
     0
 73
     0
 74
     0
 75
     0
 76
     0
 77
     0
 78
     8
170
     0
171
     2
172
     1
173
     0
174
     0
175
     0
176
   256
177
   256
178
     4
  0
DIMSTYLE
  2
AM_JIS$7
 70
     0
  3

  4
"
  5

  6

  7

 40
1.0
 41
2.5
 42
1.0
 43
7.0
 44
1.0
 45
0.0
 46
0.0
 47
0.1
 48
0.1000000001
140
2.5
141
0.0
142
0.0
143
0.0393701
144
1.0
145
0.0
146
0.71
147
1.0
 71
     0
 72
     0
 73
     0
 74
     0
 75
     0
 76
     0
 77
     3
 78
     8
170
     0
171
     2
172
     1
173
     0
174
     0
175
     0
176
   256
177
   256
178
     4
  0
DIMSTYLE
  2
AM_JIS$SF
 70
     0
  3

  4
"
  5

  6

  7

 40
1.0
 41
2.5
 42
1.0
 43
10.0
 44
1.0
 45
0.0
 46
0.0
 47
0.1
 48
0.1
140
3.5
141
0.0
142
0.0
143
0.0393701
144
1.0
145
0.0
146
0.71
147
1.5
 71
     0
 72
     0
 73
     0
 74
     0
 75
     1
 76
     1
 77
     3
 78
     8
170
     0
171
     2
172
     1
173
     0
174
     0
175
     0
176
   256
177
   256
178
     4
  0
DIMSTYLE
  2
AM_JIS$SH
 70
     0
  3

  4
"
  5

  6

  7

 40
1.0
 41
2.5
 42
1.0
 43
10.0
 44
1.0
 45
0.0
 46
0.0
 47
0.1
 48
0.1
140
3.5
141
0.0
142
0.0
143
0.0393701
144
1.0
145
0.0
146
0.71
147
1.5
 71
     0
 72
     0
 73
     0
 74
     0
 75
     1
 76
     0
 77
     3
 78
     8
170
     0
171
     2
172
     1
173
     1
174
     0
175
     0
176
   256
177
   256
178
     4
  0
DIMSTYLE
  2
AM_ANSI
 70
     0
  3

  4
mm
  5

  6

  7

 40
1.0
 41
0.1
 42
0.05
 43
0.5
 44
0.1
 45
0.0
 46
0.0
 47
0.1
 48
0.1
140
0.12
141
0.0
142
0.0
143
25.399999999999999
144
1.0
145
0.0
146
0.71
147
0.06
 71
     0
 72
     0
 73
     1
 74
     1
 75
     0
 76
     0
 77
     0
 78
     7
170
     0
171
     2
172
     0
173
     0
174
     0
175
     0
176
   256
177
   256
178
     2
  0
DIMSTYLE
  2
AM_ANSI$3
 70
     0
  3

  4
mm
  5

  6

  7

 40
1.0
 41
0.1
 42
0.05
 43
0.5
 44
0.1
 45
0.0
 46
0.0
 47
0.1
 48
0.1
140
0.12
141
0.0
142
0.0
143
25.399999999999999
144
1.0
145
0.0
146
0.71
147
0.06
 71
     0
 72
     0
 73
     1
 74
     1
 75
     0
 76
     0
 77
     0
 78
     7
170
     0
171
     2
172
     0
173
     0
174
     0
175
     0
176
   256
177
   256
178
     2
  0
DIMSTYLE
  2
AM_ANSI$4
 70
     0
  3

  4
mm
  5

  6

  7

 40
1.0
 41
0.1
 42
0.05
 43
0.5
 44
0.1
 45
0.0
 46
0.0
 47
0.1
 48
0.1
140
0.12
141
0.0
142
0.0
143
25.399999999999999
144
1.0
145
0.0
146
0.71
147
0.06
 71
     0
 72
     0
 73
     1
 74
     1
 75
     0
 76
     0
 77
     0
 78
     7
170
     0
171
     2
172
     0
173
     0
174
     0
175
     0
176
   256
177
   256
178
     2
  0
DIMSTYLE
  2
AM_ANSI$7
 70
     0
  3

  4
mm
  5

  6

  7

 40
1.0
 41
0.1
 42
0.05
 43
0.5
 44
0.1
 45
0.0
 46
0.0
 47
0.1
 48
0.1
140
0.24
141
0.0
142
0.0
143
25.399999999999999
144
1.0
145
0.0
146
0.71
147
0.06
 71
     0
 72
     0
 73
     1
 74
     1
 75
     0
 76
     0
 77
     0
 78
     7
170
     0
171
     2
172
     0
173
     0
174
     0
175
     0
176
   256
177
   256
178
     2
  0
DIMSTYLE
  2
AM_ANSI$SF
 70
     0
  3

  4
mm
  5

  6

  7

 40
1.0
 41
0.1
 42
0.05
 43
0.5
 44
0.1
 45
0.0
 46
0.0
 47
0.1
 48
0.1
140
0.12
141
0.0
142
0.0
143
25.399999999999999
144
1.0
145
0.0
146
0.71
147
0.06
 71
     0
 72
     0
 73
     1
 74
     1
 75
     1
 76
     1
 77
     0
 78
     7
170
     0
171
     2
172
     0
173
     0
174
     0
175
     0
176
   256
177
   256
178
     2
  0
DIMSTYLE
  2
AM_ANSI$SH
 70
     0
  3

  4
mm
  5

  6

  7

 40
1.0
 41
0.1
 42
0.05
 43
0.5
 44
0.1
 45
0.0
 46
0.0
 47
0.1
 48
0.1
140
0.12
141
0.0
142
0.0
143
25.399999999999999
144
1.0
145
0.0
146
0.71
147
0.06
 71
     0
 72
     0
 73
     1
 74
     1
 75
     1
 76
     1
 77
     0
 78
     7
170
     0
171
     2
172
     0
173
     1
174
     0
175
     0
176
   256
177
   256
178
     2
  0
ENDTAB
  0
ENDSEC
  0
SECTION
  2
BLOCKS
  0
BLOCK
  8
0
  2
$MODEL_SPACE
 70
     0
 10
0.0
 20
0.0
 30
0.0
  3
$MODEL_SPACE
  1

  0
ENDBLK
  5
3E16
  8
0
  0
BLOCK
 67
     1
  8
0
  2
$PAPER_SPACE
 70
     0
 10
0.0
 20
0.0
 30
0.0
  3
$PAPER_SPACE
  1

  0
ENDBLK
  5
3E12
 67
     1
  8
0
  0
BLOCK
  8
0
  2
GENAXEH
 70
     0
 10
0.0
 20
0.0
 30
0.0
  3
GENAXEH
  1

  0
LINE
  5
3AE8
  8
0
 10
-1.0
 20
0.0
 30
0.0
 11
1.0
 21
0.0
 31
0.0
  0
ENDBLK
  5
3AE9
  8
0
  0
BLOCK
  8
0
  2
_OPEN30
 70
     0
 10
0.0
 20
0.0
 30
0.0
  3
_OPEN30
  1

  0
LINE
  5
3AEC
  8
0
 62
     0
 10
-1.0
 20
0.26794919
 30
0.0
 11
0.0
 21
0.0
 31
0.0
  0
LINE
  5
3AED
  8
0
 62
     0
 10
0.0
 20
0.0
 30
0.0
 11
-1.0
 21
-0.26794919
 31
0.0
  0
LINE
  5
3AEE
  8
0
 62
     0
 10
0.0
 20
0.0
 30
0.0
 11
-1.0
 21
0.0
 31
0.0
  0
ENDBLK
  5
3AEF
  8
0
  0
BLOCK
  8
0
  2
_NONE
 70
     0
 10
0.0
 20
0.0
 30
0.0
  3
_NONE
  1

  0
ENDBLK
  5
3AF2
  8
0
  0
BLOCK
  8
0
  2
_ACMFILLEDHALF
 70
     0
 10
0.0
 20
0.0
 30
0.0
  3
_ACMFILLEDHALF
  1

  0
TRACE
  5
3F0E
  8
AM_0
 62
     0
 10
-0.8
 20
0.0
 30
0.0
 11
-1.0
 21
0.166666666
 31
0.0
 12
0.0
 22
0.0
 32
0.0
 13
0.0
 23
0.0
 33
0.0
  0
LINE
  5
3F0F
  8
AM_0
 62
     0
 10
-1.0
 20
0.0
 30
0.0
 11
-0.8
 21
0.0
 31
0.0
  0
ENDBLK
  5
3F0D
  8
0
  0
ENDSEC
  0
SECTION
  2
ENTITIES
  0
LINE
  5
3AF4
  8
AM_0
 10
745.872020176879
 20
1209.145740610682
 30
0.0
 11
855.87202017687923
 21
1209.145740610682
 31
0.0
  0
LINE
  5
3AF5
  8
AM_0
 10
855.87202017687923
 20
1139.1457406106831
 30
0.0
 11
745.872020176879
 21
1139.1457406106831
 31
0.0
  0
LINE
  5
3AF6
  8
AM_0
 10
855.87202017687923
 20
1184.1457406106811
 30
0.0
 11
770.872020176879
 21
1184.1457406106811
 31
0.0
  0
LINE
  5
3AF7
  8
AM_0
 10
770.872020176879
 20
1164.145740610682
 30
0.0
 11
855.87202017687923
 21
1164.145740610682
 31
0.0
  0
LINE
  5
3AF8
  8
ﾁｭｳｼﾝｾﾝ
 10
860.57930017687954
 20
1174.145740610682
 30
0.0
 11
340.4321773166356
 21
1174.145740610682
 31
0.0
  0
ARC
  5
3AF9
  8
AM_0
 10
536.87201017687926
 20
1174.145740610682
 30
0.0
 40
20.0
 50
198.2099599999984
 51
341.79004000000128
  0
ARC
  5
3AFA
  8
AM_0
 10
588.87202017687935
 20
1174.145740610682
 30
0.0
 40
20.0
 50
270.0
 51
90.00000299999769
  0
ARC
  5
3AFB
  8
AM_0
 10
536.87201017687926
 20
1174.145740610682
 30
0.0
 40
15.0
 50
204.6243199999974
 51
335.37568000000249
  0
LINE
  5
3AFC
  8
AM_0
 10
434.37201017688
 20
1057.1457406106831
 30
0.0
 11
434.37201017688
 21
1174.145740610682
 31
0.0
  0
LINE
  5
3AFD
  8
AM_0
 10
447.37201017688028
 20
1057.1457406106831
 30
0.0
 11
447.37201017688028
 21
1174.145740610682
 31
0.0
  0
LINE
  5
3AFE
  8
AM_0
 10
738.872020176879
 20
1174.145740610682
 30
0.0
 11
738.872020176879
 21
1114.1457406106831
 31
0.0
  0
LINE
  5
3AFF
  8
AM_0
 10
713.87202017687912
 20
1174.145740610682
 30
0.0
 11
713.87202017687912
 21
1058.451770610684
 31
0.0
  0
LINE
  5
3B00
  8
AM_0
 10
734.87202017687923
 20
1174.145740610682
 30
0.0
 11
734.87202017687923
 21
1034.2996106106821
 31
0.0
  0
LINE
  5
3B01
  8
AM_0
 10
688.87202017687912
 20
1038.079390610683
 30
0.0
 11
688.87202017687912
 21
1174.145740610682
 31
0.0
  0
LINE
  5
3B02
  8
AM_0
 10
558.87202017687923
 20
1007.145740610683
 30
0.0
 11
558.87202017687923
 21
1167.8957406106831
 31
0.0
  0
LINE
  5
3B03
  8
AM_0
 10
745.872020176879
 20
1211.6457406106831
 30
0.0
 11
745.872020176879
 21
1136.6457406106831
 31
0.0
  0
LINE
  5
3B04
  8
AM_0
 10
492.37201017687909
 20
1299.1457406106831
 30
0.0
 11
492.37201017687909
 21
1049.1457406106831
 31
0.0
  0
LINE
  5
3B05
  8
AM_0
 10
545.87201017687914
 20
1007.145740610683
 30
0.0
 11
613.87202017687935
 21
1007.145740610683
 31
0.0
  0
LINE
  5
3B06
  8
AM_0
 10
585.59242017687916
 20
1027.5629806106831
 30
0.0
 11
629.01521017687935
 21
1029.6737506106831
 31
0.0
  0
LINE
  5
3B07
  8
AM_0
 10
542.87201017687914
 20
1089.1457406106831
 30
0.0
 11
612.88038017687927
 21
1089.1457406106831
 31
0.0
  0
LINE
  5
3B08
  8
AM_0
 10
612.84755017687962
 20
1123.854740610682
 30
0.0
 11
583.87202017687923
 21
1123.854740610682
 31
0.0
  0
LINE
  5
3B09
  8
AM_0
 10
442.87201017687909
 20
949.14574061068333
 30
0.0
 11
734.87202017687923
 21
949.14574061068333
 31
0.0
  0
ARC
  5
3B0A
  8
AM_0
 10
558.87208017687885
 20
970.76122061068406
 30
0.0
 40
10.0
 50
279.99999999999739
 51
0.0
  0
LINE
  5
3B0B
  8
AM_0
 10
494.7337101768793
 20
949.29766061068392
 30
0.0
 11
560.6085301768793
 21
960.91313061068331
 31
0.0
  0
LINE
  5
3B0C
  8
AM_0
 10
438.87201017688028
 20
1030.2860606106831
 30
0.0
 11
438.87201017688028
 21
953.14574061068345
 31
0.0
  0
ARC
  5
3B0D
  8
AM_0
 10
492.99731017688032
 20
959.14574061068345
 30
0.0
 40
10.0
 50
270.0
 51
279.99999999999739
  0
ARC
  5
3B0E
  8
AM_0
 10
442.87201017687909
 20
953.14574061068345
 30
0.0
 40
4.0
 50
179.9999899999988
 51
270.0
  0
ARC
  5
3B0F
  8
AM_0
 10
503.8721101768802
 20
976.29467061068385
 30
0.0
 40
10.0
 50
179.9999899999988
 51
279.99999999999739
  0
ARC
  5
3B10
  8
AM_0
 10
502.37201017687943
 20
1049.1457406106831
 30
0.0
 40
10.0
 50
179.9999899999988
 51
270.0
  0
LINE
  5
3B11
  8
AM_0
 10
541.84361017687934
 20
1037.823290610683
 30
0.0
 11
442.72921017687918
 21
1034.283500610682
 31
0.0
  0
LINE
  5
3B12
  8
AM_0
 10
435.37201017688028
 20
1056.1457406106831
 30
0.0
 11
446.37201017687909
 21
1056.1457406106831
 31
0.0
  0
LINE
  5
3B13
  8
AM_0
 10
434.37201017688
 20
1057.145800610683
 30
0.0
 11
435.37201017688028
 21
1056.145800610683
 31
0.0
  0
CIRCLE
  5
3B14
  8
AM_0
 10
473.87201017688022
 20
994.14574061068345
 30
0.0
 40
12.0
  0
LINE
  5
3B15
  8
AM_0
 10
447.88081017687921
 20
1058.136890610682
 30
0.0
 11
488.4418101768793
 21
1057.4288806106831
 31
0.0
  0
ARC
  5
3B16
  8
AM_0
 10
442.87201017687909
 20
1030.2860606106831
 30
0.0
 40
4.0
 50
92.045405000001679
 51
180.00001000000091
  0
ARC
  5
3B17
  8
AM_0
 10
447.87201017688028
 20
1057.636950610683
 30
0.0
 40
0.5
 50
89.000001000002214
 51
180.00001000000091
  0
ARC
  5
3B18
  8
AM_0
 10
446.37201017687909
 20
1057.1457406106831
 30
0.0
 40
1.0
 50
270.0
 51
0.0
  0
ARC
  5
3B19
  8
AM_0
 10
488.37201017687909
 20
1053.429490610682
 30
0.0
 40
4.0
 50
0.0
 51
89.000001000002214
  0
LINE
  5
3B1A
  8
AM_0
 10
435.35091017687921
 20
1099.7087906106831
 30
0.0
 11
446.37981017687918
 21
1099.7087906106831
 31
0.0
  0
LINE
  5
3B1B
  8
AM_0
 10
434.37201017688
 20
1089.9749006106831
 30
0.0
 11
445.37201017688011
 21
1089.9749006106831
 31
0.0
  0
LINE
  5
3B1C
  8
AM_0
 10
434.37201017688
 20
1074.418570610683
 30
0.0
 11
445.37201017688011
 21
1074.418570610683
 31
0.0
  0
LINE
  5
3B1D
  8
AM_0
 10
447.37201017688028
 20
1102.3133406106831
 30
0.0
 11
492.37201017687909
 21
1102.3133406106831
 31
0.0
  0
LINE
  5
3B1E
  8
AM_0
 10
447.37201017688028
 20
1083.062790610684
 30
0.0
 11
492.37201017687909
 21
1083.062790610684
 31
0.0
  0
ARC
  5
3B1F
  8
AM_0
 10
445.37201017688011
 20
1076.418570610683
 30
0.0
 40
2.0
 50
270.0
 51
0.0
  0
ARC
  5
3B20
  8
AM_0
 10
445.37201017688011
 20
1091.974900610684
 30
0.0
 40
2.0
 50
270.0
 51
0.0
  0
LINE
  5
3B21
  8
AM_0
 10
583.87202017687923
 20
1027.4793606106821
 30
0.0
 11
583.87202017687923
 21
1089.1457406106831
 31
0.0
  0
LINE
  5
3B22
  8
AM_0
 10
542.87201017687914
 20
1146.217240610682
 30
0.0
 11
542.87201017687914
 21
1010.145740610683
 31
0.0
  0
LINE
  5
3B23
  8
AM_0
 10
505.60861017687932
 20
966.44658061068344
 30
0.0
 11
560.6085301768793
 21
976.1445206106838
 31
0.0
  0
LINE
  5
3B24
  8
AM_0
 10
545.87201017687914
 20
1021.715010610683
 30
0.0
 11
579.05141017687924
 21
1021.715010610683
 31
0.0
  0
ARC
  5
3B25
  8
AM_0
 10
545.87201017687914
 20
1010.145740610683
 30
0.0
 40
3.0
 50
179.9999899999988
 51
270.0
  0
LINE
  5
3B26
  8
AM_0
 10
502.37201017687943
 20
1039.1457406106831
 30
0.0
 11
538.87201017687914
 21
1039.1457406106831
 31
0.0
  0
ARC
  5
3B27
  8
AM_0
 10
545.87201017687914
 20
1024.7150106106831
 30
0.0
 40
3.0
 50
179.9999899999988
 51
270.0
  0
ARC
  5
3B28
  8
AM_0
 10
538.87201017687914
 20
1035.1457406106831
 30
0.0
 40
4.0
 50
0.0
 51
90.00000299999769
  0
ARC
  5
3B29
  8
AM_0
 10
558.87208017687885
 20
985.99266061068329
 30
0.0
 40
10.0
 50
279.99999999999739
 51
0.0
  0
LINE
  5
3B2A
  8
AM_0
 10
568.87208017687897
 20
970.76122061068406
 30
0.0
 11
568.87208017687897
 21
1007.145740610683
 31
0.0
  0
ARC
  5
3B2B
  8
AM_0
 10
579.05141017687924
 20
1024.7150106106831
 30
0.0
 40
3.0
 50
270.0
 51
332.50571000000349
  0
ARC
  5
3B2C
  8
AM_0
 10
585.73805017687926
 20
1024.566520610683
 30
0.0
 40
3.0
 50
92.782929000000266
 51
152.5057100000034
  0
LINE
  5
3B2D
  8
AM_0
 10
581.71254017687932
 20
1023.330070610682
 30
0.0
 11
583.07686017687934
 21
1025.951530610683
 31
0.0
  0
LINE
  5
3B2E
  8
AM_0
 10
580.87202017687935
 20
1117.457870610682
 30
0.0
 11
542.87201017687914
 21
1117.457870610682
 31
0.0
  0
ARC
  5
3B2F
  8
AM_0
 10
534.87201017687914
 20
1146.217240610682
 30
0.0
 40
8.0
 50
0.0
 51
85.903958999999659
  0
LINE
  5
3B30
  8
AM_0
 10
558.87202017687923
 20
1154.145740610682
 30
0.0
 11
588.87202017687935
 21
1154.145740610682
 31
0.0
  0
LINE
  5
3B31
  8
AM_0
 10
583.87202017687923
 20
1123.854740610682
 30
0.0
 11
583.87202017687923
 21
1154.145740610682
 31
0.0
  0
LINE
  5
3B32
  8
AM_0
 10
583.87202017687923
 20
1123.854740610682
 30
0.0
 11
580.87202017687935
 21
1117.457870610682
 31
0.0
  0
LINE
  5
3B33
  8
AM_0
 10
659.70326017687933
 20
1020.315840610683
 30
0.0
 11
669.2165101768793
 21
957.64495061068385
 31
0.0
  0
LINE
  5
3B34
  8
AM_0
 10
738.872020176879
 20
953.14574061068345
 30
0.0
 11
738.872020176879
 21
1030.2966806106831
 31
0.0
  0
ARC
  5
3B35
  8
AM_0
 10
679.10322017687929
 20
959.14574061068345
 30
0.0
 40
10.0
 50
188.63138999999711
 51
270.0
  0
ARC
  5
3B36
  8
AM_0
 10
734.87202017687923
 20
953.14574061068345
 30
0.0
 40
4.0
 50
270.0
 51
0.0
  0
LINE
  5
3B37
  8
AM_0
 10
720.38893017687906
 20
1058.1457406106831
 30
0.0
 11
726.87202017687923
 21
1058.1457406106831
 31
0.0
  0
LINE
  5
3B38
  8
AM_0
 10
726.87202017687923
 20
1096.656970610682
 30
0.0
 11
715.82716017687926
 21
1096.656970610682
 31
0.0
  0
LINE
  5
3B39
  8
AM_0
 10
696.07313017687932
 20
1034.2996106106821
 30
0.0
 11
731.65608017687941
 21
1034.294180610683
 31
0.0
  0
LINE
  5
3B3A
  8
AM_0
 10
632.71358017687908
 20
1024.5198806106821
 30
0.0
 11
682.79994017687966
 21
1026.954580610683
 31
0.0
  0
LINE
  5
3B3B
  8
AM_0
 10
613.87202017687935
 20
1007.145800610683
 30
0.0
 11
630.07936017687916
 21
1023.353080610683
 31
0.0
  0
ARC
  5
3B3C
  8
AM_0
 10
632.90779017687919
 20
1020.524650610683
 30
0.0
 40
4.0
 50
92.782929000000266
 51
135.0000000000046
  0
ARC
  5
3B3D
  8
AM_0
 10
664.6466201768792
 20
1021.066210610683
 30
0.0
 40
5.0
 50
92.782929000000266
 51
188.63138000000109
  0
LINE
  5
3B3E
  8
ﾁｭｳｼﾝｾﾝ1
 10
703.87202017687923
 20
969.14574061068345
 30
0.0
 11
703.87202017687923
 21
1019.145740610682
 31
0.0
  0
CIRCLE
  5
3B3F
  8
AM_0
 10
703.87202017687923
 20
994.14574061068345
 30
0.0
 40
12.0
  0
LINE
  5
3B40
  8
ﾁｭｳｼﾝｾﾝ1
 10
678.87202017687923
 20
994.14574061068345
 30
0.0
 11
728.87202017687923
 21
994.14574061068345
 31
0.0
  0
ARC
  5
3B41
  8
AM_0
 10
682.02308017687926
 20
1042.935720610682
 30
0.0
 40
16.0
 50
272.78293000000212
 51
314.39193000000108
  0
LINE
  5
3B42
  8
AM_0
 10
693.21614017687943
 20
1031.5025506106831
 30
0.0
 11
709.06508017687906
 21
1047.0186006106831
 31
0.0
  0
ARC
  5
3B43
  8
AM_0
 10
697.87202017687912
 20
1058.451770610684
 30
0.0
 40
16.0
 50
314.39193000000108
 51
0.0
  0
ARC
  5
3B44
  8
AM_0
 10
720.38893017687906
 20
1050.1457406106831
 30
0.0
 40
8.0
 50
90.00000299999769
 51
159.75202000000809
  0
LINE
  5
3B45
  8
AM_0
 10
633.64436017687922
 20
1108.5680406106831
 30
0.0
 11
614.6825101768793
 21
1123.2282406106831
 31
0.0
  0
LINE
  5
3B46
  8
AM_0
 10
614.66835017687924
 20
1089.736740610683
 30
0.0
 11
633.59736017687931
 21
1103.7855706106841
 31
0.0
  0
ARC
  5
3B47
  8
AM_0
 10
612.88038017687927
 20
1092.1457406106831
 30
0.0
 40
3.0
 50
270.0
 51
306.58231000000382
  0
ARC
  5
3B48
  8
AM_0
 10
631.80940017687931
 20
1106.194630610682
 30
0.0
 40
3.0
 50
306.58231000000382
 51
52.290951999999571
  0
ARC
  5
3B49
  8
AM_0
 10
612.84755017687962
 20
1120.854740610682
 30
0.0
 40
3.0
 50
52.290951999999571
 51
90.00000299999769
  0
ARC
  5
3B4A
  8
AM_0
 10
726.87202017687923
 20
1066.1457406106831
 30
0.0
 40
8.0
 50
270.0
 51
0.0
  0
ARC
  5
3B4B
  8
AM_0
 10
734.87202017687923
 20
1030.2966806106831
 30
0.0
 40
4.0
 50
0.0
 51
87.797402999997558
  0
LINE
  5
3B4C
  8
AM_0
 10
735.0257701768794
 20
1034.293690610682
 30
0.0
 11
734.87208017687919
 21
1034.2996106106821
 31
0.0
  0
ARC
  5
3B4D
  8
AM_0
 10
726.87202017687923
 20
1104.656970610682
 30
0.0
 40
8.0
 50
270.0
 51
313.981210000001
  0
LINE
  5
3B4E
  8
AM_0
 10
738.872020176879
 20
1114.145800610683
 30
0.0
 11
734.87202017687923
 21
1110.145800610683
 31
0.0
  0
LINE
  5
3B4F
  8
AM_0
 10
738.872020176879
 20
1136.6457406106831
 30
0.0
 11
745.872020176879
 21
1136.6457406106831
 31
0.0
  0
LINE
  5
3B50
  8
AM_0
 10
442.87201017687909
 20
1399.1457406106831
 30
0.0
 11
734.87202017687923
 21
1399.1457406106831
 31
0.0
  0
LINE
  5
3B51
  8
AM_0
 10
585.59242017687916
 20
1320.7285406106839
 30
0.0
 11
629.01521017687935
 21
1318.6177406106831
 31
0.0
  0
LINE
  5
3B52
  8
AM_0
 10
545.87201017687914
 20
1341.1457406106831
 30
0.0
 11
613.87202017687935
 21
1341.1457406106831
 31
0.0
  0
LINE
  5
3B53
  8
AM_0
 10
612.84755017687962
 20
1224.436740610683
 30
0.0
 11
583.87202017687923
 21
1224.436740610683
 31
0.0
  0
LINE
  5
3B54
  8
AM_0
 10
542.87201017687914
 20
1259.145740610682
 30
0.0
 11
612.88038017687927
 21
1259.145740610682
 31
0.0
  0
CIRCLE
  5
3B55
  8
AM_0
 10
473.87201017688022
 20
1354.145740610682
 30
0.0
 40
12.0
  0
LINE
  5
3B56
  8
AM_0
 10
568.87208017687897
 20
1377.530240610683
 30
0.0
 11
568.87208017687897
 21
1341.1457406106831
 31
0.0
  0
LINE
  5
3B57
  8
AM_0
 10
438.87201017688028
 20
1318.0054406106819
 30
0.0
 11
438.87201017688028
 21
1395.1457406106831
 31
0.0
  0
ARC
  5
3B58
  8
AM_0
 10
502.37201017687943
 20
1299.1457406106831
 30
0.0
 40
10.0
 50
90.00000299999769
 51
180.00001000000091
  0
LINE
  5
3B59
  8
AM_0
 10
541.84361017687934
 20
1310.468140610682
 30
0.0
 11
442.72921017687918
 21
1314.007940610682
 31
0.0
  0
LINE
  5
3B5A
  8
AM_0
 10
434.37201017688
 20
1291.145740610682
 30
0.0
 11
434.37201017688
 21
1174.145740610682
 31
0.0
  0
LINE
  5
3B5B
  8
AM_0
 10
447.37201017688028
 20
1291.145740610682
 30
0.0
 11
447.37201017688028
 21
1174.145740610682
 31
0.0
  0
LINE
  5
3B5C
  8
AM_0
 10
434.37201017688
 20
1258.316640610682
 30
0.0
 11
445.37201017688011
 21
1258.316640610682
 31
0.0
  0
LINE
  5
3B5D
  8
AM_0
 10
435.35091017687921
 20
1248.582740610683
 30
0.0
 11
446.37981017687918
 21
1248.582740610683
 31
0.0
  0
LINE
  5
3B5E
  8
AM_0
 10
447.37201017688028
 20
1245.978140610682
 30
0.0
 11
492.37201017687909
 21
1245.978140610682
 31
0.0
  0
ARC
  5
3B5F
  8
AM_0
 10
445.37201017688011
 20
1256.3166406106841
 30
0.0
 40
2.0
 50
0.0
 51
90.00000299999769
  0
LINE
  5
3B60
  8
AM_0
 10
435.37201017688028
 20
1292.1457406106831
 30
0.0
 11
446.37201017687909
 21
1292.1457406106831
 31
0.0
  0
LINE
  5
3B61
  8
AM_0
 10
434.37201017688
 20
1273.873040610682
 30
0.0
 11
445.37201017688011
 21
1273.873040610682
 31
0.0
  0
LINE
  5
3B62
  8
AM_0
 10
434.37201017688
 20
1291.145740610682
 30
0.0
 11
435.37201017688028
 21
1292.1457406106831
 31
0.0
  0
LINE
  5
3B63
  8
AM_0
 10
447.88081017687921
 20
1290.154640610682
 30
0.0
 11
487.45931017687928
 21
1290.845440610683
 31
0.0
  0
LINE
  5
3B64
  8
AM_0
 10
447.37201017688028
 20
1265.2287406106821
 30
0.0
 11
492.37201017687909
 21
1265.2287406106821
 31
0.0
  0
ARC
  5
3B65
  8
AM_0
 10
445.37201017688011
 20
1271.873040610682
 30
0.0
 40
2.0
 50
0.0
 51
90.00000299999769
  0
ARC
  5
3B66
  8
AM_0
 10
446.37201017687909
 20
1291.145740610682
 30
0.0
 40
1.0
 50
0.0
 51
90.00000299999769
  0
ARC
  5
3B67
  8
AM_0
 10
447.87201017688028
 20
1290.654540610682
 30
0.0
 40
0.5
 50
179.9999899999988
 51
271.00000000000171
  0
ARC
  5
3B68
  8
AM_0
 10
487.37201017688
 20
1295.844740610682
 30
0.0
 40
5.0
 50
271.00000000000171
 51
0.0
  0
ARC
  5
3B69
  8
AM_0
 10
442.87201017687909
 20
1318.0054406106819
 30
0.0
 40
4.0
 50
179.9999899999988
 51
267.95459999999889
  0
LINE
  5
3B6A
  8
AM_0
 10
542.87201017687914
 20
1338.1457406106831
 30
0.0
 11
542.87201017687914
 21
1202.0742406106831
 31
0.0
  0
LINE
  5
3B6B
  8
AM_0
 10
558.87202017687923
 20
1341.1457406106831
 30
0.0
 11
558.87202017687923
 21
1180.3957406106831
 31
0.0
  0
LINE
  5
3B6C
  8
AM_0
 10
583.87202017687923
 20
1320.812140610682
 30
0.0
 11
583.87202017687923
 21
1259.145740610682
 31
0.0
  0
ARC
  5
3B6D
  8
AM_0
 10
536.87201017687926
 20
1174.145740610682
 30
0.0
 40
20.0
 50
18.209957000000301
 51
161.7900400000014
  0
LINE
  5
3B6E
  8
AM_0
 10
580.87202017687935
 20
1230.833740610683
 30
0.0
 11
542.87201017687914
 21
1230.833740610683
 31
0.0
  0
LINE
  5
3B6F
  8
AM_0
 10
513.12201017688028
 20
1180.3957406106831
 30
0.0
 11
560.62202017687923
 21
1180.3957406106831
 31
0.0
  0
LINE
  5
3B70
  8
AM_0
 10
513.12201017688028
 20
1167.8957406106831
 30
0.0
 11
560.62202017687923
 21
1167.8957406106831
 31
0.0
  0
ARC
  5
3B71
  8
AM_0
 10
513.12201017688028
 20
1174.145740610682
 30
0.0
 40
6.25
 50
90.00000299999769
 51
270.0
  0
ARC
  5
3B72
  8
AM_0
 10
536.87201017687926
 20
1174.145740610682
 30
0.0
 40
15.0
 50
24.624318000003381
 51
155.3756800000024
  0
ARC
  5
3B73
  8
AM_0
 10
534.87201017687914
 20
1202.0742406106831
 30
0.0
 40
8.0
 50
274.09603999999791
 51
0.0
  0
LINE
  5
3B74
  8
AM_0
 10
583.87202017687923
 20
1224.436740610683
 30
0.0
 11
583.87202017687923
 21
1194.1457406106831
 31
0.0
  0
CIRCLE
  5
3B75
  8
AM_0
 10
588.87202017687935
 20
1174.145740610682
 30
0.0
 40
10.0
  0
LINE
  5
3B76
  8
AM_0
 10
558.87202017687923
 20
1194.1457406106831
 30
0.0
 11
588.87202017687935
 21
1194.1457406106831
 31
0.0
  0
ARC
  5
3B77
  8
AM_0
 10
560.62202017687923
 20
1174.145740610682
 30
0.0
 40
6.25
 50
270.0
 51
90.00000299999769
  0
LINE
  5
3B78
  8
AM_0
 10
591.75874017687931
 20
1169.1457406106831
 30
0.0
 11
594.64552017687924
 21
1174.145740610682
 31
0.0
  0
LINE
  5
3B79
  8
AM_0
 10
594.64552017687924
 20
1174.1458406106831
 30
0.0
 11
591.75880017687916
 21
1179.145740610682
 31
0.0
  0
LINE
  5
3B7A
  8
AM_0
 10
585.98530017687938
 20
1179.145740610682
 30
0.0
 11
583.09852017687911
 21
1174.145740610682
 31
0.0
  0
LINE
  5
3B7B
  8
AM_0
 10
583.09859017687927
 20
1174.145740610682
 30
0.0
 11
585.98530017687938
 21
1169.1458406106831
 31
0.0
  0
LINE
  5
3B7C
  8
AM_0
 10
585.98530017687938
 20
1169.1457406106831
 30
0.0
 11
591.75880017687916
 21
1169.1457406106831
 31
0.0
  0
LINE
  5
3B7D
  8
AM_0
 10
591.75880017687916
 20
1179.145740610682
 30
0.0
 11
585.98530017687938
 21
1179.145740610682
 31
0.0
  0
LINE
  5
3B7E
  8
AM_0
 10
583.87208017687885
 20
1224.436740610683
 30
0.0
 11
580.87208017687919
 21
1230.833640610683
 31
0.0
  0
LINE
  5
3B7F
  8
AM_0
 10
545.87201017687914
 20
1326.576540610683
 30
0.0
 11
579.05141017687924
 21
1326.576540610683
 31
0.0
  0
ARC
  5
3B80
  8
AM_0
 10
538.87201017687914
 20
1313.1457406106831
 30
0.0
 40
4.0
 50
270.0
 51
0.0
  0
LINE
  5
3B81
  8
AM_0
 10
538.87201017687914
 20
1309.1457406106831
 30
0.0
 11
502.37201017687943
 21
1309.1457406106831
 31
0.0
  0
ARC
  5
3B82
  8
AM_0
 10
545.87201017687914
 20
1323.5765406106841
 30
0.0
 40
3.0
 50
90.00000299999769
 51
180.00001000000091
  0
ARC
  5
3B83
  8
AM_0
 10
545.87201017687914
 20
1338.1457406106831
 30
0.0
 40
3.0
 50
90.00000299999769
 51
180.00001000000091
  0
ARC
  5
3B84
  8
AM_0
 10
579.05141017687924
 20
1323.5765406106841
 30
0.0
 40
3.0
 50
27.494289999996429
 51
90.00000299999769
  0
ARC
  5
3B85
  8
AM_0
 10
585.73805017687926
 20
1323.724940610683
 30
0.0
 40
3.0
 50
207.4942899999964
 51
267.21706999999782
  0
LINE
  5
3B86
  8
AM_0
 10
581.71254017687932
 20
1324.961440610683
 30
0.0
 11
583.07686017687934
 21
1322.340040610683
 31
0.0
  0
ARC
  5
3B87
  8
AM_0
 10
492.99731017688032
 20
1389.1457406106831
 30
0.0
 40
10.0
 50
79.999998000001099
 51
90.00000299999769
  0
ARC
  5
3B88
  8
AM_0
 10
503.8721101768802
 20
1371.996840610683
 30
0.0
 40
10.0
 50
79.999998000001099
 51
180.00001000000091
  0
ARC
  5
3B89
  8
AM_0
 10
442.87201017687909
 20
1395.1457406106831
 30
0.0
 40
4.0
 50
90.00000299999769
 51
180.00001000000091
  0
LINE
  5
3B8A
  8
AM_0
 10
505.60861017687932
 20
1381.844940610682
 30
0.0
 11
560.6085301768793
 21
1372.1469406106839
 31
0.0
  0
LINE
  5
3B8B
  8
AM_0
 10
494.7338101768803
 20
1398.9938406106839
 30
0.0
 11
560.6085301768793
 21
1387.378440610682
 31
0.0
  0
ARC
  5
3B8C
  8
AM_0
 10
558.87208017687885
 20
1377.530240610683
 30
0.0
 40
10.0
 50
0.0
 51
79.999998000001099
  0
ARC
  5
3B8D
  8
AM_0
 10
558.87208017687885
 20
1362.2988406106831
 30
0.0
 40
10.0
 50
0.0
 51
79.999998000001099
  0
CIRCLE
  5
3B8E
  8
AM_0
 10
703.87202017687923
 20
1354.145740610682
 30
0.0
 40
12.0
  0
LINE
  5
3B8F
  8
AM_0
 10
659.70326017687933
 20
1327.9755406106831
 30
0.0
 11
669.21644017687925
 21
1390.646440610682
 31
0.0
  0
LINE
  5
3B90
  8
AM_0
 10
738.872020176879
 20
1395.1457406106831
 30
0.0
 11
738.872020176879
 21
1317.994840610683
 31
0.0
  0
LINE
  5
3B91
  8
AM_0
 10
720.38893017687906
 20
1290.1457406106831
 30
0.0
 11
726.87202017687923
 21
1290.1457406106831
 31
0.0
  0
LINE
  5
3B92
  8
AM_0
 10
726.87202017687923
 20
1251.634640610682
 30
0.0
 11
715.82716017687926
 21
1251.634640610682
 31
0.0
  0
LINE
  5
3B93
  8
AM_0
 10
696.07313017687932
 20
1313.9919406106831
 30
0.0
 11
731.656020176879
 21
1313.997440610684
 31
0.0
  0
LINE
  5
3B94
  8
AM_0
 10
688.87202017687912
 20
1310.212140610683
 30
0.0
 11
688.87202017687912
 21
1174.145740610682
 31
0.0
  0
LINE
  5
3B95
  8
AM_0
 10
713.87202017687912
 20
1174.145740610682
 30
0.0
 11
713.87202017687912
 21
1289.8397406106831
 31
0.0
  0
LINE
  5
3B96
  8
AM_0
 10
633.64436017687922
 20
1239.723540610682
 30
0.0
 11
614.6825101768793
 21
1225.063340610682
 31
0.0
  0
ARC
  5
3B97
  8
AM_0
 10
612.84755017687962
 20
1227.436740610684
 30
0.0
 40
3.0
 50
270.0
 51
307.70904999999362
  0
LINE
  5
3B98
  8
AM_0
 10
614.66835017687924
 20
1258.554840610682
 30
0.0
 11
633.59730017687934
 21
1244.505940610683
 31
0.0
  0
ARC
  5
3B99
  8
AM_0
 10
612.88038017687927
 20
1256.1457406106831
 30
0.0
 40
3.0
 50
53.417689999996149
 51
90.00000299999769
  0
ARC
  5
3B9A
  8
AM_0
 10
631.80940017687931
 20
1242.0969406106831
 30
0.0
 40
3.0
 50
307.70904999999362
 51
53.417689999996149
  0
LINE
  5
3B9B
  8
AM_0
 10
632.71358017687908
 20
1323.7716406106831
 30
0.0
 11
682.79994017687966
 21
1321.3369406106819
 31
0.0
  0
LINE
  5
3B9C
  8
AM_0
 10
613.87202017687935
 20
1341.1457406106831
 30
0.0
 11
630.07936017687916
 21
1324.9384406106831
 31
0.0
  0
ARC
  5
3B9D
  8
AM_0
 10
632.90779017687919
 20
1327.766840610682
 30
0.0
 40
4.0
 50
224.9999999999952
 51
267.21706999999782
  0
ARC
  5
3B9E
  8
AM_0
 10
664.6466201768792
 20
1327.225240610682
 30
0.0
 40
5.0
 50
171.3686100000028
 51
267.2170800000024
  0
LINE
  5
3B9F
  8
AM_0
 10
693.21608017687913
 20
1316.7889406106819
 30
0.0
 11
709.06502017687922
 21
1301.2728406106819
 31
0.0
  0
ARC
  5
3BA0
  8
AM_0
 10
720.38893017687906
 20
1298.1457406106831
 30
0.0
 40
8.0
 50
200.24797999999171
 51
270.0
  0
ARC
  5
3BA1
  8
AM_0
 10
697.87202017687912
 20
1289.8397406106831
 30
0.0
 40
16.0
 50
0.0
 51
45.608072999994867
  0
ARC
  5
3BA2
  8
AM_0
 10
682.02308017687926
 20
1305.355840610682
 30
0.0
 40
16.0
 50
45.608072999994867
 51
87.217069000002539
  0
LINE
  5
3BA3
  8
AM_0
 10
734.87202017687923
 20
1174.145740610682
 30
0.0
 11
734.87202017687923
 21
1313.9919406106831
 31
0.0
  0
LINE
  5
3BA4
  8
AM_0
 10
738.872020176879
 20
1174.145740610682
 30
0.0
 11
738.872020176879
 21
1234.1457406106831
 31
0.0
  0
ARC
  5
3BA5
  8
AM_0
 10
770.872020176879
 20
1174.145740610682
 30
0.0
 40
10.0
 50
90.00000299999769
 51
270.0
  0
LINE
  5
3BA6
  8
AM_0
 10
770.872020176879
 20
1184.1457406106811
 30
0.0
 11
770.872020176879
 21
1164.145740610682
 31
0.0
  0
LINE
  5
3BA7
  8
AM_0
 10
738.872020176879
 20
1234.1457406106831
 30
0.0
 11
734.87202017687923
 21
1238.1457406106831
 31
0.0
  0
LINE
  5
3BA8
  8
AM_0
 10
738.872020176879
 20
1211.6457406106831
 30
0.0
 11
745.872020176879
 21
1211.6457406106831
 31
0.0
  0
ARC
  5
3BA9
  8
AM_0
 10
726.87202017687923
 20
1243.634640610682
 30
0.0
 40
8.0
 50
46.018789000002847
 51
90.00000299999769
  0
ARC
  5
3BAA
  8
AM_0
 10
726.87202017687923
 20
1282.1457406106831
 30
0.0
 40
8.0
 50
0.0
 51
90.00000299999769
  0
ARC
  5
3BAB
  8
AM_0
 10
734.87202017687923
 20
1317.994840610683
 30
0.0
 40
4.0
 50
272.20260000000161
 51
0.0
  0
LINE
  5
3BAC
  8
AM_0
 10
735.0257701768794
 20
1313.997940610682
 30
0.0
 11
734.87202017687923
 21
1313.9919406106831
 31
0.0
  0
ARC
  5
3BAD
  8
AM_0
 10
679.10322017687929
 20
1389.1457406106831
 30
0.0
 40
10.0
 50
90.00000299999769
 51
171.3686100000028
  0
ARC
  5
3BAE
  8
AM_0
 10
734.87202017687923
 20
1395.1457406106831
 30
0.0
 40
4.0
 50
0.0
 51
90.00000299999769
  0
LINE
  5
3BAF
  8
AM_0
 10
855.87202017687923
 20
1209.145740610682
 30
0.0
 11
855.87202017687923
 21
1139.1457406106831
 31
0.0
  0
LINE
  5
3BB0
  8
ﾁｭｳｼﾝｾﾝ1
 10
448.87201017688022
 20
994.14574061068345
 30
0.0
 11
498.87201017688022
 21
994.14574061068345
 31
0.0
  0
LINE
  5
3BB1
  8
ﾁｭｳｼﾝｾﾝ1
 10
473.87201017688022
 20
969.14574061068345
 30
0.0
 11
473.87201017688022
 21
1019.145740610682
 31
0.0
  0
LINE
  5
3BB2
  8
ﾁｭｳｼﾝｾﾝ1
 10
448.87201017688022
 20
1354.145740610682
 30
0.0
 11
498.87201017688022
 21
1354.145740610682
 31
0.0
  0
LINE
  5
3BB3
  8
ﾁｭｳｼﾝｾﾝ1
 10
473.87201017688022
 20
1329.1457406106831
 30
0.0
 11
473.87201017688022
 21
1379.1457406106831
 31
0.0
  0
LINE
  5
3BB4
  8
ﾁｭｳｼﾝｾﾝ1
 10
678.87202017687923
 20
1354.145740610682
 30
0.0
 11
728.87202017687923
 21
1354.145740610682
 31
0.0
  0
LINE
  5
3BB5
  8
ﾁｭｳｼﾝｾﾝ1
 10
703.87202017687923
 20
1329.1457406106831
 30
0.0
 11
703.87202017687923
 21
1379.1457406106831
 31
0.0
  0
LINE
  5
3BB6
  8
AM_0
 10
373.3721201768787
 20
678.51804780361522
 30
0.0
 11
373.3721201768787
 21
531.51804780361522
 31
0.0
  0
LINE
  5
3BB7
  8
AM_0
 10
353.37212017687881
 20
681.51804780361522
 30
0.0
 11
353.37212017687881
 21
381.51804780361522
 31
0.0
  0
LINE
  5
3BB8
  8
AM_0
 10
558.87202017687912
 20
745.11801780361543
 30
0.0
 11
558.87202017687912
 21
417.11805280361529
 31
0.0
  0
LINE
  5
3BB9
  8
AM_0
 10
447.37197017687902
 20
648.51806780361539
 30
0.0
 11
447.37197017687902
 21
531.51804780361522
 31
0.0
  0
LINE
  5
3BBA
  8
AM_0
 10
434.37212017687858
 20
649.51806780361517
 30
0.0
 11
434.37212017687858
 21
413.51804780361522
 31
0.0
  0
LINE
  5
3BBB
  8
AM_0
 10
542.87202017687912
 20
741.11801780361543
 30
0.0
 11
542.87202017687912
 21
401.11808280361521
 31
0.0
  0
LINE
  5
3BBC
  8
AM_0
 10
492.37202017687912
 20
648.27221780361515
 30
0.0
 11
492.37202017687912
 21
417.33259280361523
 31
0.0
  0
LINE
  5
3BBD
  8
AM_0
 10
713.87202017687912
 20
700.82396780361535
 30
0.0
 11
713.87202017687912
 21
417.55674280361529
 31
0.0
  0
LINE
  5
3BBE
  8
AM_0
 10
734.872020176879
 20
666.1180678036153
 30
0.0
 11
734.872020176879
 21
390.73804780361542
 31
0.0
  0
LINE
  5
3BBF
  8
AM_0
 10
738.872020176879
 20
653.28961780361522
 30
0.0
 11
738.872020176879
 21
534.94651780361528
 31
0.0
  0
ARC
  5
3BC0
  8
AM_0
 10
378.37212017687881
 20
632.76454180361532
 30
0.0
 40
5.0
 50
180.0
 51
245.95480699999951
  0
LINE
  5
3BC1
  8
AM_0
 10
402.9679101768786
 20
632.27207480361528
 30
0.0
 11
431.37273017687892
 21
631.28015680361534
 31
0.0
  0
LINE
  5
3BC2
  8
AM_0
 10
688.87202017687912
 20
724.95316780361543
 30
0.0
 11
688.87202017687912
 21
594.1180678036153
 31
0.0
  0
LINE
  5
3BC3
  8
AM_0
 10
615.04362017687879
 20
637.63316780361515
 30
0.0
 11
630.33982017687902
 21
622.33696780361538
 31
0.0
  0
LINE
  5
3BC4
  8
AM_0
 10
613.87202017687912
 20
636.26336780361521
 30
0.0
 11
613.87202017687912
 21
603.14916780361534
 31
0.0
  0
LINE
  5
3BC5
  8
AM_0
 10
770.87212017687943
 20
629.1180678036153
 30
0.0
 11
770.87212017687943
 21
633.6180678036153
 31
0.0
  0
LINE
  5
3BC6
  8
AM_0
 10
855.87202017687912
 20
633.6180678036153
 30
0.0
 11
855.87202017687912
 21
629.1180678036153
 31
0.0
  0
LINE
  5
3BC7
  8
ﾁｭｳｼﾝｾﾝ
 10
505.67350454534312
 20
594.1180678036153
 30
0.0
 11
860.872020176879
 21
594.1180678036153
 31
0.0
  0
LINE
  5
3BC8
  8
AM_0
 10
438.87212017687932
 20
314.1180678036153
 30
0.0
 11
738.872020176879
 21
314.1180678036153
 31
0.0
  0
LINE
  5
3BC9
  8
AM_0
 10
587.90077017687906
 20
574.1180678036153
 30
0.0
 11
655.42777017687911
 21
574.1180678036153
 31
0.0
  0
ARC
  5
3BCA
  8
AM_0
 10
612.21517017687836
 20
604.21231780361529
 30
0.0
 40
4.000000049999997
 50
270.0
 51
315.0
  0
LINE
  5
3BCB
  8
AM_0
 10
376.33483517687881
 20
419.28132680361517
 30
0.0
 11
401.10512217687881
 21
430.33318880361531
 31
0.0
  0
LINE
  5
3BCC
  8
AM_0
 10
373.3721201768787
 20
384.51804780361522
 30
0.0
 11
373.3721201768787
 21
531.51804780361522
 31
0.0
  0
LINE
  5
3BCD
  8
AM_0
 10
447.37197017687902
 20
414.51807780361509
 30
0.0
 11
447.37197017687902
 21
531.51804780361522
 31
0.0
  0
ARC
  5
3BCE
  8
AM_0
 10
548.87202017687912
 20
435.40232780361521
 30
0.0
 40
20.000000499999999
 50
315.0
 51
0.0
  0
LINE
  5
3BCF
  8
AM_0
 10
442.87212017687932
 20
352.11805280361529
 30
0.0
 11
483.51677017687888
 21
352.11805280361529
 31
0.0
  0
LINE
  5
3BD0
  8
AM_0
 10
447.88077017687908
 20
415.50919780361528
 30
0.0
 11
488.44192017687908
 21
414.80118780361522
 31
0.0
  0
LINE
  5
3BD1
  8
AM_0
 10
438.87212017687932
 20
348.11805280361529
 30
0.0
 11
438.87212017687932
 21
314.1180678036153
 31
0.0
  0
LINE
  5
3BD2
  8
AM_0
 10
434.37212017687858
 20
413.51804774366292
 30
0.0
 11
378.24123617687911
 21
412.0482088036153
 31
0.0
  0
LINE
  5
3BD3
  8
AM_0
 10
353.37212017687881
 20
381.51804780361522
 30
0.0
 11
370.37212017687881
 21
381.51804780361522
 31
0.0
  0
ARC
  5
3BD4
  8
AM_0
 10
370.37212017687881
 20
384.51804780361522
 30
0.0
 40
3.0
 50
270.0
 51
0.0
  0
ARC
  5
3BD5
  8
AM_0
 10
378.37212017687881
 20
407.04992280361529
 30
0.0
 40
5.0
 50
91.500000000002629
 51
180.0
  0
ARC
  5
3BD6
  8
AM_0
 10
378.37212017687881
 20
414.71520580361522
 30
0.0
 40
5.0
 50
114.0451930000003
 51
180.0
  0
ARC
  5
3BD7
  8
AM_0
 10
442.87212017687932
 20
348.11805280361529
 30
0.0
 40
4.000000049999997
 50
90.00000299999769
 51
180.00001000000091
  0
LINE
  5
3BD8
  8
AM_0
 10
434.37212017687858
 20
413.51804780361522
 30
0.0
 11
446.37212017687921
 21
413.51804780361522
 31
0.0
  0
ARC
  5
3BD9
  8
AM_0
 10
446.37212017687921
 20
414.51807780361509
 30
0.0
 40
1.0
 50
270.0
 51
0.0
  0
ARC
  5
3BDA
  8
AM_0
 10
447.87212017687921
 20
415.0092578036153
 30
0.0
 40
0.5
 50
89.000001000002115
 51
180.00001000000091
  0
LINE
  5
3BDB
  8
ｶｸﾚｾﾝ2
 10
461.87203517687868
 20
352.11805280361529
 30
0.0
 11
461.87203517687868
 21
314.1180678036153
 31
0.0
  0
LINE
  5
3BDC
  8
ｶｸﾚｾﾝ2
 10
485.87202017687889
 20
352.11805280361529
 30
0.0
 11
485.87202017687889
 21
314.1180678036153
 31
0.0
  0
LINE
  5
3BDD
  8
ﾁｭｳｼﾝｾﾝ1
 10
473.87202017687912
 20
362.11805280361523
 30
0.0
 11
473.87202017687912
 21
304.1180678036153
 31
0.0
  0
LINE
  5
3BDE
  8
AM_0
 10
563.01417017687925
 20
421.26017280361521
 30
0.0
 11
501.19442017687908
 21
359.44037780361521
 31
0.0
  0
LINE
  5
3BDF
  8
AM_0
 10
516.41072017687918
 20
374.6567478036153
 30
0.0
 11
497.21712017687912
 21
386.20331780361528
 31
0.0
  0
ARC
  5
3BE0
  8
AM_0
 10
483.51677017687888
 20
377.11805280361523
 30
0.0
 40
25.000000499999999
 50
270.0
 51
315.0
  0
LINE
  5
3BE1
  8
AM_0
 10
492.37202017687912
 20
410.8017978036151
 30
0.0
 11
492.37202017687912
 21
394.7722878036152
 31
0.0
  0
ARC
  5
3BE2
  8
AM_0
 10
502.37202017687889
 20
394.7722878036152
 30
0.0
 40
10.0
 50
179.9999899999988
 51
238.96954999999591
  0
ARC
  5
3BE3
  8
AM_0
 10
488.37212017687921
 20
410.8017978036151
 30
0.0
 40
4.000000049999997
 50
0.0
 51
89.000001000002115
  0
LINE
  5
3BE4
  8
ﾁｭｳｼﾝｾﾝ
 10
340.4321773166356
 20
531.51804780361522
 30
0.0
 11
551.83966066284654
 21
531.51804780361522
 31
0.0
  0
LINE
  5
3BE5
  8
AM_0
 10
447.37197017687902
 20
440.43510280361528
 30
0.0
 11
492.37202017687912
 21
440.43510280361528
 31
0.0
  0
LINE
  5
3BE6
  8
AM_0
 10
447.37197017687902
 20
459.6856528036152
 30
0.0
 11
492.37202017687912
 21
459.6856528036152
 31
0.0
  0
LINE
  5
3BE7
  8
AM_0
 10
447.37197017687902
 20
603.35046780361529
 30
0.0
 11
492.37202017687912
 21
603.35046780361529
 31
0.0
  0
LINE
  5
3BE8
  8
AM_0
 10
447.37197017687902
 20
622.60106780361525
 30
0.0
 11
492.37202017687912
 21
622.60106780361525
 31
0.0
  0
LINE
  5
3BE9
  8
AM_0
 10
430.67512817687867
 20
456.9842878036153
 30
0.0
 11
378.24123617687911
 21
455.61125780361522
 31
0.0
  0
LINE
  5
3BEA
  8
AM_0
 10
376.33483517687881
 20
434.8376768036153
 30
0.0
 11
401.10512217687881
 21
445.88953780361521
 31
0.0
  0
ARC
  5
3BEB
  8
AM_0
 10
378.37212017687881
 20
450.61297080361521
 30
0.0
 40
5.0
 50
91.500000000002629
 51
150.7208910000015
  0
ARC
  5
3BEC
  8
AM_0
 10
378.37212017687881
 20
430.27155480361529
 30
0.0
 40
5.0
 50
114.0451930000003
 51
180.0
  0
LINE
  5
3BED
  8
AM_0
 10
431.37273017687892
 20
447.31228880361527
 30
0.0
 11
402.9679101768786
 21
446.32036980361522
 31
0.0
  0
LINE
  5
3BEE
  8
AM_0
 10
402.9679101768786
 20
430.76402080361521
 30
0.0
 11
431.37273017687892
 21
431.75593880361521
 31
0.0
  0
ARC
  5
3BEF
  8
AM_0
 10
403.14240817687892
 20
425.76706680361519
 30
0.0
 40
5.0
 50
92.000000000003666
 51
114.0451930000003
  0
LINE
  5
3BF0
  8
AM_0
 10
404.37212017687881
 20
432.79708980361522
 30
0.0
 11
404.37212017687881
 21
444.2772918036153
 31
0.0
  0
ARC
  5
3BF1
  8
AM_0
 10
403.14240817687892
 20
441.32341580361532
 30
0.0
 40
5.0
 50
92.000000000003666
 51
114.0451930000003
  0
LINE
  5
3BF2
  8
AM_0
 10
432.37212017687892
 20
455.49454080361528
 30
0.0
 11
432.37212017687892
 21
448.34718780361521
 31
0.0
  0
LINE
  5
3BF3
  8
AM_0
 10
434.37212017687858
 20
431.79084280361519
 30
0.0
 11
445.37212017687921
 21
431.79084280361519
 31
0.0
  0
LINE
  5
3BF4
  8
AM_0
 10
434.37212017687858
 20
447.34721280361521
 30
0.0
 11
445.37212017687921
 21
447.34721280361521
 31
0.0
  0
LINE
  5
3BF5
  8
AM_0
 10
431.37273017687892
 20
447.31228880361527
 30
0.0
 11
432.37212017687892
 21
448.34718780361521
 31
0.0
  0
LINE
  5
3BF6
  8
AM_0
 10
431.37273017687892
 20
431.75593880361521
 30
0.0
 11
432.37212017687892
 21
432.7908388036152
 31
0.0
  0
LINE
  5
3BF7
  8
AM_0
 10
432.37212017687892
 20
448.34718780361521
 30
0.0
 11
432.37212017687892
 21
432.7908388036152
 31
0.0
  0
LINE
  5
3BF8
  8
AM_0
 10
431.37273017687892
 20
447.31228880361527
 30
0.0
 11
431.37273017687892
 21
431.75593880361521
 31
0.0
  0
ARC
  5
3BF9
  8
AM_0
 10
445.37212017687921
 20
433.79084280361508
 30
0.0
 40
2.0000000500000001
 50
270.0
 51
0.0
  0
ARC
  5
3BFA
  8
AM_0
 10
445.37212017687921
 20
449.34721280361521
 30
0.0
 40
2.0000000500000001
 50
270.0
 51
0.0
  0
LINE
  5
3BFB
  8
AM_0
 10
435.35097017687877
 20
457.08109780361542
 30
0.0
 11
446.37977017687888
 21
457.08109780361542
 31
0.0
  0
LINE
  5
3BFC
  8
AM_0
 10
430.67512817687867
 20
606.05180880361524
 30
0.0
 11
378.24123617687911
 21
607.42483880361522
 31
0.0
  0
LINE
  5
3BFD
  8
AM_0
 10
376.33483517687881
 20
628.19841980361537
 30
0.0
 11
401.10512217687881
 21
617.14655880361522
 31
0.0
  0
ARC
  5
3BFE
  8
AM_0
 10
378.37212017687881
 20
612.42312480361545
 30
0.0
 40
5.0
 50
209.2791089999983
 51
268.49999999999733
  0
LINE
  5
3BFF
  8
AM_0
 10
431.37273017687892
 20
615.72380780361527
 30
0.0
 11
402.9679101768786
 21
616.71572580361521
 31
0.0
  0
LINE
  5
3C00
  8
AM_0
 10
404.37212017687881
 20
630.23900580361521
 30
0.0
 11
404.37212017687881
 21
618.75880480361525
 31
0.0
  0
ARC
  5
3C01
  8
AM_0
 10
403.14240817687892
 20
621.71267980361529
 30
0.0
 40
5.0
 50
245.95480699999951
 51
267.99999999999631
  0
LINE
  5
3C02
  8
AM_0
 10
435.35097017687877
 20
605.95501780361531
 30
0.0
 11
446.37977017687888
 21
605.95501780361531
 31
0.0
  0
LINE
  5
3C03
  8
AM_0
 10
434.37212017687858
 20
615.68886780361515
 30
0.0
 11
445.37212017687921
 21
615.68886780361515
 31
0.0
  0
LINE
  5
3C04
  8
AM_0
 10
434.37212017687858
 20
631.24521780361522
 30
0.0
 11
445.37212017687921
 21
631.24521780361522
 31
0.0
  0
LINE
  5
3C05
  8
AM_0
 10
432.37212017687892
 20
614.68890880361539
 30
0.0
 11
432.37212017687892
 21
630.24525780361535
 31
0.0
  0
LINE
  5
3C06
  8
AM_0
 10
431.37273017687892
 20
615.72380780361527
 30
0.0
 11
431.37273017687892
 21
631.28015680361534
 31
0.0
  0
LINE
  5
3C07
  8
AM_0
 10
431.37273017687892
 20
615.72380780361527
 30
0.0
 11
432.37212017687892
 21
614.68890880361539
 31
0.0
  0
LINE
  5
3C08
  8
AM_0
 10
432.37212017687892
 20
607.54155480361521
 30
0.0
 11
432.37212017687892
 21
614.68890880361539
 31
0.0
  0
LINE
  5
3C09
  8
AM_0
 10
431.37273017687892
 20
631.28015680361534
 30
0.0
 11
432.37212017687892
 21
630.24525780361535
 31
0.0
  0
ARC
  5
3C0A
  8
AM_0
 10
445.37212017687921
 20
613.68886780361515
 30
0.0
 40
2.0000000500000001
 50
0.0
 51
90.00000299999769
  0
ARC
  5
3C0B
  8
AM_0
 10
445.37212017687921
 20
629.24526780361532
 30
0.0
 40
2.0000000500000001
 50
0.0
 51
90.00000299999769
  0
ARC
  5
3C0C
  8
AM_0
 10
572.87202017687912
 20
530.11805780361499
 30
0.0
 40
4.000000049999997
 50
90.00000299999769
 51
180.00001000000091
  0
LINE
  5
3C0D
  8
AM_0
 10
568.87202017687912
 20
530.11805780361499
 30
0.0
 11
568.87202017687912
 21
435.40232780361521
 31
0.0
  0
LINE
  5
3C0E
  8
AM_0
 10
542.87202017687912
 20
444.11805280361511
 30
0.0
 11
558.87202017687912
 21
444.11805280361511
 31
0.0
  0
LINE
  5
3C0F
  8
AM_0
 10
558.87202017687912
 20
444.11805280361511
 30
0.0
 11
568.87202017687912
 21
444.11805280361511
 31
0.0
  0
LINE
  5
3C10
  8
AM_0
 10
542.87202017687912
 20
478.11805280361511
 30
0.0
 11
558.87202017687912
 21
478.11805280361511
 31
0.0
  0
LINE
  5
3C11
  8
AM_0
 10
558.87202017687912
 20
478.11805280361511
 30
0.0
 11
568.87202017687912
 21
478.11805280361511
 31
0.0
  0
LINE
  5
3C12
  8
AM_0
 10
583.87202017687912
 20
600.21231780361529
 30
0.0
 11
583.87202017687912
 21
538.1180578036151
 31
0.0
  0
LINE
  5
3C13
  8
AM_0
 10
580.87212017687932
 20
603.21231780361529
 30
0.0
 11
580.87212017687932
 21
534.24510280361505
 31
0.0
  0
LINE
  5
3C14
  8
AM_0
 10
572.87202017687912
 20
534.11805780361499
 30
0.0
 11
579.87202017687912
 21
534.11805780361499
 31
0.0
  0
ARC
  5
3C15
  8
AM_0
 10
579.87202017687912
 20
538.1180578036151
 30
0.0
 40
4.000000049999997
 50
270.0
 51
0.0
  0
LINE
  5
3C16
  8
AM_0
 10
580.87212017687932
 20
603.21231780361529
 30
0.0
 11
558.87202017687912
 21
603.21231780361529
 31
0.0
  0
LINE
  5
3C17
  8
AM_0
 10
558.87202017687912
 20
603.21231780361529
 30
0.0
 11
542.87202017687912
 21
603.21231780361529
 31
0.0
  0
LINE
  5
3C18
  8
AM_0
 10
583.87202017687912
 20
600.21231780361529
 30
0.0
 11
612.21517017687836
 21
600.21231780361529
 31
0.0
  0
LINE
  5
3C19
  8
AM_0
 10
583.87202017687912
 20
600.21231780361529
 30
0.0
 11
580.87202017687912
 21
603.21231780361529
 31
0.0
  0
ARC
  5
3C1A
  8
AM_0
 10
2945.1167701768791
 20
616.18451780361534
 30
0.0
 40
2256.3525499999992
 50
180.5603400000013
 51
186.00565999999941
  0
LINE
  5
3C1B
  8
AM_0
 10
658.96812017687876
 20
572.28440780361518
 30
0.0
 11
669.51327017687879
 21
371.07133280361529
 31
0.0
  0
LINE
  5
3C1C
  8
ｶｸﾚｾﾝ2
 10
691.87203517687885
 20
352.11805280361529
 30
0.0
 11
691.87203517687885
 21
314.1180678036153
 31
0.0
  0
LINE
  5
3C1D
  8
ｶｸﾚｾﾝ2
 10
715.87202017687912
 20
352.11805280361529
 30
0.0
 11
715.87202017687912
 21
314.1180678036153
 31
0.0
  0
LINE
  5
3C1E
  8
ﾁｭｳｼﾝｾﾝ1
 10
703.87202017687912
 20
362.11805280361523
 30
0.0
 11
703.87202017687912
 21
304.1180678036153
 31
0.0
  0
LINE
  5
3C1F
  8
AM_0
 10
738.872020176879
 20
314.1180678036153
 30
0.0
 11
738.872020176879
 21
348.11805280361529
 31
0.0
  0
LINE
  5
3C20
  8
AM_0
 10
689.48587017687885
 20
352.11805280361529
 30
0.0
 11
734.872020176879
 21
352.11805280361529
 31
0.0
  0
LINE
  5
3C21
  8
AM_0
 10
669.28537017687893
 20
375.41981280361512
 30
0.0
 11
700.08717017687911
 21
377.64335280361541
 31
0.0
  0
ARC
  5
3C22
  8
AM_0
 10
689.48587017687885
 20
372.11805280361523
 30
0.0
 40
20.000000499999999
 50
183.00000999999961
 51
270.0
  0
LINE
  5
3C23
  8
AM_0
 10
734.872020176879
 20
352.11805280361529
 30
0.0
 11
732.28787017687887
 21
426.11982280361519
 31
0.0
  0
LINE
  5
3C24
  8
AM_0
 10
702.61097017687905
 20
378.24760280361522
 30
0.0
 11
710.19692017687885
 21
381.43607780361521
 31
0.0
  0
ARC
  5
3C25
  8
AM_0
 10
699.51112017687865
 20
385.6226328036152
 30
0.0
 40
8.0
 50
274.12897999999672
 51
292.79777999999789
  0
ARC
  5
3C26
  8
AM_0
 10
734.872020176879
 20
348.11805280361529
 30
0.0
 40
4.000000049999997
 50
0.0
 51
90.00000299999769
  0
LINE
  5
3C27
  8
AM_0
 10
713.87202017687912
 20
410.71116280361508
 30
0.0
 11
713.87202017687912
 21
386.96732780361521
 31
0.0
  0
ARC
  5
3C28
  8
AM_0
 10
707.87202017687912
 20
386.96732780361521
 30
0.0
 40
6.0
 50
292.79777999999789
 51
0.0
  0
LINE
  5
3C29
  8
AM_0
 10
716.69427017687929
 20
415.80048780361528
 30
0.0
 11
730.41957017687946
 21
424.37058780361508
 31
0.0
  0
ARC
  5
3C2A
  8
AM_0
 10
719.87202017687912
 20
410.71116280361508
 30
0.0
 40
6.0
 50
121.98072999999739
 51
180.00001000000091
  0
LINE
  5
3C2B
  8
AM_0
 10
734.872020176879
 20
390.73804780361542
 30
0.0
 11
733.52337017687921
 21
390.73804780361542
 31
0.0
  0
LINE
  5
3C2C
  8
AM_0
 10
732.28782017687854
 20
426.11979280361521
 30
0.0
 11
733.335370176879
 21
428.2982928036152
 31
0.0
  0
LINE
  5
3C2D
  8
AM_0
 10
745.87212017687943
 20
629.1180678036153
 30
0.0
 11
855.87202017687912
 21
629.1180678036153
 31
0.0
  0
LINE
  5
3C2E
  8
AM_0
 10
855.87202017687912
 20
559.11805780361499
 30
0.0
 11
745.87212017687943
 21
559.11805780361499
 31
0.0
  0
LINE
  5
3C2F
  8
AM_0
 10
738.28627017687882
 20
533.53224280361508
 30
0.0
 11
734.872020176879
 21
530.1180228036153
 31
0.0
  0
ARC
  5
3C30
  8
AM_0
 10
662.96267017687933
 20
572.49375780361515
 30
0.0
 40
4.000000049999997
 50
133.6857399999997
 51
182.99999999999889
  0
LINE
  5
3C31
  8
AM_0
 10
660.19982017687914
 20
575.38631780361516
 30
0.0
 11
663.17907017687901
 21
578.23191780361537
 31
0.0
  0
LINE
  5
3C32
  8
AM_0
 10
615.04367017687935
 20
601.38391780361519
 30
0.0
 11
630.33987017687912
 21
616.6801178036153
 31
0.0
  0
ARC
  5
3C33
  8
AM_0
 10
627.51137017687893
 20
619.50851780361518
 30
0.0
 40
4.000000049999997
 50
315.0
 51
45.000001000003799
  0
LINE
  5
3C34
  8
AM_0
 10
745.87212017687943
 20
631.6180678036153
 30
0.0
 11
745.87212017687943
 21
556.61805780361522
 31
0.0
  0
ARC
  5
3C35
  8
AM_0
 10
736.87202017687878
 20
534.94651780361528
 30
0.0
 40
2.0000000500000001
 50
315.0
 51
0.0
  0
LINE
  5
3C36
  8
AM_0
 10
745.87212017687943
 20
556.61805780361522
 30
0.0
 11
738.872020176879
 21
556.61805780361522
 31
0.0
  0
LINE
  5
3C37
  8
AM_0
 10
738.872020176879
 20
631.6180678036153
 30
0.0
 11
745.87212017687943
 21
631.6180678036153
 31
0.0
  0
LINE
  5
3C38
  8
AM_0
 10
855.87202017687912
 20
629.1180678036153
 30
0.0
 11
855.87202017687912
 21
559.11805780361499
 31
0.0
  0
ARC
  5
3C39
  8
AM_0
 10
612.21517017687836
 20
716.40396780361539
 30
0.0
 40
4.000000049999997
 50
270.0
 51
315.0
  0
ARC
  5
3C3A
  8
AM_0
 10
612.21517017687836
 20
634.80471780361529
 30
0.0
 40
4.000000049999997
 50
45.000001000003799
 51
90.00000299999769
  0
ARC
  5
3C3B
  8
AM_0
 10
612.21517017687836
 20
735.11801780361543
 30
0.0
 40
4.000000049999997
 50
45.000001000003799
 51
90.00000299999769
  0
LINE
  5
3C3C
  8
AM_0
 10
447.88077017687908
 20
647.52696780361532
 30
0.0
 11
487.4592701768791
 21
648.21781780361539
 31
0.0
  0
LINE
  5
3C3D
  8
AM_0
 10
376.33483517687881
 20
643.75476880361532
 30
0.0
 11
401.10512217687881
 21
632.70290780361529
 31
0.0
  0
LINE
  5
3C3E
  8
AM_0
 10
434.37212017687858
 20
649.51804786356763
 30
0.0
 11
378.24123617687911
 21
650.98788680361531
 31
0.0
  0
ARC
  5
3C3F
  8
AM_0
 10
378.37212017687881
 20
648.32089080361527
 30
0.0
 40
5.0
 50
180.0
 51
245.95480699999951
  0
ARC
  5
3C40
  8
AM_0
 10
378.37212017687881
 20
655.98617380361532
 30
0.0
 40
5.0
 50
180.0
 51
268.49999999999733
  0
LINE
  5
3C41
  8
AM_0
 10
353.37212017687881
 20
681.51804780361522
 30
0.0
 11
370.37212017687881
 21
681.51804780361522
 31
0.0
  0
ARC
  5
3C42
  8
AM_0
 10
370.37212017687881
 20
678.51804780361522
 30
0.0
 40
3.0
 50
0.0
 51
90.0
  0
ARC
  5
3C43
  8
AM_0
 10
403.14240817687892
 20
637.26902880361524
 30
0.0
 40
5.0
 50
245.95480699999951
 51
267.99999999999631
  0
LINE
  5
3C44
  8
AM_0
 10
434.37212017687858
 20
649.51806780361517
 30
0.0
 11
446.37212017687921
 21
649.51806780361517
 31
0.0
  0
ARC
  5
3C45
  8
AM_0
 10
447.87212017687921
 20
648.02681780361524
 30
0.0
 40
0.5
 50
179.9999899999988
 51
271.00000000000171
  0
ARC
  5
3C46
  8
AM_0
 10
446.37212017687921
 20
648.51806780361539
 30
0.0
 40
1.0
 50
0.0
 51
90.00000299999769
  0
LINE
  5
3C47
  8
AM_0
 10
516.87202017687912
 20
745.11801780361543
 30
0.0
 11
516.87202017687912
 21
700.45841780361536
 31
0.0
  0
LINE
  5
3C48
  8
AM_0
 10
613.87202017687912
 20
736.3260178036154
 30
0.0
 11
613.87202017687912
 21
715.78576780361516
 31
0.0
  0
LINE
  5
3C49
  8
AM_0
 10
541.35567017687924
 20
717.91691780361532
 30
0.0
 11
496.16307017687888
 21
682.12076780361519
 31
0.0
  0
LINE
  5
3C4A
  8
AM_0
 10
492.37202017687912
 20
674.28196780361532
 30
0.0
 11
492.37202017687912
 21
653.21701780361525
 31
0.0
  0
ARC
  5
3C4B
  8
AM_0
 10
487.37202017687912
 20
653.21701780361525
 30
0.0
 40
5.0
 50
271.00000000000171
 51
0.0
  0
ARC
  5
3C4C
  8
AM_0
 10
502.37202017687889
 20
674.28196780361532
 30
0.0
 40
10.0
 50
128.38200999999691
 51
180.00001000000091
  0
ARC
  5
3C4D
  8
AM_0
 10
512.87202017687912
 20
700.45841780361536
 30
0.0
 40
4.000000049999997
 50
308.3820099999968
 51
0.0
  0
LINE
  5
3C4E
  8
AM_0
 10
580.87212017687932
 20
715.40391780361517
 30
0.0
 11
580.87212017687932
 21
635.80481780361526
 31
0.0
  0
LINE
  5
3C4F
  8
AM_0
 10
583.87202017687912
 20
712.40396780361539
 30
0.0
 11
583.87202017687912
 21
638.80471780361529
 31
0.0
  0
LINE
  5
3C50
  8
AM_0
 10
580.87212017687932
 20
635.80481780361526
 30
0.0
 11
558.87202017687912
 21
635.80481780361526
 31
0.0
  0
LINE
  5
3C51
  8
AM_0
 10
558.87202017687912
 20
635.80481780361526
 30
0.0
 11
542.87202017687912
 21
635.80481780361526
 31
0.0
  0
LINE
  5
3C52
  8
AM_0
 10
583.87202017687912
 20
638.80471780361529
 30
0.0
 11
612.21517017687836
 21
638.80471780361529
 31
0.0
  0
LINE
  5
3C53
  8
AM_0
 10
583.87202017687912
 20
638.80471780361529
 30
0.0
 11
580.87202017687912
 21
635.80471780361518
 31
0.0
  0
LINE
  5
3C54
  8
AM_0
 10
580.87212017687932
 20
715.40391780361517
 30
0.0
 11
558.87202017687912
 21
715.40391780361517
 31
0.0
  0
LINE
  5
3C55
  8
AM_0
 10
558.87202017687912
 20
715.40391780361517
 30
0.0
 11
542.87202017687912
 21
715.40391780361517
 31
0.0
  0
ARC
  5
3C56
  8
AM_0
 10
538.87202017687912
 20
721.05246780361529
 30
0.0
 40
4.000000049999997
 50
308.3820099999968
 51
0.0
  0
LINE
  5
3C57
  8
AM_0
 10
583.87202017687912
 20
712.40396780361539
 30
0.0
 11
612.21517017687836
 21
712.40396780361539
 31
0.0
  0
LINE
  5
3C58
  8
AM_0
 10
583.87202017687912
 20
712.4039178036154
 30
0.0
 11
580.87212017687932
 21
715.40391780361517
 31
0.0
  0
LINE
  5
3C59
  8
AM_0
 10
546.85072017687878
 20
756.48906780361483
 30
0.0
 11
536.87212017687887
 21
757.61801780361543
 31
0.0
  0
ARC
  5
3C5A
  8
AM_0
 10
536.87202017687912
 20
775.11801780361543
 30
0.0
 40
30.000000499999999
 50
304.59870999999782
 51
235.40129000000209
  0
LINE
  5
3C5B
  8
AM_0
 10
558.87202017687912
 20
745.11801780361543
 30
0.0
 11
516.87202017687912
 21
745.11801780361543
 31
0.0
  0
LINE
  5
3C5C
  8
AM_0
 10
547.96107017687905
 20
756.11801780361543
 30
0.0
 11
525.78307017687882
 21
756.11801780361543
 31
0.0
  0
CIRCLE
  5
3C5D
  8
AM_0
 10
536.87202017687912
 20
775.11801780361543
 30
0.0
 40
17.500000499999992
  0
ARC
  5
3C5E
  8
AM_0
 10
527.89607017687911
 20
751.64171780361562
 30
0.0
 40
4.949999899999999
 50
101.6876299999988
 51
165.7674300000013
  0
ARC
  5
3C5F
  8
AM_0
 10
516.99822017687882
 20
746.30786780361541
 30
0.0
 40
5.0
 50
351.00000000000119
 51
55.401290000002128
  0
LINE
  5
3C60
  8
AM_0
 10
523.09797017687913
 20
752.8586678036155
 30
0.0
 11
521.87197017687879
 21
745.11801780361543
 31
0.0
  0
LINE
  5
3C61
  8
AM_0
 10
536.87197017687902
 20
757.61801780361543
 30
0.0
 11
526.89332017687866
 21
756.48906780361483
 31
0.0
  0
LINE
  5
3C62
  8
AM_0
 10
607.33682017687875
 20
745.11801780361543
 30
0.0
 11
558.87202017687912
 21
745.11801780361543
 31
0.0
  0
LINE
  5
3C63
  8
AM_0
 10
558.87202017687912
 20
739.11806780361519
 30
0.0
 11
612.21517017687836
 21
739.11806780361519
 31
0.0
  0
LINE
  5
3C64
  8
AM_0
 10
542.87202017687912
 20
739.11806780361519
 30
0.0
 11
558.87202017687912
 21
739.11806780361519
 31
0.0
  0
ARC
  5
3C65
  8
AM_0
 10
545.84797017687913
 20
751.64171780361562
 30
0.0
 40
4.949999899999999
 50
14.232568000000819
 51
78.312366999996456
  0
ARC
  5
3C66
  8
AM_0
 10
546.87202017687912
 20
741.11801780361543
 30
0.0
 40
4.000000049999997
 50
90.00000299999769
 51
180.00001000000091
  0
ARC
  5
3C67
  8
AM_0
 10
556.7459201768786
 20
746.30786780361541
 30
0.0
 40
5.0
 50
124.59871999999839
 51
188.99999999999861
  0
LINE
  5
3C68
  8
AM_0
 10
551.87202017687912
 20
745.11806780361542
 30
0.0
 11
550.64607017687911
 21
752.8586678036155
 31
0.0
  0
ARC
  5
3C69
  8
AM_0
 10
578.70977017687869
 20
742.1180678036153
 30
0.0
 40
3.0000000500000001
 50
18.434948999997921
 51
90.00000299999769
  0
LINE
  5
3C6A
  8
AM_0
 10
581.55582017687891
 20
743.06676780361545
 30
0.0
 11
582.87212017687932
 21
739.11806780361519
 31
0.0
  0
LINE
  5
3C6B
  8
AM_0
 10
580.87212017687932
 20
743.16351780361492
 30
0.0
 11
580.87212017687932
 21
739.11806780361519
 31
0.0
  0
ARC
  5
3C6C
  8
AM_0
 10
607.33682017687875
 20
743.11806780361542
 30
0.0
 40
2.0000000500000001
 50
14.98159799999733
 51
90.00000299999769
  0
LINE
  5
3C6D
  8
AM_0
 10
609.26897017687895
 20
743.63506780361547
 30
0.0
 11
610.47767017687886
 21
739.11806780361519
 31
0.0
  0
LINE
  5
3C6E
  8
AM_0
 10
618.06612017687871
 20
734.92401780361536
 30
0.0
 11
682.57332017687884
 21
732.67136780361545
 31
0.0
  0
LINE
  5
3C6F
  8
AM_0
 10
615.04367017687935
 20
737.94646780361529
 30
0.0
 11
624.40072017687885
 21
728.58941780361545
 31
0.0
  0
ARC
  5
3C70
  8
AM_0
 10
682.01497017687905
 20
716.68106780361541
 30
0.0
 40
16.0
 50
45.000001000003799
 51
88.000000000002785
  0
LINE
  5
3C71
  8
AM_0
 10
615.04362017687879
 20
713.57556780361529
 30
0.0
 11
624.40067017687932
 21
722.93261780361524
 31
0.0
  0
ARC
  5
3C72
  8
AM_0
 10
621.57222017687855
 20
725.76096780361524
 30
0.0
 40
4.000000049999997
 50
315.0
 51
45.000001000003799
  0
ARC
  5
3C73
  8
AM_0
 10
726.872020176879
 20
666.1180678036153
 30
0.0
 40
8.0
 50
0.0
 51
90.00000299999769
  0
ARC
  5
3C74
  8
AM_0
 10
721.872020176879
 20
682.1180178036152
 30
0.0
 40
8.0
 50
179.9999899999988
 51
270.0
  0
LINE
  5
3C75
  8
AM_0
 10
721.872020176879
 20
674.1180678036153
 30
0.0
 11
726.872020176879
 21
674.1180678036153
 31
0.0
  0
LINE
  5
3C76
  8
AM_0
 10
738.28627017687882
 20
654.70381780361515
 30
0.0
 11
734.872020176879
 21
658.1180678036153
 31
0.0
  0
ARC
  5
3C77
  8
AM_0
 10
736.87202017687878
 20
653.28961780361522
 30
0.0
 40
2.0000000500000001
 50
0.0
 51
45.000001000003799
  0
ARC
  5
3C78
  8
AM_0
 10
697.87202017687912
 20
700.82396780361535
 30
0.0
 40
16.0
 50
0.0
 51
45.000001000003799
  0
LINE
  5
3C79
  8
AM_0
 10
693.32867017687931
 20
727.99481780361543
 30
0.0
 11
709.18577017687937
 21
712.13761780361517
 31
0.0
  0
LINE
  5
3C7A
  8
AM_0
 10
770.87212017687943
 20
633.6180678036153
 30
0.0
 11
855.87202017687912
 21
633.6180678036153
 31
0.0
  0
ARC
  5
3C7B
  8
AM_0
 10
1236.4395643200421
 20
594.1180678036153
 30
0.0
 40
80.0
 50
14.393764999997851
 51
165.60623000000109
  0
LINE
  5
3C7C
  8
AM_0
 10
1226.4395643200421
 20
633.6180678036153
 30
0.0
 11
1226.4395643200421
 21
621.6180678036153
 31
0.0
  0
LINE
  5
3C7D
  8
AM_0
 10
1246.4395693200411
 20
621.6180678036153
 30
0.0
 11
1246.4395693200411
 21
633.6180678036153
 31
0.0
  0
ARC
  5
3C7E
  8
AM_0
 10
1236.4395643200421
 20
584.1180678036153
 30
0.0
 40
152.0
 50
6.8105959000011431
 51
19.45744800000115
  0
ARC
  5
3C7F
  8
AM_0
 10
1386.4395393200421
 20
619.1180678036153
 30
0.0
 40
17.000000499999992
 50
292.47483999999821
 51
93.793202999997405
  0
CIRCLE
  5
3C80
  8
AM_0
 10
1236.4395643200421
 20
594.1180678036153
 30
0.0
 40
60.0
  0
ARC
  5
3C81
  8
AM_0
 10
1236.4395643200421
 20
584.1180678036153
 30
0.0
 40
122.8288349999999
 50
356.91789000000222
 51
183.0821099999975
  0
ARC
  5
3C82
  8
AM_0
 10
1236.4395643200421
 20
584.1180678036153
 30
0.0
 40
147.23598000000001
 50
351.58611999999692
 51
188.41388000000279
  0
LINE
  5
3C83
  8
ﾁｭｳｼﾝｾﾝ
 10
1236.4395643200421
 20
810.11801780361543
 30
0.0
 11
1236.4395643200421
 21
307.9952478036152
 31
0.0
  0
ARC
  5
3C84
  8
AM_0
 10
1086.439564320041
 20
619.1180678036153
 30
0.0
 40
17.000000499999992
 50
86.206795000002415
 51
247.52515000000079
  0
ARC
  5
3C85
  8
AM_0
 10
1236.4395643200421
 20
584.1180678036153
 30
0.0
 40
152.0
 50
160.54256000000231
 51
173.1894000000033
  0
LINE
  5
3C86
  8
AM_0
 10
1185.439534320041
 20
339.7380778036154
 30
0.0
 11
1287.43953932004
 21
339.7380778036154
 31
0.0
  0
LINE
  5
3C87
  8
AM_0
 10
1287.43953932004
 20
329.7380778036154
 30
0.0
 11
1260.1249593200421
 21
329.7380778036154
 31
0.0
  0
LINE
  5
3C88
  8
AM_0
 10
1185.439534320041
 20
390.73804780361542
 30
0.0
 11
1287.43953932004
 21
390.73804780361542
 31
0.0
  0
LINE
  5
3C89
  8
ﾁｭｳｼﾝｾﾝ
 10
1127.4572043200419
 20
531.51804780361522
 30
0.0
 11
1345.421869320041
 21
531.51804780361522
 31
0.0
  0
LINE
  5
3C8A
  8
AM_0
 10
1287.43953932004
 20
377.73804780361542
 30
0.0
 11
1260.321249320041
 21
377.73804780361542
 31
0.0
  0
LINE
  5
3C8B
  8
ﾁｭｳｼﾝｾﾝ
 10
1070.42275432004
 20
594.1180678036153
 30
0.0
 11
1402.45632432004
 21
594.1180678036153
 31
0.0
  0
LINE
  5
3C8C
  8
AM_0
 10
1082.24885432004
 20
574.1180678036153
 30
0.0
 11
1011.439604320041
 21
352.11805280361529
 31
0.0
  0
ARC
  5
3C8D
  8
AM_0
 10
1185.439534320041
 20
455.7380478036153
 30
0.0
 40
116.0
 50
173.44022000000211
 51
221.41017000000039
  0
LINE
  5
3C8E
  8
AM_0
 10
1081.8075043200411
 20
513.50001280361528
 30
0.0
 11
1046.22480432004
 21
401.94181280361528
 31
0.0
  0
ARC
  5
3C8F
  8
AM_0
 10
1063.617154320041
 20
423.56193280361498
 30
0.0
 40
10.0
 50
14.795276999998711
 51
162.3093600000025
  0
ARC
  5
3C90
  8
AM_0
 10
1185.439534320041
 20
455.7380478036153
 30
0.0
 40
78.0
 50
188.4138699999979
 51
211.2327300000004
  0
ARC
  5
3C91
  8
AM_0
 10
1113.159869320041
 20
426.41828780361533
 30
0.0
 40
12.99999899999999
 50
329.99999999999932
 51
22.079621000000181
  0
LINE
  5
3C92
  8
AM_0
 10
1101.4395643200421
 20
334.11805280361529
 30
0.0
 11
1135.1319193200411
 21
392.47492780361529
 31
0.0
  0
ARC
  5
3C93
  8
AM_0
 10
1185.439534320041
 20
455.7380478036153
 30
0.0
 40
116.0
 50
235.6933999999975
 51
270.0
  0
ARC
  5
3C94
  8
AM_0
 10
1126.439564320041
 20
354.11805280361529
 30
0.0
 40
17.000000499999992
 50
231.6033299999994
 51
320.6210099999999
  0
ARC
  5
3C95
  8
AM_0
 10
1185.439534320041
 20
455.7380478036153
 30
0.0
 40
65.0
 50
207.48781999999809
 51
229.4185699999999
  0
ARC
  5
3C96
  8
AM_0
 10
1119.439534320041
 20
319.1180678036153
 30
0.0
 40
18.000000499999992
 50
90.00000299999769
 51
180.00001000000091
  0
LINE
  5
3C97
  8
AM_0
 10
1011.439554320041
 20
352.11805280361529
 30
0.0
 11
1011.439554320041
 21
314.1180678036153
 31
0.0
  0
LINE
  5
3C98
  8
ｶｸﾚｾﾝ2
 10
1044.4395693200411
 20
352.11805280361529
 30
0.0
 11
1044.4395693200411
 21
314.1180678036153
 31
0.0
  0
LINE
  5
3C99
  8
ｶｸﾚｾﾝ2
 10
1068.4395543200401
 20
352.11805280361529
 30
0.0
 11
1068.4395543200401
 21
314.1180678036153
 31
0.0
  0
LINE
  5
3C9A
  8
ﾁｭｳｼﾝｾﾝ1
 10
1056.439554320041
 20
362.11805280361523
 30
0.0
 11
1056.439554320041
 21
304.1180678036153
 31
0.0
  0
LINE
  5
3C9B
  8
AM_0
 10
1096.439564320041
 20
342.7783028036153
 30
0.0
 11
1096.439564320041
 21
314.1180678036153
 31
0.0
  0
LINE
  5
3C9C
  8
AM_0
 10
1101.4395643200421
 20
314.1180678036153
 30
0.0
 11
1101.4395643200421
 21
334.11805280361529
 31
0.0
  0
LINE
  5
3C9D
  8
AM_0
 10
1011.439554320041
 20
314.1180678036153
 30
0.0
 11
1101.4395643200421
 21
314.1180678036153
 31
0.0
  0
ARC
  5
3C9E
  8
AM_0
 10
1055.31585432004
 20
367.11805280361529
 30
0.0
 40
15.0
 50
169.9999899999988
 51
270.0
  0
LINE
  5
3C9F
  8
AM_0
 10
1091.047259320042
 20
352.11805280361529
 30
0.0
 11
1011.439554320041
 21
352.11805280361529
 31
0.0
  0
LINE
  5
3CA0
  8
AM_0
 10
1040.54370432004
 20
369.72278780361518
 30
0.0
 11
1046.22480432004
 21
401.94181280361528
 31
0.0
  0
LINE
  5
3CA1
  8
AM_0
 10
1089.6038693200401
 20
359.61805280361529
 30
0.0
 11
1124.41823432004
 21
419.91825780361518
 31
0.0
  0
ARC
  5
3CA2
  8
AM_0
 10
1076.6134543200401
 20
367.11805280361529
 30
0.0
 40
15.0
 50
270.0
 51
329.99999999999932
  0
ARC
  5
3CA3
  8
AM_0
 10
1110.91197932004
 20
334.52482280361511
 30
0.0
 40
8.0
 50
51.603336000002727
 51
149.9999999999992
  0
LINE
  5
3CA4
  8
AM_0
 10
1101.439534320041
 20
334.11808280361521
 30
0.0
 11
1091.047229320041
 21
352.11805280361529
 31
0.0
  0
LINE
  5
3CA5
  8
AM_0
 10
1126.439564320041
 20
337.11805280361529
 30
0.0
 11
1119.439534320041
 21
337.11805280361529
 31
0.0
  0
ARC
  5
3CA6
  8
AM_0
 10
1096.190299320042
 20
377.02610280361529
 30
0.0
 40
3.0000000500000001
 50
329.99999999999932
 51
41.410172999998373
  0
ARC
  5
3CA7
  8
AM_0
 10
1118.3686093200411
 20
357.44010280361522
 30
0.0
 40
3.0000000500000001
 50
55.693402999999293
 51
149.9999999999992
  0
ARC
  5
3CA8
  8
AM_0
 10
1185.439534320041
 20
455.7380478036153
 30
0.0
 40
126.0
 50
246.79906999999881
 51
270.0
  0
ARC
  5
3CA9
  8
AM_0
 10
1236.4395643200421
 20
329.7380778036154
 30
0.0
 40
17.000000499999992
 50
175.41142999999951
 51
235.43968000000081
  0
ARC
  5
3CAA
  8
AM_0
 10
1212.75410932004
 20
321.73806280361521
 30
0.0
 40
8.0
 50
18.66292499999744
 51
90.00000299999769
  0
ARC
  5
3CAB
  8
AM_0
 10
1236.4395643200421
 20
329.7380778036154
 30
0.0
 40
17.000000499999992
 50
304.56031999999902
 51
4.588565899998974
  0
ARC
  5
3CAC
  8
AM_0
 10
1260.1249593200421
 20
321.73806280361521
 30
0.0
 40
8.0
 50
90.00000299999769
 51
161.3370699999995
  0
LINE
  5
3CAD
  8
AM_0
 10
1226.79588932004
 20
315.7380478036153
 30
0.0
 11
1246.083184320041
 21
315.7380478036153
 31
0.0
  0
LINE
  5
3CAE
  8
AM_0
 10
1185.439534320041
 20
329.7380778036154
 30
0.0
 11
1212.75410932004
 21
329.7380778036154
 31
0.0
  0
LINE
  5
3CAF
  8
AM_0
 10
1185.439534320041
 20
377.73804780361542
 30
0.0
 11
1212.5578243200409
 21
377.73804780361542
 31
0.0
  0
ARC
  5
3CB0
  8
AM_0
 10
1185.439534320041
 20
455.7380478036153
 30
0.0
 40
78.0
 50
233.15281000000391
 51
270.0
  0
ARC
  5
3CB1
  8
AM_0
 10
1145.76369432004
 20
338.25687780361528
 30
0.0
 40
8.0
 50
71.339098999999166
 51
140.62100999999981
  0
ARC
  5
3CB2
  8
AM_0
 10
1185.439534320041
 20
455.7380478036153
 30
0.0
 40
65.0
 50
242.19486000000029
 51
270.0
  0
ARC
  5
3CB3
  8
AM_0
 10
1148.1222443200411
 20
384.97492780361529
 30
0.0
 40
15.0
 50
62.194869000004431
 51
149.9999999999992
  0
CIRCLE
  5
3CB4
  8
AM_0
 10
1236.4395643200421
 20
374.11805280361523
 30
0.0
 40
10.4974995
  0
CIRCLE
  5
3CB5
  8
AM_0
 10
1236.4395643200421
 20
374.11805280361523
 30
0.0
 40
9.6974994999999993
  0
POLYLINE
  5
3CB6
  8
AM_0
 66
     1
 10
0.0
 20
0.0
 30
0.0
  0
VERTEX
  5
3CB7
  8
AM_0
  6
CONTINUOUS
 10
1231.439564320041
 20
371.23130280361522
 30
0.0
  0
VERTEX
  5
3CB8
  8
AM_0
  6
CONTINUOUS
 10
1236.4395643200421
 20
368.34455280361522
 30
0.0
  0
VERTEX
  5
3CB9
  8
AM_0
  6
CONTINUOUS
 10
1241.439564320041
 20
371.23130280361522
 30
0.0
  0
VERTEX
  5
3CBA
  8
AM_0
  6
CONTINUOUS
 10
1241.439564320041
 20
377.00480280361529
 30
0.0
  0
VERTEX
  5
3CBB
  8
AM_0
  6
CONTINUOUS
 10
1236.4395643200421
 20
379.89158280361528
 30
0.0
  0
VERTEX
  5
3CBC
  8
AM_0
  6
CONTINUOUS
 10
1231.439564320041
 20
377.00480280361529
 30
0.0
  0
VERTEX
  5
3CBD
  8
AM_0
  6
CONTINUOUS
 10
1231.439564320041
 20
371.23130280361522
 30
0.0
  0
SEQEND
  5
3CBE
  8
AM_0
  0
ARC
  5
3CBF
  8
AM_0
 10
1236.4395643200421
 20
374.11805280361523
 30
0.0
 40
18.000000499999992
 50
185.6911800000004
 51
354.3088100000025
  0
LINE
  5
3CC0
  8
ﾁｭｳｼﾝｾﾝ1
 10
1213.439534320041
 20
374.11805280361523
 30
0.0
 11
1259.439534320041
 21
374.11805280361523
 31
0.0
  0
ARC
  5
3CC1
  8
AM_0
 10
1211.5196743200411
 20
331.73804780361519
 30
0.0
 40
8.0
 50
355.4114299999996
 51
90.00000299999769
  0
ARC
  5
3CC2
  8
AM_0
 10
1212.5578243200409
 20
371.73804780361542
 30
0.0
 40
6.0
 50
5.6911851000033122
 51
90.00000299999769
  0
ARC
  5
3CC3
  8
AM_0
 10
1261.359399320042
 20
331.73804780361519
 30
0.0
 40
8.0
 50
90.00000299999769
 51
184.5885700000004
  0
ARC
  5
3CC4
  8
AM_0
 10
1260.321249320041
 20
371.73804780361542
 30
0.0
 40
6.0
 50
90.00000299999769
 51
174.3088199999992
  0
LINE
  5
3CC5
  8
AM_0
 10
1122.47987932004
 20
471.89606780361521
 30
0.0
 11
1158.9507343200401
 21
614.00486780361518
 31
0.0
  0
LINE
  5
3CC6
  8
AM_0
 10
1113.7883493200411
 20
577.5139178036153
 30
0.0
 11
1119.3511243200419
 21
474.20286280361529
 31
0.0
  0
LINE
  5
3CC7
  8
AM_0
 10
1108.279044320042
 20
444.32484280361513
 30
0.0
 11
1090.788259320042
 21
562.57408280361517
 31
0.0
  0
LINE
  5
3CC8
  8
AM_0
 10
1067.239904320041
 20
527.06229780361525
 30
0.0
 11
1076.2902043200411
 21
600.88901780361516
 31
0.0
  0
LINE
  5
3CC9
  8
AM_0
 10
1082.2488043200419
 20
564.16273280361531
 30
0.0
 11
1082.2488043200419
 21
519.00983780361526
 31
0.0
  0
ARC
  5
3CCA
  8
AM_0
 10
1185.439534320041
 20
455.7380478036153
 30
0.0
 40
65.0
 50
165.60623000000109
 51
202.0796200000014
  0
LINE
  5
3CCB
  8
AM_0
 10
1083.475004320042
 20
515.66187780361531
 30
0.0
 11
1088.66874932004
 21
518.95783780361535
 31
0.0
  0
ARC
  5
3CCC
  8
AM_0
 10
1085.61835432004
 20
512.2844978036153
 30
0.0
 40
4.000000049999997
 50
122.3994099999984
 51
162.3093600000025
  0
LINE
  5
3CCD
  8
AM_0
 10
1084.8604543200411
 20
595.42191780361532
 30
0.0
 11
1082.24885432004
 21
574.1180678036153
 31
0.0
  0
ARC
  5
3CCE
  8
AM_0
 10
1068.34970432004
 20
601.86241780361524
 30
0.0
 40
8.0
 50
353.01102999999949
 51
43.647920999999037
  0
ARC
  5
3CCF
  8
AM_0
 10
1076.8826043200411
 20
596.01686780361536
 30
0.0
 40
8.0
 50
355.73510999999701
 51
67.525156000002397
  0
ARC
  5
3CD0
  8
AM_0
 10
1236.4395643200421
 20
594.1180678036153
 30
0.0
 40
35.000000499999992
 50
106.6015499999988
 51
73.398451999997818
  0
CIRCLE
  5
3CD1
  8
AM_5
 10
1236.4395643200421
 20
594.1180678036153
 30
0.0
 40
6.0
  0
CIRCLE
  5
3CD2
  8
AM_0
 10
1236.4395643200421
 20
594.1180678036153
 30
0.0
 40
5.0
  0
LINE
  5
3CD3
  8
AM_0
 10
1226.4395643200421
 20
621.6180678036153
 30
0.0
 11
1246.4395693200411
 21
621.6180678036153
 31
0.0
  0
LINE
  5
3CD4
  8
AM_0
 10
1390.6302743200411
 20
574.1180178036152
 30
0.0
 11
1461.4395393200421
 21
352.11805280361529
 31
0.0
  0
ARC
  5
3CD5
  8
AM_0
 10
1287.43953932004
 20
455.7380478036153
 30
0.0
 40
78.0
 50
328.76727999999662
 51
351.58611999999692
  0
ARC
  5
3CD6
  8
AM_0
 10
1359.7191993200411
 20
426.41828780361533
 30
0.0
 40
12.99999899999999
 50
157.9203799999984
 51
210.0000000000004
  0
ARC
  5
3CD7
  8
AM_0
 10
1287.43953932004
 20
455.7380478036153
 30
0.0
 40
116.0
 50
318.58982999999938
 51
6.559782799997782
  0
LINE
  5
3CD8
  8
AM_0
 10
1391.0716043200409
 20
513.49998280361535
 30
0.0
 11
1426.65427432004
 21
401.94181280361528
 31
0.0
  0
ARC
  5
3CD9
  8
AM_0
 10
1409.2619393200409
 20
423.56193280361498
 30
0.0
 40
10.0
 50
17.690640999996699
 51
165.20472000000211
  0
LINE
  5
3CDA
  8
AM_0
 10
1461.439549320042
 20
314.1180678036153
 30
0.0
 11
1371.4395393200421
 21
314.1180678036153
 31
0.0
  0
LINE
  5
3CDB
  8
AM_0
 10
1381.831844320041
 20
352.11805280361529
 30
0.0
 11
1461.439549320042
 21
352.11805280361529
 31
0.0
  0
ARC
  5
3CDC
  8
AM_0
 10
1353.4395393200421
 20
319.1180678036153
 30
0.0
 40
18.000000499999992
 50
0.0
 51
90.00000299999769
  0
ARC
  5
3CDD
  8
AM_0
 10
1287.43953932004
 20
455.7380478036153
 30
0.0
 40
126.0
 50
270.0
 51
293.20093000000088
  0
LINE
  5
3CDE
  8
ｶｸﾚｾﾝ2
 10
1428.4395393200421
 20
352.11805280361529
 30
0.0
 11
1428.4395393200421
 21
314.1180678036153
 31
0.0
  0
LINE
  5
3CDF
  8
ｶｸﾚｾﾝ2
 10
1404.439554320041
 20
352.11805280361529
 30
0.0
 11
1404.439554320041
 21
314.1180678036153
 31
0.0
  0
LINE
  5
3CE0
  8
ﾁｭｳｼﾝｾﾝ1
 10
1416.4395393200421
 20
362.11805280361523
 30
0.0
 11
1416.4395393200421
 21
304.1180678036153
 31
0.0
  0
LINE
  5
3CE1
  8
AM_0
 10
1376.4395393200421
 20
342.7783028036153
 30
0.0
 11
1376.4395393200421
 21
314.1180678036153
 31
0.0
  0
LINE
  5
3CE2
  8
AM_0
 10
1371.4395393200421
 20
314.1180678036153
 30
0.0
 11
1371.4395393200421
 21
334.11805280361529
 31
0.0
  0
ARC
  5
3CE3
  8
AM_0
 10
1361.967094320041
 20
334.52482280361511
 30
0.0
 40
8.0
 50
30.00000099999983
 51
128.39667000000051
  0
LINE
  5
3CE4
  8
AM_0
 10
1383.275214320041
 20
359.61805280361529
 30
0.0
 11
1348.460884320041
 21
419.91825780361518
 31
0.0
  0
LINE
  5
3CE5
  8
AM_0
 10
1371.4395393200421
 20
334.11805280361529
 30
0.0
 11
1337.7471843200419
 21
392.47495780361521
 31
0.0
  0
ARC
  5
3CE6
  8
AM_0
 10
1287.43953932004
 20
455.7380478036153
 30
0.0
 40
78.0
 50
270.0
 51
306.84718999999598
  0
ARC
  5
3CE7
  8
AM_0
 10
1287.43953932004
 20
455.7380478036153
 30
0.0
 40
116.0
 50
270.0
 51
304.30660000000239
  0
ARC
  5
3CE8
  8
AM_0
 10
1346.4395393200421
 20
354.11805280361529
 30
0.0
 40
17.000000499999992
 50
219.37898999999999
 51
308.39665999999932
  0
ARC
  5
3CE9
  8
AM_0
 10
1327.1153793200419
 20
338.25687780361528
 30
0.0
 40
8.0
 50
39.378994999999961
 51
108.660900000002
  0
LINE
  5
3CEA
  8
AM_0
 10
1346.4395393200421
 20
337.11805280361529
 30
0.0
 11
1353.4395393200421
 21
337.11805280361529
 31
0.0
  0
ARC
  5
3CEB
  8
AM_0
 10
1354.5104593200399
 20
357.44010280361522
 30
0.0
 40
3.0000000500000001
 50
30.00000099999983
 51
124.30660000000231
  0
ARC
  5
3CEC
  8
AM_0
 10
1324.756829320042
 20
384.97492780361529
 30
0.0
 40
15.0
 50
30.00000099999983
 51
117.8051399999995
  0
ARC
  5
3CED
  8
AM_0
 10
1287.43953932004
 20
455.7380478036153
 30
0.0
 40
65.0
 50
270.0
 51
297.80512999999701
  0
ARC
  5
3CEE
  8
AM_0
 10
1287.43953932004
 20
455.7380478036153
 30
0.0
 40
65.0
 50
310.58143000000001
 51
332.51218999999918
  0
LINE
  5
3CEF
  8
AM_0
 10
1432.3353693200411
 20
369.72278780361518
 30
0.0
 11
1426.65427432004
 21
401.9418478036153
 31
0.0
  0
ARC
  5
3CF0
  8
AM_0
 10
1396.26560432004
 20
367.11805280361529
 30
0.0
 40
15.0
 50
210.0000000000004
 51
270.0
  0
LINE
  5
3CF1
  8
AM_0
 10
1371.439554320041
 20
334.11805280361529
 30
0.0
 11
1381.831859320042
 21
352.11805280361529
 31
0.0
  0
ARC
  5
3CF2
  8
AM_0
 10
1376.688789320041
 20
377.02610280361529
 30
0.0
 40
3.0000000500000001
 50
138.5898200000027
 51
210.0000000000004
  0
ARC
  5
3CF3
  8
AM_0
 10
1417.5632243200409
 20
367.11805280361529
 30
0.0
 40
15.0
 50
270.0
 51
9.9999997000015846
  0
LINE
  5
3CF4
  8
AM_0
 10
1461.439549320042
 20
352.11805280361529
 30
0.0
 11
1461.439549320042
 21
314.1180678036153
 31
0.0
  0
LINE
  5
3CF5
  8
AM_0
 10
1390.6302743200411
 20
564.16273280361531
 30
0.0
 11
1390.6302743200411
 21
519.00983780361526
 31
0.0
  0
LINE
  5
3CF6
  8
AM_0
 10
1405.6391993200421
 20
527.06229780361525
 30
0.0
 11
1396.5888593200409
 21
600.88901780361516
 31
0.0
  0
LINE
  5
3CF7
  8
AM_0
 10
1364.6000143200411
 20
444.32487280361511
 30
0.0
 11
1382.0908143200411
 21
562.57408280361517
 31
0.0
  0
LINE
  5
3CF8
  8
AM_0
 10
1359.090709320041
 20
577.5139178036153
 30
0.0
 11
1353.52793432004
 21
474.20286280361529
 31
0.0
  0
LINE
  5
3CF9
  8
AM_0
 10
1350.399194320041
 20
471.89606780361521
 30
0.0
 11
1313.928339320041
 21
614.00486780361518
 31
0.0
  0
ARC
  5
3CFA
  8
AM_0
 10
1287.43953932004
 20
455.7380478036153
 30
0.0
 40
65.0
 50
337.9203799999986
 51
14.393764999997851
  0
LINE
  5
3CFB
  8
AM_0
 10
1389.4039993200411
 20
515.66184780361505
 30
0.0
 11
1384.210274320041
 21
518.95780780361531
 31
0.0
  0
ARC
  5
3CFC
  8
AM_0
 10
1387.260749320041
 20
512.2844978036153
 30
0.0
 40
4.000000049999997
 50
17.690640999996699
 51
57.600597000002438
  0
LINE
  5
3CFD
  8
AM_0
 10
1388.0186393200411
 20
595.42196780361519
 30
0.0
 11
1390.630259320041
 21
574.1180678036153
 31
0.0
  0
ARC
  5
3CFE
  8
AM_0
 10
1404.529399320041
 20
601.86241780361524
 30
0.0
 40
8.0
 50
136.35208000000219
 51
186.98897000000039
  0
ARC
  5
3CFF
  8
AM_0
 10
1395.9964843200421
 20
596.01686780361536
 30
0.0
 40
8.0
 50
112.4748399999982
 51
184.2648800000008
  0
ARC
  5
3D00
  8
AM_0
 10
1236.4395643200421
 20
584.1180678036153
 30
0.0
 40
161.0
 50
70.837366999997869
 51
82.759510000000958
  0
ARC
  5
3D01
  8
AM_0
 10
1284.217889320041
 20
736.81786780361483
 30
0.0
 40
8.0
 50
252.62558999999979
 51
323.98534000000012
  0
ARC
  5
3D02
  8
AM_0
 10
1236.4395643200421
 20
584.1180678036153
 30
0.0
 40
152.0
 50
125.08946000000191
 51
157.99684000000141
  0
ARC
  5
3D03
  8
AM_0
 10
1236.4395643200421
 20
584.1180678036153
 30
0.0
 40
161.0
 50
123.3012400000009
 51
159.75119999999819
  0
ARC
  5
3D04
  8
AM_0
 10
1088.09340432004
 20
644.0632678036153
 30
0.0
 40
8.0
 50
266.20679999999999
 51
337.99684000000173
  0
ARC
  5
3D05
  8
AM_0
 10
1077.884004320041
 20
642.6085678036153
 30
0.0
 40
8.0
 50
290.01231999999868
 51
339.75119999999822
  0
ARC
  5
3D06
  8
AM_0
 10
1236.4395643200421
 20
584.1180678036153
 30
0.0
 40
152.0
 50
72.625585999999316
 51
107.37441
  0
ARC
  5
3D07
  8
AM_0
 10
1168.439534320041
 20
722.11806780361519
 30
0.0
 40
17.000000499999992
 50
36.014658999998971
 51
196.44921999999809
  0
ARC
  5
3D08
  8
AM_0
 10
1236.4395643200421
 20
584.1180678036153
 30
0.0
 40
152.0
 50
109.8967400000016
 51
122.56714000000019
  0
ARC
  5
3D09
  8
AM_0
 10
1144.4627893200411
 20
715.03891780361516
 30
0.0
 40
8.0
 50
305.08947000000262
 51
16.449219999998359
  0
ARC
  5
3D0A
  8
AM_0
 10
1143.6516343200419
 20
725.36746780361545
 30
0.0
 40
8.0
 50
303.3012400000008
 51
352.5317299999993
  0
ARC
  5
3D0B
  8
AM_0
 10
1188.661184320041
 20
736.81786780361483
 30
0.0
 40
8.0
 50
216.01464999999709
 51
287.37441000000013
  0
LINE
  5
3D0C
  8
AM_0
 10
1246.4395693200411
 20
633.6180678036153
 30
0.0
 11
1226.4395643200421
 21
633.6180678036153
 31
0.0
  0
ARC
  5
3D0D
  8
AM_0
 10
1236.4395643200421
 20
584.1180678036153
 30
0.0
 40
161.0
 50
97.240494999999797
 51
109.1626400000013
  0
ARC
  5
3D0E
  8
AM_0
 10
1180.9651693200401
 20
743.75386780361544
 30
0.0
 40
8.0
 50
239.93215000000041
 51
289.16263000000112
  0
LINE
  5
3D0F
  8
AM_0
 10
1230.1895643200421
 20
798.86801780361543
 30
0.0
 11
1230.1895643200421
 21
751.11801780361543
 31
0.0
  0
LINE
  5
3D10
  8
AM_0
 10
1242.6895693200411
 20
798.86801780361543
 30
0.0
 11
1242.6895693200411
 21
751.11801780361543
 31
0.0
  0
LINE
  5
3D11
  8
AM_0
 10
1256.4395693200411
 20
745.11801780361543
 30
0.0
 11
1216.4395643200421
 21
745.11801780361543
 31
0.0
  0
ARC
  5
3D12
  8
AM_0
 10
1245.41548932004
 20
751.64171780361562
 30
0.0
 40
4.949999899999999
 50
14.232568000000819
 51
78.312366999996456
  0
LINE
  5
3D13
  8
AM_0
 10
1230.189534320041
 20
756.91091780361535
 30
0.0
 11
1226.460839320041
 21
756.48906780361483
 31
0.0
  0
ARC
  5
3D14
  8
AM_0
 10
1227.463614320041
 20
751.64171780361562
 30
0.0
 40
4.949999899999999
 50
101.6876299999988
 51
165.7674300000013
  0
ARC
  5
3D15
  8
AM_0
 10
1211.5437243200411
 20
737.10561780361536
 30
0.0
 40
3.0000000500000001
 50
279.24277999999742
 51
347.20632999999771
  0
LINE
  5
3D16
  8
AM_0
 10
1216.439534320041
 20
745.11806780361542
 30
0.0
 11
1214.469229320041
 21
736.44131780361545
 31
0.0
  0
LINE
  5
3D17
  8
AM_0
 10
1222.6655193200411
 20
752.8586678036155
 30
0.0
 11
1221.439534320041
 21
745.11801780361543
 31
0.0
  0
ARC
  5
3D18
  8
AM_0
 10
1225.189564320041
 20
751.11801780361543
 30
0.0
 40
5.0
 50
302.9725600000001
 51
0.0
  0
LINE
  5
3D19
  8
AM_0
 10
1246.41823432004
 20
756.48906780361483
 30
0.0
 11
1242.689504320042
 21
756.91091780361535
 31
0.0
  0
ARC
  5
3D1A
  8
AM_0
 10
1247.689569320042
 20
751.11801780361543
 30
0.0
 40
5.0
 50
179.9999899999988
 51
237.02744999999891
  0
ARC
  5
3D1B
  8
AM_0
 10
1261.3353793200411
 20
737.10561780361536
 30
0.0
 40
3.0000000500000001
 50
192.7936599999997
 51
260.75722000000241
  0
LINE
  5
3D1C
  8
AM_0
 10
1256.4395693200411
 20
745.11801780361543
 30
0.0
 11
1258.409844320041
 21
736.44126780361535
 31
0.0
  0
LINE
  5
3D1D
  8
AM_0
 10
1251.439534320041
 20
745.11806780361542
 30
0.0
 11
1250.2135243200421
 21
752.8586678036155
 31
0.0
  0
ARC
  5
3D1E
  8
AM_0
 10
1236.4395643200421
 20
798.86801780361543
 30
0.0
 40
6.25
 50
0.0
 51
180.00001000000091
  0
ARC
  5
3D1F
  8
AM_0
 10
1304.43953932004
 20
722.11806780361519
 30
0.0
 40
17.000000499999992
 50
343.55078000000162
 51
143.98535000000271
  0
ARC
  5
3D20
  8
AM_0
 10
1236.4395643200421
 20
584.1180678036153
 30
0.0
 40
161.0
 50
20.248804000000881
 51
56.698755999997701
  0
ARC
  5
3D21
  8
AM_0
 10
1236.4395643200421
 20
584.1180678036153
 30
0.0
 40
152.0
 50
22.003158999996721
 51
54.910531000004688
  0
ARC
  5
3D22
  8
AM_0
 10
1329.2274693200411
 20
725.36746780361545
 30
0.0
 40
8.0
 50
187.4682700000005
 51
236.698759999999
  0
ARC
  5
3D23
  8
AM_0
 10
1328.416314320041
 20
715.03891780361516
 30
0.0
 40
8.0
 50
163.55078000000159
 51
234.91052999999729
  0
ARC
  5
3D24
  8
AM_0
 10
1236.4395643200421
 20
584.1180678036153
 30
0.0
 40
152.0
 50
57.432860999996542
 51
70.103258000001858
  0
ARC
  5
3D25
  8
AM_0
 10
1384.7856543200401
 20
644.0632678036153
 30
0.0
 40
8.0
 50
202.00315999999839
 51
273.79319999999967
  0
ARC
  5
3D26
  8
AM_0
 10
1394.995094320042
 20
642.6085678036153
 30
0.0
 40
8.0
 50
200.24880000000181
 51
249.98768000000121
  0
ARC
  5
3D27
  8
AM_0
 10
1291.913904320041
 20
743.75386780361544
 30
0.0
 40
8.0
 50
250.8373599999984
 51
300.06784999999951
  0
ARC
  5
3D28
  8
AM_0
 10
370.37201017688011
 20
1321.145730610682
 30
0.0
 40
3.0
 50
0.0
 51
90.0
  0
ARC
  5
3D29
  8
AM_0
 10
378.37201017688011
 20
1298.613856610682
 30
0.0
 40
5.0
 50
180.0
 51
268.49999999999733
  0
ARC
  5
3D2A
  8
AM_0
 10
378.37201017688011
 20
1290.9485736106819
 30
0.0
 40
5.0
 50
180.0
 51
245.95480699999951
  0
ARC
  5
3D2B
  8
AM_0
 10
378.37201017688011
 20
1072.899237610683
 30
0.0
 40
5.0
 50
114.0451930000003
 51
180.0
  0
ARC
  5
3D2C
  8
AM_0
 10
378.37201017688011
 20
1057.3428886106819
 30
0.0
 40
5.0
 50
114.0451930000003
 51
180.0
  0
ARC
  5
3D2D
  8
AM_0
 10
378.37201017688011
 20
1049.6776056106819
 30
0.0
 40
5.0
 50
91.500000000002629
 51
180.0
  0
ARC
  5
3D2E
  8
AM_0
 10
370.37201017688011
 20
1027.1457306106811
 30
0.0
 40
3.0
 50
270.0
 51
0.0
  0
ARC
  5
3D2F
  8
AM_0
 10
378.37201017688011
 20
1275.392224610682
 30
0.0
 40
5.0
 50
180.0
 51
245.95480699999951
  0
LINE
  5
3D30
  8
AM_0
 10
373.37201017688028
 20
1027.1457306106811
 30
0.0
 11
373.37201017688028
 21
1174.145730610682
 31
0.0
  0
LINE
  5
3D31
  8
AM_0
 10
353.37201017688028
 20
1324.145730610682
 30
0.0
 11
353.37201017688028
 21
1024.145730610682
 31
0.0
  0
LINE
  5
3D32
  8
AM_0
 10
353.37201017688028
 20
1024.145730610682
 30
0.0
 11
370.37201017688011
 21
1024.145730610682
 31
0.0
  0
LINE
  5
3D33
  8
AM_0
 10
373.37201017688028
 20
1321.145730610682
 30
0.0
 11
373.37201017688028
 21
1174.145730610682
 31
0.0
  0
LINE
  5
3D34
  8
AM_0
 10
353.37201017688028
 20
1324.145730610682
 30
0.0
 11
370.37201017688011
 21
1324.145730610682
 31
0.0
  0
LINE
  5
3D35
  8
AM_0
 10
376.33472517688028
 20
1061.909009610682
 30
0.0
 11
401.10501217688022
 21
1072.960871610682
 31
0.0
  0
LINE
  5
3D36
  8
AM_0
 10
434.37201017688
 20
1056.1457305507299
 30
0.0
 11
378.24112617688041
 21
1054.6758916106819
 31
0.0
  0
LINE
  5
3D37
  8
AM_0
 10
402.96780017687979
 20
1073.391703610683
 30
0.0
 11
431.3726201768801
 21
1074.3836216106811
 31
0.0
  0
LINE
  5
3D38
  8
AM_0
 10
431.3726201768801
 20
1089.939971610683
 30
0.0
 11
402.96780017687979
 21
1088.948052610682
 31
0.0
  0
LINE
  5
3D39
  8
AM_0
 10
430.67501817687997
 20
1099.6119706106811
 30
0.0
 11
378.24112617688041
 21
1098.238940610682
 31
0.0
  0
ARC
  5
3D3A
  8
AM_0
 10
378.37201017688011
 20
1093.2406536106821
 30
0.0
 40
5.0
 50
91.500000000002629
 51
150.7208910000015
  0
LINE
  5
3D3B
  8
AM_0
 10
376.33472517688028
 20
1077.4653596106821
 30
0.0
 11
401.10501217688022
 21
1088.5172206106811
 31
0.0
  0
ARC
  5
3D3C
  8
AM_0
 10
403.14229817688027
 20
1083.9510986106809
 30
0.0
 40
5.0
 50
92.000000000003666
 51
114.0451930000003
  0
LINE
  5
3D3D
  8
AM_0
 10
404.37201017688
 20
1075.4247726106821
 30
0.0
 11
404.37201017688
 21
1086.904974610683
 31
0.0
  0
ARC
  5
3D3E
  8
AM_0
 10
403.14229817688027
 20
1068.394749610683
 30
0.0
 40
5.0
 50
92.000000000003666
 51
114.0451930000003
  0
LINE
  5
3D3F
  8
AM_0
 10
432.37201017688022
 20
1098.1222236106821
 30
0.0
 11
432.37201017688022
 21
1090.974870610682
 31
0.0
  0
LINE
  5
3D40
  8
AM_0
 10
431.3726201768801
 20
1074.3836216106811
 30
0.0
 11
432.37201017688022
 21
1075.418521610683
 31
0.0
  0
LINE
  5
3D41
  8
AM_0
 10
431.3726201768801
 20
1089.939971610683
 30
0.0
 11
432.37201017688022
 21
1090.974870610682
 31
0.0
  0
LINE
  5
3D42
  8
AM_0
 10
431.3726201768801
 20
1089.939971610683
 30
0.0
 11
431.3726201768801
 21
1074.3836216106811
 31
0.0
  0
LINE
  5
3D43
  8
AM_0
 10
432.37201017688022
 20
1090.974870610682
 30
0.0
 11
432.37201017688022
 21
1075.418521610683
 31
0.0
  0
LINE
  5
3D44
  8
AM_0
 10
431.3726201768801
 20
1258.351490610682
 30
0.0
 11
402.96780017687979
 21
1259.343408610682
 31
0.0
  0
LINE
  5
3D45
  8
AM_0
 10
430.67501817687997
 20
1248.6794916106819
 30
0.0
 11
378.24112617688041
 21
1250.0525216106821
 31
0.0
  0
LINE
  5
3D46
  8
AM_0
 10
402.96780017687979
 20
1274.8997576106819
 30
0.0
 11
431.3726201768801
 21
1273.907839610682
 31
0.0
  0
LINE
  5
3D47
  8
AM_0
 10
376.33472517688028
 20
1270.826102610682
 30
0.0
 11
401.10501217688022
 21
1259.7742416106821
 31
0.0
  0
ARC
  5
3D48
  8
AM_0
 10
378.37201017688011
 20
1255.0508076106821
 30
0.0
 40
5.0
 50
209.2791089999985
 51
268.49999999999733
  0
ARC
  5
3D49
  8
AM_0
 10
403.14229817688027
 20
1264.3403626106831
 30
0.0
 40
5.0
 50
245.95480699999951
 51
267.99999999999631
  0
LINE
  5
3D4A
  8
AM_0
 10
376.33472517688028
 20
1286.382451610682
 30
0.0
 11
401.10501217688022
 21
1275.330590610683
 31
0.0
  0
ARC
  5
3D4B
  8
AM_0
 10
403.14229817688027
 20
1279.8967116106819
 30
0.0
 40
5.0
 50
245.95480699999951
 51
267.99999999999631
  0
LINE
  5
3D4C
  8
AM_0
 10
404.37201017688
 20
1272.8666886106821
 30
0.0
 11
404.37201017688
 21
1261.386487610682
 31
0.0
  0
LINE
  5
3D4D
  8
AM_0
 10
431.3726201768801
 20
1258.351490610682
 30
0.0
 11
431.3726201768801
 21
1273.907839610682
 31
0.0
  0
LINE
  5
3D4E
  8
AM_0
 10
432.37201017688022
 20
1257.3165916106821
 30
0.0
 11
432.37201017688022
 21
1272.872940610682
 31
0.0
  0
LINE
  5
3D4F
  8
AM_0
 10
431.3726201768801
 20
1258.351490610682
 30
0.0
 11
432.37201017688022
 21
1257.3165916106821
 31
0.0
  0
LINE
  5
3D50
  8
AM_0
 10
432.37201017688022
 20
1250.1692376106821
 30
0.0
 11
432.37201017688022
 21
1257.3165916106821
 31
0.0
  0
LINE
  5
3D51
  8
AM_0
 10
431.3726201768801
 20
1273.907839610682
 30
0.0
 11
432.37201017688022
 21
1272.872940610682
 31
0.0
  0
LINE
  5
3D52
  8
AM_0
 10
434.37201017688
 20
1292.1457306706341
 30
0.0
 11
378.24112617688041
 21
1293.615569610683
 31
0.0
  0
TEXT
  5
3F33
  8
AM_0
 10
1076.1593610169759
 20
1219.8315471444409
 30
0.0
 40
20.0
  1
VX75-040A~VX75-080A
  0
ENDSEC
  0
EOF
