  0
SECTION
  2
HEADER
  9
$ACADVER
  1
AC1009
  9
$INSBASE
 10
0.0
 20
0.0
 30
0.0
  9
$EXTMIN
 10
233.80867993273841
 20
148.0570235592977
 30
-0.0000000000000015
  9
$EXTMAX
 10
649.31950553369188
 20
531.98227055252323
 30
0.0000000000000148
  9
$LIMMIN
 10
0.0
 20
0.0
  9
$LIMMAX
 10
853.5
 20
555.0
  9
$ORTHOMODE
 70
     0
  9
$REGENMODE
 70
     1
  9
$FILLMODE
 70
     1
  9
$QTEXTMODE
 70
     0
  9
$MIRRTEXT
 70
     1
  9
$DRAGMODE
 70
     2
  9
$LTSCALE
 40
3.0
  9
$OSMODE
 70
   551
  9
$ATTMODE
 70
     1
  9
$TEXTSIZE
 40
2.5
  9
$TRACEWID
 40
1.0
  9
$TEXTSTYLE
  7
STANDARD
  9
$CLAYER
  8
AM_0
  9
$CELTYPE
  6
BYLAYER
  9
$CECOLOR
 62
   256
  9
$DIMSCALE
 40
1.0
  9
$DIMASZ
 40
0.1
  9
$DIMEXO
 40
0.05
  9
$DIMDLI
 40
0.5
  9
$DIMRND
 40
0.0
  9
$DIMDLE
 40
0.0
  9
$DIMEXE
 40
0.1
  9
$DIMTP
 40
0.1
  9
$DIMTM
 40
0.1
  9
$DIMTXT
 40
0.12
  9
$DIMCEN
 40
0.0
  9
$DIMTSZ
 40
0.0
  9
$DIMTOL
 70
     0
  9
$DIMLIM
 70
     0
  9
$DIMTIH
 70
     1
  9
$DIMTOH
 70
     1
  9
$DIMSE1
 70
     0
  9
$DIMSE2
 70
     0
  9
$DIMTAD
 70
     0
  9
$DIMZIN
 70
     8
  9
$DIMBLK
  1

  9
$DIMASO
 70
     1
  9
$DIMSHO
 70
     1
  9
$DIMPOST
  1

  9
$DIMAPOST
  1
mm
  9
$DIMALT
 70
     0
  9
$DIMALTD
 70
     2
  9
$DIMALTF
 40
25.399999999999999
  9
$DIMLFAC
 40
1.0
  9
$DIMTOFL
 70
     0
  9
$DIMTVP
 40
0.0
  9
$DIMTIX
 70
     0
  9
$DIMSOXD
 70
     0
  9
$DIMSAH
 70
     0
  9
$DIMBLK1
  1

  9
$DIMBLK2
  1

  9
$DIMSTYLE
  2
AM_ANSI
  9
$DIMCLRD
 70
   256
  9
$DIMCLRE
 70
   256
  9
$DIMCLRT
 70
     2
  9
$DIMTFAC
 40
0.71
  9
$DIMGAP
 40
0.06
  9
$LUNITS
 70
     2
  9
$LUPREC
 70
     2
  9
$SKETCHINC
 40
1.0
  9
$FILLETRAD
 40
15.0
  9
$AUNITS
 70
     0
  9
$AUPREC
 70
     0
  9
$MENU
  1
.
  9
$ELEVATION
 40
0.0
  9
$PELEVATION
 40
0.0
  9
$THICKNESS
 40
0.0
  9
$LIMCHECK
 70
     0
  9
$BLIPMODE
 70
     0
  9
$CHAMFERA
 40
6.0
  9
$CHAMFERB
 40
3.0
  9
$SKPOLY
 70
     0
  9
$TDCREATE
 40
2452065.6079040049
  9
$TDUPDATE
 40
2458541.4899268872
  9
$TDINDWG
 40
0.0767021644
  9
$TDUSRTIMER
 40
0.0767021412
  9
$USRTIMER
 70
     1
  9
$ANGBASE
 50
0.0
  9
$ANGDIR
 70
     0
  9
$PDMODE
 70
     0
  9
$PDSIZE
 40
0.0
  9
$PLINEWID
 40
0.0
  9
$COORDS
 70
     1
  9
$SPLFRAME
 70
     0
  9
$SPLINETYPE
 70
     6
  9
$SPLINESEGS
 70
     8
  9
$ATTDIA
 70
     1
  9
$ATTREQ
 70
     1
  9
$HANDLING
 70
     1
  9
$HANDSEED
  5
37E7
  9
$SURFTAB1
 70
     6
  9
$SURFTAB2
 70
     6
  9
$SURFTYPE
 70
     6
  9
$SURFU
 70
     6
  9
$SURFV
 70
     6
  9
$UCSNAME
  2

  9
$UCSORG
 10
0.0
 20
0.0
 30
0.0
  9
$UCSXDIR
 10
1.0
 20
0.0
 30
0.0
  9
$UCSYDIR
 10
0.0
 20
1.0
 30
0.0
  9
$PUCSNAME
  2

  9
$PUCSORG
 10
0.0
 20
0.0
 30
0.0
  9
$PUCSXDIR
 10
1.0
 20
0.0
 30
0.0
  9
$PUCSYDIR
 10
0.0
 20
1.0
 30
0.0
  9
$USERI1
 70
     0
  9
$USERI2
 70
     0
  9
$USERI3
 70
     0
  9
$USERI4
 70
     0
  9
$USERI5
 70
     0
  9
$USERR1
 40
0.0
  9
$USERR2
 40
0.0
  9
$USERR3
 40
0.0
  9
$USERR4
 40
0.0
  9
$USERR5
 40
0.0
  9
$WORLDVIEW
 70
     1
  9
$SHADEDGE
 70
     3
  9
$SHADEDIF
 70
    70
  9
$TILEMODE
 70
     1
  9
$MAXACTVP
 70
    48
  9
$PLIMCHECK
 70
     0
  9
$PEXTMIN
 10
1.0000000000000000E+020
 20
1.0000000000000000E+020
 30
1.0000000000000000E+020
  9
$PEXTMAX
 10
-1.0000000000000000E+020
 20
-1.0000000000000000E+020
 30
-1.0000000000000000E+020
  9
$PLIMMIN
 10
0.0
 20
0.0
  9
$PLIMMAX
 10
420.0
 20
297.0
  9
$UNITMODE
 70
     0
  9
$VISRETAIN
 70
     1
  9
$PLINEGEN
 70
     0
  9
$PSLTSCALE
 70
     1
  0
ENDSEC
  0
SECTION
  2
TABLES
  0
TABLE
  2
VPORT
 70
     1
  0
VPORT
  2
*ACTIVE
 70
     0
 10
0.0
 20
0.0
 11
1.0
 21
1.0
 12
441.56409273321509
 22
340.01964705591053
 13
0.0
 23
0.0
 14
7.5
 24
7.5
 15
30.0
 25
30.0
 16
0.0
 26
0.0
 36
1.0
 17
0.0
 27
0.0
 37
0.0
 40
386.56088942109659
 41
1.7571592210767459
 42
50.0
 43
0.0
 44
0.0
 50
0.0
 51
0.0
 71
     0
 72
   100
 73
     1
 74
     3
 75
     0
 76
     0
 77
     0
 78
     0
  0
ENDTAB
  0
TABLE
  2
LTYPE
 70
    26
  0
LTYPE
  2
CONTINUOUS
 70
     0
  3
Solid line
 72
    65
 73
     0
 40
0.0
  0
LTYPE
  2
AM_ISO02W050
 70
     0
  3
__ __ __ __ __ __ __ __ __ __ __ __ __ __ __
 72
    65
 73
     2
 40
7.5
 49
6.0
 49
-1.5
  0
LTYPE
  2
AM_ISO08W050
 70
     0
  3
____ . ____ . ____ . ____ . ____ . ____ . ____
 72
    65
 73
     4
 40
18.0
 49
12.0
 49
-1.5
 49
3.0
 49
-1.5
  0
LTYPE
  2
AM_ISO09W050
 70
     0
  3
_____ . . _____ . . _____ . . ____ .. ____
 72
    65
 73
     6
 40
22.5
 49
12.0
 49
-1.5
 49
3.0
 49
-1.5
 49
3.0
 49
-1.5
  0
LTYPE
  2
AMCONSTR
 70
     0
  3
_______________________
 72
    65
 73
     2
 40
9999.0
 49
9999.0
 49
0.0
  0
LTYPE
  2
AM_ISO08W050X2
 70
     0
  3
__ . __ . __ . __ . __ . __
 72
    65
 73
     4
 40
9.0
 49
6.0
 49
-0.75
 49
1.5
 49
-0.75
  0
LTYPE
  2
AM_ISO02W050X2
 70
     0
  3
 _ _ _ _ _ _ _ _ _ _ _ _
 72
    65
 73
     2
 40
3.75
 49
3.0
 49
-0.75
  0
LTYPE
  2
AMZIGZAG
 70
     0
  3
/\/-/\/-/\/-/\/-/\/-/\/
 72
    65
 73
     2
 40
11.000099999999991
 49
0.0001
 49
-11.0
  0
LTYPE
  2
ACISOWELD
 70
     0
  3
_ _ _ _ _
 72
    65
 73
     2
 40
2.0
 49
2.0
 49
-1.0
  0
LTYPE
  2
ACISOTGB
 70
     0
  3
__ . . __ . .
 72
    65
 73
     6
 40
9.0
 49
4.0
 49
-1.0
 49
1.0
 49
-1.0
 49
1.0
 49
-1.0
  0
LTYPE
  2
ACISOTGL
 70
     0
  3
_ _ _ _ _
 72
    65
 73
     2
 40
3.0
 49
2.0
 49
-1.0
  0
LTYPE
  2
CENTER
 70
     0
  3
__ . __
 72
    65
 73
     4
 40
7.0
 49
4.0
 49
-1.0
 49
1.0
 49
-1.0
  0
LTYPE
  2
PHANTOM2
 70
     0
  3
Phantom (.5x) ___ _ _ ___ _ _ ___ _ _ ___ _ _
 72
    65
 73
     6
 40
31.75
 49
15.875
 49
-3.174999999999998
 49
3.174999999999998
 49
-3.174999999999998
 49
3.174999999999998
 49
-3.174999999999998
  0
LTYPE
  2
ACANSTGBM
 70
     0
  3
__ . . __ . .
 72
    65
 73
     6
 40
9.0
 49
4.0
 49
-1.0
 49
1.0
 49
-1.0
 49
1.0
 49
-1.0
  0
LTYPE
  2
ACANSTGLM
 70
     0
  3
_ _ _ _ _
 72
    65
 73
     2
 40
3.0
 49
2.0
 49
-1.0
  0
LTYPE
  2
GEN7
 70
     0
  3
____ . ____ . ____ . ____ . ____ . ____ . ____
 72
    65
 73
     4
 40
14.25
 49
9.75
 49
-1.5
 49
1.5
 49
-1.5
  0
LTYPE
  2
GEN7A
 70
     0
  3
__ . __ . __
 72
    65
 73
     4
 40
7.375
 49
4.75
 49
-0.875
 49
0.875
 49
-0.875
  0
LTYPE
  2
ACJISTGB
 70
     0
  3
__ . . __ . .
 72
    65
 73
     6
 40
9.0
 49
4.0
 49
-1.0
 49
1.0
 49
-1.0
 49
1.0
 49
-1.0
  0
LTYPE
  2
ACJISTGL
 70
     0
  3
_ _ _ _ _
 72
    65
 73
     2
 40
3.0
 49
2.0
 49
-1.0
  0
LTYPE
  2
HIDDEN
 70
     0
  3
Hidden __ __ __ __ __ __ __ __ __ __ __ __ __ _
 72
    65
 73
     2
 40
0.375
 49
0.25
 49
-0.125
  0
LTYPE
  2
CENTER2
 70
     0
  3
Center (.5x) ___ _ ___ _ ___ _ ___ _ ___ _ ___
 72
    65
 73
     4
 40
1.125
 49
0.75
 49
-0.125
 49
0.125
 49
-0.125
  0
LTYPE
  2
HIDDEN2
 70
     0
  3
Hidden (.5x) _ _ _ _ _ _ _ _ _ _ _ _ _ _ _ _ _
 72
    65
 73
     2
 40
0.1875
 49
0.125
 49
-0.0625
  0
LTYPE
  2
AMZIGZAG2
 70
     0
  3
/\/-/\/-/\/-/\/-/\/-/\/
 72
    65
 73
     2
 40
0.4401
 49
0.0001
 49
-0.4400000000000003
  0
LTYPE
  2
ACANSTGB
 70
     0
  3
__ . . __ . .
 72
    65
 73
     6
 40
0.35433070866
 49
0.15748031496
 49
-0.03937007874
 49
0.03937007874
 49
-0.03937007874
 49
0.03937007874
 49
-0.03937007874
  0
LTYPE
  2
ACANSTGL
 70
     0
  3
_ _ _ _ _
 72
    65
 73
     2
 40
0.11811023622
 49
0.07874015748
 49
-0.03937007874
  0
ENDTAB
  0
TABLE
  2
LAYER
 70
     6
  0
LAYER
  2
0
 70
     0
 62
     7
  6
CONTINUOUS
  0
LAYER
  2
AM_0
 70
     0
 62
     7
  6
CONTINUOUS
  0
LAYER
  2
AM_5
 70
     0
 62
     2
  6
CONTINUOUS
  0
LAYER
  2
DEFPOINTS
 70
     0
 62
     7
  6
CONTINUOUS
  0
LAYER
  2
ﾁｭｳｼﾝｾﾝ
 70
     0
 62
     1
  6
GEN7
  0
LAYER
  2
ﾁｭｳｼﾝｾﾝ1
 70
     0
 62
     1
  6
GEN7A
  0
ENDTAB
  0
TABLE
  2
STYLE
 70
     9
  0
STYLE
  2
STANDARD
 70
     0
 40
0.0
 41
0.8299999999999999
 50
0.0
 71
     0
 42
2.5
  3
txt.shx
  4
bigfont.shx
  0
STYLE
  2
ANNOTATIVE
 70
     0
 40
0.0
 41
1.0
 50
0.0
 71
     0
 42
0.2
  3
txt
  4

  0
STYLE
  2

 70
     1
 40
0.0
 41
1.0
 50
0.0
 71
     0
 42
2.5
  3
ltypeshp.shx
  4

  0
STYLE
  2
ACISOTS
 70
     0
 40
1.0
 41
1.0
 50
0.0
 71
     0
 42
2.5
  3
isocp.shx
  4
extfont.shx
  0
STYLE
  2
ACISOGDT
 70
     0
 40
0.0
 41
1.0
 50
0.0
 71
     0
 42
2.5
  3
amgdt.shx
  4

  0
STYLE
  2
ACANSTS
 70
     0
 40
1.0
 41
1.0
 50
0.0
 71
     0
 42
2.5
  3
romans.shx
  4
bigfont.shx
  0
STYLE
  2
ACANSGDT
 70
     0
 40
0.0
 41
1.0
 50
0.0
 71
     0
 42
2.5
  3
amgdt.shx
  4

  0
STYLE
  2
ACJISTS
 70
     0
 40
1.0
 41
1.0
 50
0.0
 71
     0
 42
2.5
  3
isocp.shx
  4
bigfont.shx
  0
STYLE
  2
ACJISGDT
 70
     0
 40
0.0
 41
1.0
 50
0.0
 71
     0
 42
2.5
  3
amgdt.shx
  4

  0
ENDTAB
  0
TABLE
  2
VIEW
 70
     6
  0
VIEW
  2
AM_VIEW1
 70
     0
 40
277.49999999999989
 10
249.6477899999999
 20
416.24999999999989
 41
499.2955799999998
 11
0.0
 21
0.0
 31
1.0
 12
0.0
 22
0.0
 32
0.0
 42
50.0
 43
0.0
 44
0.0
 50
0.0
 71
     0
  0
VIEW
  2
AM_VIEW2
 70
     0
 40
277.49999999999989
 10
603.85221000000001
 20
416.24999999999989
 41
499.2955799999998
 11
0.0
 21
0.0
 31
1.0
 12
0.0
 22
0.0
 32
0.0
 42
50.0
 43
0.0
 44
0.0
 50
0.0
 71
     0
  0
VIEW
  2
AM_VIEW3
 70
     0
 40
277.49999999999989
 10
249.6477899999999
 20
138.7499999999998
 41
499.2955799999998
 11
0.0
 21
0.0
 31
1.0
 12
0.0
 22
0.0
 32
0.0
 42
50.0
 43
0.0
 44
0.0
 50
0.0
 71
     0
  0
VIEW
  2
AM_VIEW4
 70
     0
 40
277.49999999999989
 10
603.85221000000001
 20
138.7499999999998
 41
499.2955799999998
 11
0.0
 21
0.0
 31
1.0
 12
0.0
 22
0.0
 32
0.0
 42
50.0
 43
0.0
 44
0.0
 50
0.0
 71
     0
  0
VIEW
  2
AM_VIEW5
 70
     0
 40
277.49999999999989
 10
426.75
 20
277.49999999999989
 41
499.2955799999998
 11
0.0
 21
0.0
 31
1.0
 12
0.0
 22
0.0
 32
0.0
 42
50.0
 43
0.0
 44
0.0
 50
0.0
 71
     0
  0
VIEW
  2
AM_VIEW6
 70
     0
 40
554.99445000000003
 10
426.75
 20
277.49999999999989
 41
998.58117400000003
 11
0.0
 21
0.0
 31
1.0
 12
0.0
 22
0.0
 32
0.0
 42
50.0
 43
0.0
 44
0.0
 50
0.0
 71
     0
  0
ENDTAB
  0
TABLE
  2
UCS
 70
     0
  0
ENDTAB
  0
TABLE
  2
APPID
 70
    95
  0
APPID
  2
ACAD
 70
     0
  0
APPID
  2
ACADANNOTATIVE
 70
     0
  0
APPID
  2
MCAD_NO_VIS
 70
     0
  0
APPID
  2
ACAD_TEMP_GRAPHIC
 70
     0
  0
APPID
  2
ACATTRIBSERVICES
 70
     0
  0
APPID
  2
GENIUS_GENREC_14
 70
     0
  0
APPID
  2
GENIUS_GENOBJ-N-REC_13
 70
     0
  0
APPID
  2
GENIUS_GENODEF_13
 70
     0
  0
APPID
  2
GENIUS_GENOLIS_13
 70
     0
  0
APPID
  2
GENIUS_GENOBJ-N-TIT_13
 70
     0
  0
APPID
  2
GENIUS_GENOENT_13
 70
     0
  0
APPID
  2
GENIUS_GENTITLE_13
 70
     0
  0
APPID
  2
GENIUS_GENOREF_13
 70
     0
  0
APPID
  2
GENIUS_GENSCREG_15
 70
     0
  0
APPID
  2
GENIUS_GENOBJ-N-SDF_13
 70
     0
  0
APPID
  2
GENIUS_GENFIL_13
 70
     0
  0
APPID
  2
GENIUS_GENOBJ-N-CHA_13
 70
     0
  0
APPID
  2
GENIUS_GENDTOL_13
 70
     0
  0
APPID
  2
GENIUS_GENOBJ-N-FIL_13
 70
     0
  0
APPID
  2
AD_DRAW
 70
     0
  0
APPID
  2
DESIGNERASSEMBLIES
 70
     0
  0
APPID
  2
ASURF_PCURVE_APPNAME
 70
     0
  0
APPID
  2
GENIUS_GE3SECT_13
 70
     0
  0
APPID
  2
GENIUS_GENCFG_13
 70
     0
  0
APPID
  2
GENIUS_GE3CFG0_13
 70
     0
  0
APPID
  2
GENIUS_GENCFG0_13
 70
     0
  0
APPID
  2
GENIUS_GENCFG1_13
 70
     0
  0
APPID
  2
GENIUS_GENCFG2_13
 70
     0
  0
APPID
  2
GENIUS_GENCFG3_13
 70
     0
  0
APPID
  2
GENIUS_GENCFG4_13
 70
     0
  0
APPID
  2
GENIUS_GEVCFG0_13
 70
     0
  0
APPID
  2
GENIUS_GENHINW_13
 70
     0
  0
APPID
  2
GENIUS_FIRSTVISTXT_14
 70
     0
  0
APPID
  2
GENIUS_GENOBJ-N-LEADER_13
 70
     0
  0
APPID
  2
GEV_VCCNULL_SWITCH_OFF
 70
     0
  0
APPID
  2
GENIUS_GEFCFG0_13
 70
     0
  0
APPID
  2
GENIUS_GENZVEED_13
 70
     0
  0
APPID
  2
GENIUS_GENSCREG_13
 70
     0
  0
APPID
  2
GENIUS_DUMCFG0_13
 70
     0
  0
APPID
  2
GEVID936201362
 70
     0
  0
APPID
  2
GEVDC
 70
     0
  0
APPID
  2
GEVCON
 70
     0
  0
APPID
  2
VCC
 70
     0
  0
APPID
  2
GEVPT
 70
     0
  0
APPID
  2
GEVIT
 70
     0
  0
APPID
  2
GENBH
 70
     0
  0
APPID
  2
GEVMK
 70
     0
  0
APPID
  2
GENIUS_GENBH_13
 70
     0
  0
APPID
  2
GENIUS_GENOBJ-NBEHI-BHF_13
 70
     0
  0
APPID
  2
GENIUS_GENOBJ-NBEHI-BHB_13
 70
     0
  0
APPID
  2
GENIUS_GENOBJ-F-DESC_13
 70
     0
  0
APPID
  2
GENIUS_GEFDESC_14
 70
     0
  0
APPID
  2
GENIUS_GENOBJ-F-PART_13
 70
     0
  0
APPID
  2
GENIUS_GEFSTDP_13
 70
     0
  0
APPID
  2
GENIUS_GEFPARTINS_13
 70
     0
  0
APPID
  2
GENIUS_GENTRA_14
 70
     0
  0
APPID
  2
GENIUS_GENINF13_13
 70
     0
  0
APPID
  2
GENIUS_GENOBJ-N-INFOPT_13
 70
     0
  0
APPID
  2
GENIUS_GENOBJ-N-RSSYM_13
 70
     0
  0
APPID
  2
GENIUS_GENSYMENT_13
 70
     0
  0
APPID
  2
GENIUS_GENSCSYM_13
 70
     0
  0
APPID
  2
GENIUS_GEFINFNAM_13
 70
     0
  0
APPID
  2
GENIUS_GENOBJ-N-CEN_13
 70
     0
  0
APPID
  2
GENIUS_GENOBJ-N-CRS_13
 70
     0
  0
APPID
  2
GENIUS_GENOBJ-N-CRC_13
 70
     0
  0
APPID
  2
GENIUS_GENCRC_14
 70
     0
  0
APPID
  2
GEVID942827039
 70
     0
  0
APPID
  2
GEVID942827040
 70
     0
  0
APPID
  2
GEVID942827041
 70
     0
  0
APPID
  2
GENIUS_GENOBJ-F-SCPASSM_13
 70
     0
  0
APPID
  2
GENIUS_GENDIMSH_14
 70
     0
  0
APPID
  2
GEVID942827042
 70
     0
  0
APPID
  2
GEVID946020473
 70
     0
  0
APPID
  2
GEVID946020474
 70
     0
  0
APPID
  2
GEVID946020475
 70
     0
  0
APPID
  2
GENIUS_GENOBJ-N-HTC_13
 70
     0
  0
APPID
  2
GENIUS_GENHATCH_13
 70
     0
  0
APPID
  2
GEVID948854295
 70
     0
  0
APPID
  2
GEVID939402019
 70
     0
  0
APPID
  2
GEVID952919491
 70
     0
  0
APPID
  2
GEVID952919492
 70
     0
  0
APPID
  2
GENIUS_GEFWELD_13
 70
     0
  0
APPID
  2
GENIUS_GENOBJ-F-WELS_13
 70
     0
  0
APPID
  2
GEVID952919493
 70
     0
  0
APPID
  2
GENIUS_GENOBJ-N-RSBK_13
 70
     0
  0
APPID
  2
GENIUS_GENOBJ-N-LIB_13
 70
     0
  0
APPID
  2
GENIUS_GENSCALE_13
 70
     0
  0
APPID
  2
GEVID986376691
 70
     0
  0
APPID
  2
DCO15
 70
     0
  0
APPID
  2
ACAD_DSTYLE_DIMBREAK
 70
     0
  0
APPID
  2
ACAD_DSTYLE_DIMJAG
 70
     0
  0
APPID
  2
ACAD_NAV_VCDISPLAY
 70
     0
  0
APPID
  2
ACADANNOPO
 70
     0
  0
APPID
  2
ACAD_EXEMPT_FROM_CAD_STANDARDS
 70
     0
  0
APPID
  2
ACAD_MLEADERVER
 70
     0
  0
ENDTAB
  0
TABLE
  2
DIMSTYLE
 70
    22
  0
DIMSTYLE
  2
STANDARD
 70
     0
  3

  4

  5

  6

  7

 40
1.0
 41
0.18
 42
0.0625
 43
0.38
 44
0.18
 45
0.0
 46
0.0
 47
0.0
 48
0.0
140
0.18
141
0.09
142
0.0
143
25.399999999999999
144
1.0
145
0.0
146
1.0
147
0.09
 71
     0
 72
     0
 73
     1
 74
     1
 75
     0
 76
     0
 77
     0
 78
     0
170
     0
171
     2
172
     0
173
     0
174
     0
175
     0
176
     0
177
     0
178
     0
  0
DIMSTYLE
  2
ANNOTATIVE
 70
     0
  3

  4

  5

  6

  7

 40
1.0
 41
0.18
 42
0.0625
 43
0.38
 44
0.18
 45
0.0
 46
0.0
 47
0.0
 48
0.0
140
0.18
141
0.09
142
0.0
143
25.399999999999999
144
1.0
145
0.0
146
1.0
147
0.09
 71
     0
 72
     0
 73
     1
 74
     1
 75
     0
 76
     0
 77
     0
 78
     0
170
     0
171
     2
172
     0
173
     0
174
     0
175
     0
176
     0
177
     0
178
     0
  0
DIMSTYLE
  2
AM_ISO
 70
     0
  3

  4
"
  5

  6

  7

 40
1.0
 41
2.5
 42
1.0
 43
8.0
 44
0.6
 45
0.0
 46
0.0
 47
0.1
 48
0.1
140
2.5
141
0.0
142
0.0
143
0.03937
144
1.0
145
0.0
146
0.71
147
0.8
 71
     0
 72
     0
 73
     0
 74
     0
 75
     0
 76
     0
 77
     1
 78
     8
170
     0
171
     2
172
     1
173
     0
174
     0
175
     0
176
   256
177
   256
178
     4
  0
DIMSTYLE
  2
AM_ISO$3
 70
     0
  3

  4
"
  5

  6

  7

 40
1.0
 41
2.5
 42
1.0
 43
8.0
 44
0.6
 45
0.0
 46
0.0
 47
0.1
 48
0.1
140
2.5
141
0.0
142
0.0
143
0.03937
144
1.0
145
0.0
146
0.71
147
0.8
 71
     0
 72
     0
 73
     0
 74
     1
 75
     0
 76
     0
 77
     1
 78
     8
170
     0
171
     2
172
     0
173
     0
174
     0
175
     0
176
   256
177
   256
178
     4
  0
DIMSTYLE
  2
AM_ISO$4
 70
     0
  3

  4
"
  5

  6

  7

 40
1.0
 41
2.5
 42
1.0
 43
8.0
 44
0.6
 45
0.0
 46
0.0
 47
0.1
 48
0.1
140
2.5
141
0.0
142
0.0
143
0.03937
144
1.0
145
0.0
146
0.71
147
0.8
 71
     0
 72
     0
 73
     0
 74
     1
 75
     0
 76
     0
 77
     1
 78
     8
170
     0
171
     2
172
     0
173
     0
174
     0
175
     0
176
   256
177
   256
178
     4
  0
DIMSTYLE
  2
AM_ISO$6
 70
     0
  3

  4
"
  5

  6

  7

 40
1.0
 41
2.5
 42
1.0
 43
8.0
 44
0.6
 45
0.0
 46
0.0
 47
0.1
 48
0.1
140
2.5
141
0.0
142
0.0
143
0.03937
144
1.0
145
0.0
146
0.71
147
0.8
 71
     0
 72
     0
 73
     0
 74
     0
 75
     0
 76
     0
 77
     0
 78
     8
170
     0
171
     2
172
     1
173
     0
174
     0
175
     0
176
   256
177
   256
178
     4
  0
DIMSTYLE
  2
AM_ISO$7
 70
     0
  3

  4
"
  5

  6

  7

 40
1.0
 41
2.5
 42
1.0
 43
8.0
 44
0.6
 45
0.0
 46
0.0
 47
0.1
 48
0.1
140
2.5
141
0.0
142
0.0
143
0.03937
144
1.0
145
0.0
146
0.71
147
0.8
 71
     0
 72
     0
 73
     0
 74
     0
 75
     0
 76
     0
 77
     1
 78
     8
170
     0
171
     2
172
     1
173
     0
174
     0
175
     0
176
   256
177
   256
178
     4
  0
DIMSTYLE
  2
AM_ISO$SF
 70
     0
  3

  4
"
  5

  6

  7

 40
1.0
 41
2.5
 42
1.0
 43
10.0
 44
1.0
 45
0.0
 46
0.0
 47
0.1
 48
0.1
140
3.5
141
0.0
142
0.0
143
0.03937
144
1.0
145
0.0
146
0.71
147
1.5
 71
     0
 72
     0
 73
     0
 74
     0
 75
     1
 76
     1
 77
     1
 78
     8
170
     0
171
     2
172
     1
173
     0
174
     0
175
     0
176
   256
177
   256
178
     2
  0
DIMSTYLE
  2
AM_ISO$SH
 70
     0
  3

  4
"
  5

  6

  7

 40
1.0
 41
2.5
 42
1.0
 43
10.0
 44
1.0
 45
0.0
 46
0.0
 47
0.1
 48
0.1
140
3.5
141
0.0
142
0.0
143
0.03937
144
2.0
145
0.0
146
0.71
147
1.5
 71
     0
 72
     0
 73
     0
 74
     0
 75
     1
 76
     1
 77
     1
 78
     8
170
     0
171
     2
172
     1
173
     1
174
     0
175
     0
176
   256
177
   256
178
     2
  0
DIMSTYLE
  2
AM_JIS
 70
     0
  3

  4
"
  5

  6

  7

 40
1.0
 41
2.5
 42
1.0
 43
7.0
 44
1.0
 45
0.0
 46
0.0
 47
0.1
 48
0.1
140
2.5
141
0.0
142
0.0
143
0.03937
144
1.0
145
0.0
146
0.71
147
1.0
 71
     0
 72
     0
 73
     0
 74
     0
 75
     0
 76
     0
 77
     3
 78
     8
170
     0
171
     2
172
     1
173
     0
174
     0
175
     0
176
   256
177
   256
178
     4
  0
DIMSTYLE
  2
AM_JIS$3
 70
     0
  3

  4
"
  5

  6

  7

 40
1.0
 41
2.5
 42
1.0
 43
7.0
 44
1.0
 45
0.0
 46
0.0
 47
0.1
 48
0.1
140
2.5
141
0.0
142
0.0
143
0.03937
144
1.0
145
0.0
146
0.71
147
1.0
 71
     0
 72
     0
 73
     0
 74
     1
 75
     0
 76
     0
 77
     3
 78
     8
170
     0
171
     2
172
     0
173
     0
174
     0
175
     0
176
   256
177
   256
178
     4
  0
DIMSTYLE
  2
AM_JIS$4
 70
     0
  3

  4
"
  5

  6

  7

 40
1.0
 41
2.5
 42
1.0
 43
7.0
 44
1.0
 45
0.0
 46
0.0
 47
0.1
 48
0.1
140
2.5
141
0.0
142
0.0
143
0.03937
144
1.0
145
0.0
146
0.71
147
1.0
 71
     0
 72
     0
 73
     0
 74
     0
 75
     0
 76
     0
 77
     3
 78
     8
170
     0
171
     2
172
     0
173
     0
174
     0
175
     0
176
   256
177
   256
178
     4
  0
DIMSTYLE
  2
AM_JIS$6
 70
     0
  3

  4
"
  5

  6

  7

 40
1.0
 41
2.5
 42
1.0
 43
7.0
 44
1.0
 45
0.0
 46
0.0
 47
0.1
 48
0.1
140
2.5
141
0.0
142
0.0
143
0.03937
144
1.0
145
0.0
146
0.71
147
1.0
 71
     0
 72
     0
 73
     0
 74
     0
 75
     0
 76
     0
 77
     0
 78
     8
170
     0
171
     2
172
     1
173
     0
174
     0
175
     0
176
   256
177
   256
178
     4
  0
DIMSTYLE
  2
AM_JIS$7
 70
     0
  3

  4
"
  5

  6

  7

 40
1.0
 41
2.5
 42
1.0
 43
7.0
 44
1.0
 45
0.0
 46
0.0
 47
0.1
 48
0.1
140
2.5
141
0.0
142
0.0
143
0.03937
144
1.0
145
0.0
146
0.71
147
1.0
 71
     0
 72
     0
 73
     0
 74
     0
 75
     0
 76
     0
 77
     3
 78
     8
170
     0
171
     2
172
     1
173
     0
174
     0
175
     0
176
   256
177
   256
178
     4
  0
DIMSTYLE
  2
AM_JIS$SF
 70
     0
  3

  4
"
  5

  6

  7

 40
1.0
 41
2.5
 42
1.0
 43
10.0
 44
1.0
 45
0.0
 46
0.0
 47
0.1
 48
0.1
140
3.5
141
0.0
142
0.0
143
0.03937
144
1.0
145
0.0
146
0.71
147
1.5
 71
     0
 72
     0
 73
     0
 74
     0
 75
     1
 76
     1
 77
     3
 78
     8
170
     0
171
     2
172
     1
173
     0
174
     0
175
     0
176
   256
177
   256
178
     4
  0
DIMSTYLE
  2
AM_JIS$SH
 70
     0
  3

  4
"
  5

  6

  7

 40
1.0
 41
2.5
 42
1.0
 43
10.0
 44
1.0
 45
0.0
 46
0.0
 47
0.1
 48
0.1
140
3.5
141
0.0
142
0.0
143
0.03937
144
1.0
145
0.0
146
0.71
147
1.5
 71
     0
 72
     0
 73
     0
 74
     0
 75
     1
 76
     0
 77
     3
 78
     8
170
     0
171
     2
172
     1
173
     1
174
     0
175
     0
176
   256
177
   256
178
     4
  0
DIMSTYLE
  2
AM_ANSI
 70
     0
  3

  4
mm
  5

  6

  7

 40
1.0
 41
0.1
 42
0.05
 43
0.5
 44
0.1
 45
0.0
 46
0.0
 47
0.1
 48
0.1
140
0.12
141
0.0
142
0.0
143
25.399999999999999
144
1.0
145
0.0
146
0.71
147
0.06
 71
     0
 72
     0
 73
     1
 74
     1
 75
     0
 76
     0
 77
     0
 78
     7
170
     0
171
     2
172
     0
173
     0
174
     0
175
     0
176
   256
177
   256
178
     2
  0
DIMSTYLE
  2
AM_ANSI$3
 70
     0
  3

  4
mm
  5

  6

  7

 40
1.0
 41
0.1
 42
0.05
 43
0.5
 44
0.1
 45
0.0
 46
0.0
 47
0.1
 48
0.1
140
0.12
141
0.0
142
0.0
143
25.399999999999999
144
1.0
145
0.0
146
0.71
147
0.06
 71
     0
 72
     0
 73
     1
 74
     1
 75
     0
 76
     0
 77
     0
 78
     7
170
     0
171
     2
172
     0
173
     0
174
     0
175
     0
176
   256
177
   256
178
     2
  0
DIMSTYLE
  2
AM_ANSI$4
 70
     0
  3

  4
mm
  5

  6

  7

 40
1.0
 41
0.1
 42
0.05
 43
0.5
 44
0.1
 45
0.0
 46
0.0
 47
0.1
 48
0.1
140
0.12
141
0.0
142
0.0
143
25.399999999999999
144
1.0
145
0.0
146
0.71
147
0.06
 71
     0
 72
     0
 73
     1
 74
     1
 75
     0
 76
     0
 77
     0
 78
     7
170
     0
171
     2
172
     0
173
     0
174
     0
175
     0
176
   256
177
   256
178
     2
  0
DIMSTYLE
  2
AM_ANSI$7
 70
     0
  3

  4
mm
  5

  6

  7

 40
1.0
 41
0.1
 42
0.05
 43
0.5
 44
0.1
 45
0.0
 46
0.0
 47
0.1
 48
0.1
140
0.24
141
0.0
142
0.0
143
25.399999999999999
144
1.0
145
0.0
146
0.71
147
0.06
 71
     0
 72
     0
 73
     1
 74
     1
 75
     0
 76
     0
 77
     0
 78
     7
170
     0
171
     2
172
     0
173
     0
174
     0
175
     0
176
   256
177
   256
178
     2
  0
DIMSTYLE
  2
AM_ANSI$SF
 70
     0
  3

  4
mm
  5

  6

  7

 40
1.0
 41
0.1
 42
0.05
 43
0.5
 44
0.1
 45
0.0
 46
0.0
 47
0.1
 48
0.1
140
0.12
141
0.0
142
0.0
143
25.399999999999999
144
1.0
145
0.0
146
0.71
147
0.06
 71
     0
 72
     0
 73
     1
 74
     1
 75
     1
 76
     1
 77
     0
 78
     7
170
     0
171
     2
172
     0
173
     0
174
     0
175
     0
176
   256
177
   256
178
     2
  0
DIMSTYLE
  2
AM_ANSI$SH
 70
     0
  3

  4
mm
  5

  6

  7

 40
1.0
 41
0.1
 42
0.05
 43
0.5
 44
0.1
 45
0.0
 46
0.0
 47
0.1
 48
0.1
140
0.12
141
0.0
142
0.0
143
25.399999999999999
144
1.0
145
0.0
146
0.71
147
0.06
 71
     0
 72
     0
 73
     1
 74
     1
 75
     1
 76
     1
 77
     0
 78
     7
170
     0
171
     2
172
     0
173
     1
174
     0
175
     0
176
   256
177
   256
178
     2
  0
ENDTAB
  0
ENDSEC
  0
SECTION
  2
BLOCKS
  0
BLOCK
  8
0
  2
$MODEL_SPACE
 70
     0
 10
0.0
 20
0.0
 30
0.0
  3
$MODEL_SPACE
  1

  0
ENDBLK
  5
366F
  8
0
  0
BLOCK
 67
     1
  8
0
  2
$PAPER_SPACE
 70
     0
 10
0.0
 20
0.0
 30
0.0
  3
$PAPER_SPACE
  1

  0
ENDBLK
  5
366B
 67
     1
  8
0
  0
BLOCK
  8
0
  2
GENAXEH
 70
     0
 10
0.0
 20
0.0
 30
0.0
  3
GENAXEH
  1

  0
LINE
  5
341F
  8
0
 10
-1.0
 20
0.0
 30
0.0
 11
1.0
 21
0.0
 31
0.0
  0
ENDBLK
  5
3420
  8
0
  0
BLOCK
  8
0
  2
_OPEN30
 70
     0
 10
0.0
 20
0.0
 30
0.0
  3
_OPEN30
  1

  0
LINE
  5
3423
  8
0
 62
     0
 10
-1.0
 20
0.267949
 30
0.0
 11
0.0
 21
0.0
 31
0.0
  0
LINE
  5
3424
  8
0
 62
     0
 10
0.0
 20
0.0
 30
0.0
 11
-1.0
 21
-0.267949
 31
0.0
  0
LINE
  5
3425
  8
0
 62
     0
 10
0.0
 20
0.0
 30
0.0
 11
-1.0
 21
0.0
 31
0.0
  0
ENDBLK
  5
3426
  8
0
  0
BLOCK
  8
0
  2
_NONE
 70
     0
 10
0.0
 20
0.0
 30
0.0
  3
_NONE
  1

  0
ENDBLK
  5
3429
  8
0
  0
BLOCK
  8
0
  2
_ACMFILLEDHALF
 70
     0
 10
0.0
 20
0.0
 30
0.0
  3
_ACMFILLEDHALF
  1

  0
TRACE
  5
3765
  8
AM_0
 62
     0
 10
-0.8
 20
0.0
 30
0.0
 11
-1.0
 21
0.166666666
 31
0.0
 12
0.0
 22
0.0
 32
0.0
 13
0.0
 23
0.0
 33
0.0
  0
LINE
  5
3766
  8
AM_0
 62
     0
 10
-1.0
 20
0.0
 30
0.0
 11
-0.8
 21
0.0
 31
0.0
  0
ENDBLK
  5
3764
  8
0
  0
ENDSEC
  0
SECTION
  2
ENTITIES
  0
LINE
  5
342A
  8
ﾁｭｳｼﾝｾﾝ
 10
233.86990800000001
 20
451.95435800000001
 30
0.0
 11
392.84625799999992
 21
451.95435800000001
 31
0.0
  0
LINE
  5
342B
  8
AM_0
 10
357.48245800000001
 20
470.98019799999992
 30
0.0
 11
357.48245800000001
 21
432.70993799999991
 31
0.0
  0
LINE
  5
342C
  8
AM_0
 10
347.48248799999988
 20
511.45438799999999
 30
0.0
 11
347.48248799999988
 21
392.45435800000001
 31
0.0
  0
LINE
  5
342D
  8
AM_0
 10
352.48245800000001
 20
526.95435799999996
 30
0.0
 11
352.48245800000001
 21
376.95435800000001
 31
0.0
  0
LINE
  5
342E
  8
AM_0
 10
356.48248799999988
 20
521.95438799999977
 30
0.0
 11
356.48248799999988
 21
381.95435800000001
 31
0.0
  0
LINE
  5
342F
  8
AM_0
 10
329.48248799999999
 20
516.18549800000005
 30
0.0
 11
329.48248799999999
 21
387.74075800000003
 31
0.0
  0
LINE
  5
3430
  8
AM_0
 10
273.48245800000001
 20
395.45435800000001
 30
0.0
 11
273.48245800000001
 21
508.45438799999999
 31
0.0
  0
LINE
  5
3431
  8
AM_0
 10
291.48245800000001
 20
394.05981800000001
 30
0.0
 11
291.48245800000001
 21
509.84894800000001
 31
0.0
  0
LINE
  5
3432
  8
AM_0
 10
297.48245799999989
 20
391.95435800000001
 30
0.0
 11
297.48245799999989
 21
511.95438799999999
 31
0.0
  0
LINE
  5
3433
  8
AM_0
 10
334.30798799999991
 20
382.726268
 30
0.0
 11
339.58719799999989
 21
382.54193799999979
 31
0.0
  0
ARC
  5
3434
  8
AM_0
 10
293.48245800000001
 20
394.05981800000001
 30
0.0
 40
2.0
 50
180.00001
 51
268.5
  0
ARC
  5
3435
  8
AM_0
 10
289.48245800000001
 20
403.53442799999999
 30
0.0
 40
2.0
 50
0.0
 51
88.499996999999965
  0
ARC
  5
3436
  8
AM_0
 10
280.48245800000001
 20
403.77008799999999
 30
0.0
 40
2.0
 50
0.0
 51
88.499996999999965
  0
LINE
  5
3437
  8
AM_0
 10
273.48248799999999
 20
405.95407799999981
 30
0.0
 11
289.53482799999972
 21
405.53372799999988
 31
0.0
  0
LINE
  5
3438
  8
AM_0
 10
273.48248799999999
 20
395.45438799999999
 30
0.0
 11
283.47681799999992
 21
395.19266800000003
 31
0.0
  0
ARC
  5
3439
  8
AM_0
 10
284.48245800000001
 20
396.92142799999999
 30
0.0
 40
2.0
 50
180.00001
 51
268.5
  0
LINE
  5
343A
  8
AM_0
 10
284.43011799999999
 20
394.92212799999999
 30
0.0
 11
290.11111799999998
 21
394.77335799999992
 31
0.0
  0
ARC
  5
343B
  8
AM_0
 10
290.07187799999991
 20
393.27386799999988
 30
0.0
 40
1.5
 50
12.976653000000001
 51
88.499996999999965
  0
LINE
  5
343C
  8
AM_0
 10
282.48245799999989
 20
403.77008799999999
 30
0.0
 11
282.48245799999989
 21
396.92142799999999
 31
0.0
  0
LINE
  5
343D
  8
AM_0
 10
273.48245800000001
 20
420.014408
 30
0.0
 11
289.48245800000001
 21
420.014408
 31
0.0
  0
ARC
  5
343E
  8
AM_0
 10
289.48245800000001
 20
418.01440799999989
 30
0.0
 40
2.0
 50
0.0
 51
90.000003000000007
  0
LINE
  5
343F
  8
AM_0
 10
329.48248799999999
 20
391.11639799999989
 30
0.0
 11
293.43014799999992
 21
392.060498
 31
0.0
  0
LINE
  5
3440
  8
AM_0
 10
297.48245799999989
 20
396.42804799999988
 30
0.0
 11
329.48248799999999
 21
396.42804799999988
 31
0.0
  0
ARC
  5
3441
  8
AM_0
 10
334.48245800000001
 20
387.72324800000001
 30
0.0
 40
5.0
 50
179.99998999999991
 51
268.00000999999992
  0
LINE
  5
3442
  8
AM_0
 10
342.48245800000001
 20
379.23495800000001
 30
0.0
 11
342.48245800000001
 21
411.51398799999998
 31
0.0
  0
LINE
  5
3443
  8
AM_0
 10
344.41269799999998
 20
377.23615799999999
 30
0.0
 11
352.48245800000001
 21
376.95435800000001
 31
0.0
  0
ARC
  5
3444
  8
AM_0
 10
344.48248799999999
 20
379.23495800000001
 30
0.0
 40
2.0
 50
179.99998999999991
 51
268.00000999999992
  0
ARC
  5
3445
  8
AM_0
 10
339.48245800000001
 20
379.543768
 30
0.0
 40
3.0
 50
0.0
 51
88.0
  0
LINE
  5
3446
  8
AM_0
 10
352.48245800000001
 20
381.95435800000001
 30
0.0
 11
356.48248799999988
 21
381.95435800000001
 31
0.0
  0
ARC
  5
3447
  8
AM_0
 10
344.48248799999999
 20
392.45435800000001
 30
0.0
 40
3.0
 50
270.0
 51
0.0
  0
ARC
  5
3448
  8
AM_0
 10
344.48248799999999
 20
411.51398799999998
 30
0.0
 40
2.0
 50
88.485352999999989
 51
180.00001
  0
ARC
  5
3449
  8
AM_0
 10
355.48245800000001
 20
432.85565799999989
 30
0.0
 40
2.0
 50
315.0
 51
0.0
  0
LINE
  5
344A
  8
AM_0
 10
356.48248799999988
 20
431.027198
 30
0.0
 11
356.89670799999999
 21
431.44141799999989
 31
0.0
  0
LINE
  5
344B
  8
AM_0
 10
334.30798799999991
 20
521.18246799999986
 30
0.0
 11
339.58716800000002
 21
521.36682800000005
 31
0.0
  0
LINE
  5
344C
  8
AM_0
 10
293.43011799999982
 20
511.84827799999988
 30
0.0
 11
329.48248799999999
 21
512.79233799999986
 31
0.0
  0
ARC
  5
344D
  8
AM_0
 10
293.48245800000001
 20
509.84894800000001
 30
0.0
 40
2.0
 50
91.500000999999969
 51
180.00001
  0
LINE
  5
344E
  8
AM_0
 10
273.48245800000001
 20
483.89429799999988
 30
0.0
 11
289.48245800000001
 21
483.89429799999988
 31
0.0
  0
ARC
  5
344F
  8
AM_0
 10
289.48245800000001
 20
485.89429800000011
 30
0.0
 40
2.0
 50
270.0
 51
0.0
  0
ARC
  5
3450
  8
AM_0
 10
280.48245800000001
 20
500.13867800000003
 30
0.0
 40
2.0
 50
271.49999999999972
 51
0.0
  0
LINE
  5
3451
  8
AM_0
 10
273.48245800000001
 20
497.95468799999998
 30
0.0
 11
289.53482799999972
 21
498.37500799999998
 31
0.0
  0
LINE
  5
3452
  8
AM_0
 10
273.48248799999999
 20
508.45438799999999
 30
0.0
 11
283.47681799999992
 21
508.71606799999989
 31
0.0
  0
LINE
  5
3453
  8
AM_0
 10
282.48245799999989
 20
500.13867800000003
 30
0.0
 11
282.48245799999989
 21
506.98730799999993
 31
0.0
  0
ARC
  5
3454
  8
AM_0
 10
289.48245800000001
 20
500.37433799999991
 30
0.0
 40
2.0
 50
271.49999999999972
 51
0.0
  0
LINE
  5
3455
  8
AM_0
 10
284.43011799999999
 20
508.98663800000003
 30
0.0
 11
290.11114800000001
 21
509.13541799999967
 31
0.0
  0
ARC
  5
3456
  8
AM_0
 10
284.48245800000001
 20
506.98730799999993
 30
0.0
 40
2.0
 50
91.500000999999969
 51
180.00001
  0
ARC
  5
3457
  8
AM_0
 10
290.07187799999991
 20
510.63489799999991
 30
0.0
 40
1.5
 50
271.49999999999972
 51
347.02334999999982
  0
LINE
  5
3458
  8
AM_0
 10
297.48245799999989
 20
507.48071799999991
 30
0.0
 11
329.48248799999999
 21
507.48071799999991
 31
0.0
  0
ARC
  5
3459
  8
AM_0
 10
334.48245800000001
 20
516.18549800000005
 30
0.0
 40
5.0
 50
91.999998000000005
 51
180.00001
  0
ARC
  5
345A
  8
AM_0
 10
344.48248799999999
 20
511.45438799999999
 30
0.0
 40
3.0
 50
0.0
 51
90.000003000000007
  0
LINE
  5
345B
  8
AM_0
 10
342.48245800000001
 20
524.67377799999997
 30
0.0
 11
342.48245800000001
 21
492.39474799999988
 31
0.0
  0
LINE
  5
345C
  8
AM_0
 10
365.48245800000001
 20
454.95435799999979
 30
0.0
 11
387.48245800000001
 21
454.95435799999979
 31
0.0
  0
LINE
  5
345D
  8
AM_0
 10
365.48245800000001
 20
448.95435800000001
 30
0.0
 11
387.48245800000001
 21
448.95435800000001
 31
0.0
  0
LINE
  5
345E
  8
AM_0
 10
359.48245800000001
 20
461.45438799999999
 30
0.0
 11
387.48245800000001
 21
461.45438799999999
 31
0.0
  0
LINE
  5
345F
  8
AM_0
 10
359.48245800000001
 20
442.45438799999988
 30
0.0
 11
387.48245800000001
 21
442.45438799999988
 31
0.0
  0
ARC
  5
3460
  8
AM_0
 10
365.48245800000001
 20
451.95435800000001
 30
0.0
 40
3.0
 50
89.986013999999983
 51
270.01398999999992
  0
LINE
  5
3461
  8
AM_0
 10
359.48245800000001
 20
441.95438799999988
 30
0.0
 11
359.48245800000001
 21
461.95438799999999
 31
0.0
  0
LINE
  5
3462
  8
AM_0
 10
357.48245800000001
 20
441.95438799999988
 30
0.0
 11
359.48245800000001
 21
441.95438799999988
 31
0.0
  0
LINE
  5
3463
  8
AM_0
 10
357.48245800000001
 20
461.95438799999999
 30
0.0
 11
359.48245800000001
 21
461.95438799999999
 31
0.0
  0
LINE
  5
3464
  8
AM_0
 10
356.48248799999988
 20
472.881508
 30
0.0
 11
356.89667799999978
 21
472.46732800000001
 31
0.0
  0
ARC
  5
3465
  8
AM_0
 10
355.48245800000001
 20
471.05307800000003
 30
0.0
 40
2.0
 50
0.0
 51
45.00000099999999
  0
LINE
  5
3466
  8
AM_0
 10
365.48245800000001
 20
448.95435800000001
 30
0.0
 11
365.48245800000001
 21
454.95435799999979
 31
0.0
  0
ARC
  5
3467
  8
AM_0
 10
344.48248799999999
 20
492.39474799999988
 30
0.0
 40
2.0
 50
179.99998999999991
 51
271.51463999999999
  0
LINE
  5
3468
  8
AM_0
 10
387.48245800000001
 20
442.45438799999988
 30
0.0
 11
387.48245800000001
 21
461.45438799999999
 31
0.0
  0
LINE
  5
3469
  8
AM_0
 10
344.412668
 20
526.67258800000002
 30
0.0
 11
352.48245800000001
 21
526.95438799999965
 31
0.0
  0
ARC
  5
346A
  8
AM_0
 10
339.48245800000001
 20
524.36496799999986
 30
0.0
 40
3.0
 50
272.0
 51
0.0
  0
ARC
  5
346B
  8
AM_0
 10
344.48248799999999
 20
524.67377799999997
 30
0.0
 40
2.0
 50
91.999998000000005
 51
180.00001
  0
LINE
  5
346C
  8
AM_0
 10
352.48245800000001
 20
521.95438799999977
 30
0.0
 11
356.48248799999988
 21
521.95438799999977
 31
0.0
  0
LINE
  5
346E
  8
AM_0
 10
359.48243799999977
 20
256.37936500000001
 30
0.0
 11
387.48245800000001
 21
256.37936500000001
 31
0.0
  0
LINE
  5
346F
  8
AM_0
 10
359.48243799999977
 20
237.379366
 30
0.0
 11
387.48245800000001
 21
237.379366
 31
0.0
  0
LINE
  5
3470
  8
ﾁｭｳｼﾝｾﾝ
 10
286.133038
 20
246.87936400000001
 30
0.0
 11
389.21594800000008
 21
246.87936400000001
 31
0.0
  0
LINE
  5
3471
  8
AM_0
 10
357.48245800000001
 20
265.905214
 30
0.0
 11
357.48245800000001
 21
227.6349339999999
 31
0.0
  0
LINE
  5
3472
  8
AM_0
 10
329.48246799999998
 20
311.11047100000002
 30
0.0
 11
329.48246799999998
 21
205.144057
 31
0.0
  0
LINE
  5
3473
  8
AM_0
 10
352.48241799999983
 20
321.8793609999999
 30
0.0
 11
352.48241799999983
 21
176.975539
 31
0.0
  0
LINE
  5
3474
  8
AM_0
 10
347.48246799999993
 20
306.37938100000002
 30
0.0
 11
347.48246799999993
 21
192.26405199999999
 31
0.0
  0
LINE
  5
3475
  8
AM_0
 10
273.48245800000001
 20
286.379366
 30
0.0
 11
273.48245800000001
 21
173.379366
 31
0.0
  0
LINE
  5
3476
  8
AM_0
 10
291.48245800000001
 20
269.75299299999989
 30
0.0
 11
291.48245800000001
 21
229.879366
 31
0.0
  0
LINE
  5
3477
  8
AM_0
 10
297.48245799999989
 20
289.87936599999989
 30
0.0
 11
297.48245799999989
 21
165.0654429999999
 31
0.0
  0
LINE
  5
3478
  8
0
 10
252.48245800000001
 20
307.879366
 30
0.0
 11
252.48245800000001
 21
151.879366
 31
0.0
1001
GENIUS_GENOREF_13
1005
2E2C
  0
LINE
  5
3479
  8
0
 10
242.48245800000001
 20
149.879366
 30
0.0
 11
242.48245800000001
 21
309.879366
 31
0.0
1001
GENIUS_GENOREF_13
1005
2E2C
  0
LINE
  5
347A
  8
AM_0
 10
285.48245800000001
 20
273.879367
 30
0.0
 11
285.48245800000001
 21
255.6620799999998
 31
0.0
  0
LINE
  5
347B
  8
AM_0
 10
356.48246799999998
 20
316.87938100000002
 30
0.0
 11
356.48246799999998
 21
246.87936400000001
 31
0.0
  0
ARC
  5
347C
  8
AM_0
 10
289.48244799999998
 20
179.087479
 30
0.0
 40
2.0
 50
270.0
 51
0.0
  0
ARC
  5
347D
  8
AM_0
 10
283.48244799999992
 20
177.50894199999999
 30
0.0
 40
2.0
 50
0.0
 51
90.000003000000007
  0
LINE
  5
347E
  8
AM_0
 10
333.48245800000001
 20
180.07813899999999
 30
0.0
 11
333.48245800000001
 21
163.87934799999991
 31
0.0
  0
ARC
  5
347F
  8
AM_0
 10
344.48246799999993
 20
179.25613300000001
 30
0.0
 40
2.0
 50
179.99998999999991
 51
268.00000999999992
  0
LINE
  5
3480
  8
AM_0
 10
286.943218
 20
165.341431
 30
0.0
 11
297.48245799999989
 21
165.0654429999999
 31
0.0
  0
LINE
  5
3481
  8
AM_0
 10
291.48245800000001
 20
177.08747799999981
 30
0.0
 11
297.48245799999989
 21
177.08747799999981
 31
0.0
  0
LINE
  5
3482
  8
0
 10
254.41265899999991
 20
172.71343400000001
 30
0.0
 11
273.48245800000001
 21
173.379366
 31
0.0
  0
LINE
  5
3483
  8
0
 10
242.48245800000001
 20
149.879366
 30
0.0
 11
250.48245800000001
 21
149.879366
 31
0.0
  0
ARC
  5
3484
  8
0
 10
250.48245800000001
 20
151.879366
 30
0.0
 40
2.0
 50
270.0
 51
0.0
1001
GENIUS_GENOBJ-N-FIL_13
1002
{
1000
OWNER
1000
GEN
1002
}
1001
GENIUS_GENODEF_13
1002
{
1000
HIER
1070
     0
1002
}
1002
{
1000
MANEDIT
1070
     0
1002
}
1002
{
1000
NOSEL
1070
     0
1002
}
1002
{
1000
BEHIND
1070
     0
1002
}
1002
{
1000
OTHER
1070
     0
1002
}
1002
{
1000
REACTOR
1002
}
  0
ARC
  5
3485
  8
0
 10
254.48245800000001
 20
170.714652
 30
0.0
 40
2.0
 50
91.999999999999986
 51
180.0
1001
GENIUS_GENOBJ-N-FIL_13
1002
{
1000
OWNER
1000
GEN
1002
}
1001
GENIUS_GENODEF_13
1002
{
1000
HIER
1070
     0
1002
}
1002
{
1000
MANEDIT
1070
     0
1002
}
1002
{
1000
NOSEL
1070
     0
1002
}
1002
{
1000
BEHIND
1070
     0
1002
}
1002
{
1000
OTHER
1070
     0
1002
}
1002
{
1000
REACTOR
1002
}
  0
LINE
  5
3486
  8
AM_0
 10
273.48239799999988
 20
173.879347
 30
0.0
 11
284.02169800000001
 21
173.60337699999991
 31
0.0
  0
LINE
  5
3487
  8
AM_0
 10
285.48245800000001
 20
177.50894199999999
 30
0.0
 11
285.48245800000001
 21
166.8409119999998
 31
0.0
  0
ARC
  5
3488
  8
AM_0
 10
286.98245799999989
 20
166.8409119999998
 30
0.0
 40
1.5
 50
179.99998999999991
 51
268.50000999999992
  0
ARC
  5
3489
  8
AM_0
 10
283.98245800000001
 20
172.10389599999999
 30
0.0
 40
1.5
 50
0.0
 51
88.499996999999965
  0
LINE
  5
348A
  8
AM_0
 10
297.48245799999989
 20
177.098725
 30
0.0
 11
333.48245800000001
 21
177.098725
 31
0.0
  0
LINE
  5
348B
  8
AM_0
 10
297.48245799999989
 20
165.0654429999999
 30
0.0
 11
333.48248799999982
 21
163.80828700000001
 31
0.0
  0
LINE
  5
348C
  8
AM_0
 10
344.412688
 20
177.25733799999981
 30
0.0
 11
352.48241799999983
 21
176.975539
 31
0.0
  0
ARC
  5
348D
  8
AM_0
 10
334.93703799999992
 20
167.36242599999991
 30
0.0
 40
2.5454059999999981
 50
325.61556999999982
 51
34.384439
  0
LINE
  5
348E
  8
AM_0
 10
337.037668
 20
165.92493999999999
 30
0.0
 11
333.48245800000001
 21
165.92493999999999
 31
0.0
  0
LINE
  5
348F
  8
AM_0
 10
337.037668
 20
174.549958
 30
0.0
 11
333.48245800000001
 21
174.549958
 31
0.0
  0
LINE
  5
3490
  8
AM_0
 10
337.037668
 20
168.79994199999979
 30
0.0
 11
333.48245800000001
 21
168.79994199999979
 31
0.0
  0
LINE
  5
3491
  8
AM_0
 10
337.037668
 20
177.4249419999999
 30
0.0
 11
333.48245800000001
 21
177.4249419999999
 31
0.0
  0
ARC
  5
3492
  8
AM_0
 10
334.93703799999992
 20
175.9874409999999
 30
0.0
 40
2.5454059999999981
 50
325.61556999999982
 51
34.384439
  0
ARC
  5
3493
  8
AM_0
 10
327.96794799999992
 20
171.67494099999999
 30
0.0
 40
9.5144920000000006
 50
342.41196000000002
 51
17.588032999999999
  0
LINE
  5
3494
  8
AM_0
 10
337.482418
 20
175.9874409999999
 30
0.0
 11
337.482418
 21
167.36242599999991
 31
0.0
  0
LINE
  5
3495
  8
ﾁｭｳｼﾝｾﾝ
 10
233.86990800000001
 20
229.879366
 30
0.0
 11
295.44602799999973
 21
229.879366
 31
0.0
  0
LINE
  5
3496
  8
AM_0
 10
291.48245800000001
 20
179.087479
 30
0.0
 11
291.48245800000001
 21
229.879366
 31
0.0
  0
LINE
  5
3497
  8
AM_0
 10
273.48245800000001
 20
197.941924
 30
0.0
 11
252.48245800000001
 21
197.941924
 31
0.0
  0
LINE
  5
3498
  8
AM_0
 10
273.48245800000001
 20
183.87934899999999
 30
0.0
 11
252.48245800000001
 21
183.87934899999999
 31
0.0
  0
LINE
  5
3499
  8
AM_0
 10
273.48245800000001
 20
183.87934899999999
 30
0.0
 11
291.48245800000001
 21
183.87934899999999
 31
0.0
  0
LINE
  5
349A
  8
AM_0
 10
273.48245800000001
 20
197.941924
 30
0.0
 11
291.48245800000001
 21
197.941924
 31
0.0
  0
LINE
  5
349B
  8
AM_0
 10
285.48245800000001
 20
179.5089549999999
 30
0.0
 11
291.48245800000001
 21
179.5089549999999
 31
0.0
  0
LINE
  5
349C
  8
AM_0
 10
273.48245800000001
 20
261.81680499999987
 30
0.0
 11
252.48245800000001
 21
261.81680499999987
 31
0.0
  0
LINE
  5
349D
  8
AM_0
 10
273.48245800000001
 20
261.81680499999987
 30
0.0
 11
285.48245800000001
 21
261.81680499999987
 31
0.0
  0
LINE
  5
349E
  8
AM_0
 10
285.48245800000001
 20
255.6620799999998
 30
0.0
 11
291.48245800000001
 21
255.6620799999998
 31
0.0
  0
LINE
  5
349F
  8
AM_0
 10
356.48246799999998
 20
246.87936400000001
 30
0.0
 11
356.48246799999998
 21
181.379347
 31
0.0
  0
ARC
  5
34A0
  8
AM_0
 10
334.48241799999983
 20
205.144057
 30
0.0
 40
5.0
 50
179.99998999999991
 51
270.0
  0
LINE
  5
34A1
  8
AM_0
 10
342.48245800000001
 20
179.25613300000001
 30
0.0
 11
342.48245800000001
 21
206.34435999999991
 31
0.0
  0
LINE
  5
34A2
  8
AM_0
 10
334.45625799999982
 20
180.8025669999999
 30
0.0
 11
342.48245800000001
 21
181.01274099999981
 31
0.0
  0
ARC
  5
34A3
  8
AM_0
 10
334.48241799999983
 20
179.8029309999998
 30
0.0
 40
1.0
 50
91.500000999999969
 51
180.00001
  0
LINE
  5
34A4
  8
AM_0
 10
352.48244799999992
 20
181.2745959999998
 30
0.0
 11
356.48246799999998
 21
181.379347
 31
0.0
  0
ARC
  5
34A5
  8
AM_0
 10
345.48245800000001
 20
192.26405199999999
 30
0.0
 40
2.0
 50
268.0
 51
0.0
  0
LINE
  5
34A6
  8
AM_0
 10
334.48241799999983
 20
200.14407399999999
 30
0.0
 11
342.48245800000001
 21
200.14407399999999
 31
0.0
  0
ARC
  5
34A7
  8
AM_0
 10
344.48246799999993
 20
206.34435999999991
 30
0.0
 40
2.0
 50
90.000003000000007
 51
180.00001
  0
LINE
  5
34A8
  8
AM_0
 10
359.48243799999977
 20
236.87937999999991
 30
0.0
 11
359.48243799999977
 21
246.87936400000001
 31
0.0
  0
ARC
  5
34A9
  8
AM_0
 10
355.482418
 20
227.6349339999999
 30
0.0
 40
2.0
 50
315.0
 51
0.0
  0
LINE
  5
34AA
  8
AM_0
 10
356.48246799999998
 20
225.80647300000001
 30
0.0
 11
356.89667799999978
 21
226.22068899999991
 31
0.0
  0
LINE
  5
34AB
  8
AM_0
 10
357.48245800000001
 20
236.87937999999991
 30
0.0
 11
359.48243799999977
 21
236.87937999999991
 31
0.0
  0
LINE
  5
34AC
  8
AM_0
 10
359.48243799999977
 20
256.879366
 30
0.0
 11
359.48243799999977
 21
246.87936400000001
 31
0.0
  0
LINE
  5
34AD
  8
AM_0
 10
357.48245800000001
 20
256.879366
 30
0.0
 11
359.48243799999977
 21
256.879366
 31
0.0
  0
LINE
  5
34AE
  8
AM_0
 10
292.943218
 20
289.76052999999968
 30
0.0
 11
297.48245799999989
 21
289.87936599999989
 31
0.0
  0
LINE
  5
34AF
  8
AM_0
 10
285.48245800000001
 20
272.48620899999992
 30
0.0
 11
297.48245799999989
 21
272.48620899999992
 31
0.0
  0
ARC
  5
34B0
  8
0
 10
250.48245800000001
 20
307.879366
 30
0.0
 40
2.0
 50
0.0
 51
90.0
1001
GENIUS_GENOBJ-N-FIL_13
1002
{
1000
OWNER
1000
GEN
1002
}
1001
GENIUS_GENODEF_13
1002
{
1000
HIER
1070
     0
1002
}
1002
{
1000
MANEDIT
1070
     0
1002
}
1002
{
1000
NOSEL
1070
     0
1002
}
1002
{
1000
BEHIND
1070
     0
1002
}
1002
{
1000
OTHER
1070
     0
1002
}
1002
{
1000
REACTOR
1002
}
  0
LINE
  5
34B1
  8
AM_0
 10
273.48245800000001
 20
275.87936500000001
 30
0.0
 11
252.48245800000001
 21
275.87936500000001
 31
0.0
  0
LINE
  5
34B2
  8
0
 10
254.41265899999991
 20
287.04529799999989
 30
0.0
 11
273.48245800000001
 21
286.379366
 31
0.0
  0
ARC
  5
34B3
  8
0
 10
254.48245800000001
 20
289.04408000000001
 30
0.0
 40
2.0
 50
180.0
 51
268.0
1001
GENIUS_GENOBJ-N-FIL_13
1002
{
1000
OWNER
1000
GEN
1002
}
1001
GENIUS_GENODEF_13
1002
{
1000
HIER
1070
     0
1002
}
1002
{
1000
MANEDIT
1070
     0
1002
}
1002
{
1000
NOSEL
1070
     0
1002
}
1002
{
1000
BEHIND
1070
     0
1002
}
1002
{
1000
OTHER
1070
     0
1002
}
1002
{
1000
REACTOR
1002
}
  0
LINE
  5
34B4
  8
AM_0
 10
291.48245800000001
 20
288.26101899999992
 30
0.0
 11
291.48245800000001
 21
273.879367
 31
0.0
  0
ARC
  5
34B5
  8
AM_0
 10
289.98245800000001
 20
287.81195200000002
 30
0.0
 40
1.5
 50
271.49999999999972
 51
0.0
  0
LINE
  5
34B6
  8
AM_0
 10
273.48245800000001
 20
275.87936500000001
 30
0.0
 11
291.48245800000001
 21
275.87936500000001
 31
0.0
  0
LINE
  5
34B7
  8
AM_0
 10
273.48245800000001
 20
285.879367
 30
0.0
 11
290.02169800000001
 21
286.31247100000002
 31
0.0
  0
LINE
  5
34B8
  8
AM_0
 10
285.48245800000001
 20
273.879367
 30
0.0
 11
291.48245800000001
 21
273.879367
 31
0.0
  0
ARC
  5
34B9
  8
AM_0
 10
292.98245800000001
 20
288.26101899999992
 30
0.0
 40
1.5
 50
91.500000999999969
 51
180.00001
  0
LINE
  5
34BA
  8
0
 10
242.48245800000001
 20
309.879366
 30
0.0
 11
250.48245800000001
 21
309.879366
 31
0.0
  0
ARC
  5
34BB
  8
AM_0
 10
344.48246799999993
 20
306.37938100000002
 30
0.0
 40
3.0
 50
0.0
 51
90.000003000000007
  0
LINE
  5
34BC
  8
AM_0
 10
342.48245800000001
 20
319.59879099999989
 30
0.0
 11
342.48245800000001
 21
287.31973599999992
 31
0.0
  0
ARC
  5
34BD
  8
AM_0
 10
326.48246799999993
 20
293.63977299999988
 30
0.0
 40
3.0
 50
271.49999999999972
 51
0.0
  0
LINE
  5
34BE
  8
AM_0
 10
297.48245799999989
 20
272.48620899999992
 30
0.0
 11
327.67847799999993
 21
272.48620899999992
 31
0.0
  0
LINE
  5
34BF
  8
AM_0
 10
297.48245799999989
 20
289.87936599999989
 30
0.0
 11
326.56097799999992
 21
290.64081099999999
 31
0.0
  0
ARC
  5
34C0
  8
AM_0
 10
344.48246799999993
 20
287.31973599999992
 30
0.0
 40
2.0
 50
179.99998999999991
 51
271.51463999999999
  0
ARC
  5
34C1
  8
AM_0
 10
355.482418
 20
265.97806000000003
 30
0.0
 40
2.0
 50
0.0
 51
45.00000099999999
  0
LINE
  5
34C2
  8
AM_0
 10
356.48246799999998
 20
267.80652099999992
 30
0.0
 11
356.89667799999978
 21
267.39227499999998
 31
0.0
  0
LINE
  5
34C3
  8
AM_0
 10
344.41265800000002
 20
321.59757100000002
 30
0.0
 11
352.48244799999992
 21
321.8793609999999
 31
0.0
  0
ARC
  5
34C4
  8
AM_0
 10
339.48245800000001
 20
319.28997099999992
 30
0.0
 40
3.0
 50
272.0
 51
0.0
  0
LINE
  5
34C5
  8
AM_0
 10
334.307998
 20
316.10745099999991
 30
0.0
 11
339.58715799999999
 21
316.29180099999979
 31
0.0
  0
ARC
  5
34C6
  8
AM_0
 10
334.48241799999983
 20
311.11047100000002
 30
0.0
 40
5.0
 50
91.999998000000005
 51
180.00001
  0
ARC
  5
34C7
  8
AM_0
 10
344.48246799999993
 20
319.59879099999989
 30
0.0
 40
2.0
 50
91.999998000000005
 51
180.00001
  0
LINE
  5
34C8
  8
AM_0
 10
352.48241799999983
 20
316.87938100000002
 30
0.0
 11
356.48246799999998
 21
316.87938100000002
 31
0.0
  0
ARC
  5
34C9
  8
AM_0
 10
542.36793599999999
 20
246.87936400000001
 30
0.0
 40
20.000001000000001
 50
90.000003000000007
 51
270.0
  0
ARC
  5
34CA
  8
AM_0
 10
542.36793599999999
 20
246.87936400000001
 30
0.0
 40
20.000001000000001
 50
90.000003000000007
 51
270.0
  0
ARC
  5
34CB
  8
AM_0
 10
542.36793599999999
 20
246.87936400000001
 30
0.0
 40
20.000001000000001
 50
270.0
 51
90.000003000000007
  0
ARC
  5
34CC
  8
AM_0
 10
542.36793599999999
 20
246.87936400000001
 30
0.0
 40
20.000001000000001
 50
270.0
 51
90.000003000000007
  0
ARC
  5
34CD
  8
AM_0
 10
542.36793599999999
 20
246.87936400000001
 30
0.0
 40
30.0
 50
17.592213999999991
 51
225.8260299999998
  0
ARC
  5
34CE
  8
AM_0
 10
542.36793599999999
 20
246.87936400000001
 30
0.0
 40
70.000001999999995
 50
290.65615000000008
 51
249.3438399999998
  0
ARC
  5
34CF
  8
AM_0
 10
542.36793599999999
 20
246.87936400000001
 30
0.0
 40
66.000003000000007
 50
291.2799599999999
 51
248.72002999999989
  0
LINE
  5
34D0
  8
ﾁｭｳｼﾝｾﾝ
 10
542.36793599999999
 20
148.08481599999979
 30
0.0
 11
542.36793599999999
 21
326.31975299999982
 31
0.0
  0
LINE
  5
34D1
  8
AM_0
 10
592.34920199999999
 20
262.45782700000001
 30
0.0
 11
597.3492
 21
265.344607
 31
0.0
  0
CIRCLE
  5
34D2
  8
AM_0
 10
592.34918700000003
 20
268.23132399999992
 30
0.0
 40
5.0
  0
LINE
  5
34D3
  8
AM_0
 10
492.38666999999992
 20
262.45782700000001
 30
0.0
 11
497.38667999999973
 21
265.34457700000002
 31
0.0
  0
CIRCLE
  5
34D4
  8
AM_0
 10
492.38666999999992
 20
268.23132399999992
 30
0.0
 40
5.0
  0
LINE
  5
34D5
  8
AM_0
 10
487.38665999999989
 20
265.34457700000002
 30
0.0
 11
492.38666999999992
 21
262.45782700000001
 31
0.0
  0
LINE
  5
34D6
  8
AM_0
 10
467.36792999999989
 20
246.87936400000001
 30
0.0
 11
467.36792999999989
 21
266.87933500000003
 31
0.0
  0
ARC
  5
34D7
  8
AM_0
 10
542.36793599999999
 20
246.87936400000001
 30
0.0
 40
44.000000999999983
 50
137.54731999999979
 51
174.50581
  0
ARC
  5
34D8
  8
AM_0
 10
515.76725999999985
 20
266.40893799999992
 30
0.0
 40
3.0
 50
323.71474000000001
 51
45.00000099999999
  0
LINE
  5
34D9
  8
AM_0
 10
587.34920099999965
 20
265.34457700000002
 30
0.0
 11
592.34918700000003
 21
262.45782700000001
 31
0.0
  0
ARC
  5
34DA
  8
AM_0
 10
542.36793599999999
 20
246.87936400000001
 30
0.0
 40
44.000000999999983
 50
19.999998999999981
 51
42.452682000000003
  0
ARC
  5
34DB
  8
AM_0
 10
568.96860000000004
 20
266.40893799999992
 30
0.0
 40
3.0
 50
135.0
 51
216.28525999999991
  0
LINE
  5
34DC
  8
AM_0
 10
617.36793899999998
 20
246.87936400000001
 30
0.0
 11
617.36793899999998
 21
266.87933500000003
 31
0.0
  0
LINE
  5
34DD
  8
AM_0
 10
591.20308199999999
 20
241.3532889999999
 30
0.0
 11
600.22728300000006
 21
216.55948000000001
 31
0.0
  0
LINE
  5
34DE
  8
AM_0
 10
580.86687000000006
 20
175.87934799999999
 30
0.0
 11
603.74270999999999
 21
175.87934799999999
 31
0.0
  0
ARC
  5
34DF
  8
AM_0
 10
542.36793599999999
 20
229.879366
 30
0.0
 40
80.0
 50
222.45416800000001
 51
317.5458319999999
  0
LINE
  5
34E0
  8
AM_0
 10
605.20700399999998
 20
248.37936400000001
 30
0.0
 11
590.74643400000002
 21
248.37936400000001
 31
0.0
  0
LINE
  5
34E1
  8
AM_0
 10
605.20700399999998
 20
245.37936400000001
 30
0.0
 11
594.0221429999998
 21
245.37936400000001
 31
0.0
  0
LINE
  5
34E2
  8
ﾁｭｳｼﾝｾﾝ
 10
465.92990999999989
 20
246.87936400000001
 30
0.0
 11
621.09836700000005
 21
246.87936400000001
 31
0.0
  0
ARC
  5
34E3
  8
AM_0
 10
542.36793599999999
 20
229.879366
 30
0.0
 40
80.0
 50
159.63587799999991
 51
205.41333299999991
  0
LINE
  5
34E4
  8
AM_0
 10
387.48245800000001
 20
237.379366
 30
0.0
 11
387.48245800000001
 21
258.87936599999989
 31
0.0
  0
LINE
  5
34E5
  8
AM_0
 10
365.48243799999989
 20
258.87936599999989
 30
0.0
 11
387.48245800000001
 21
258.87936599999989
 31
0.0
  0
LINE
  5
34E6
  8
AM_0
 10
365.48243799999989
 20
256.37936500000001
 30
0.0
 11
365.48243799999989
 21
258.87936599999989
 31
0.0
  0
ARC
  5
34E7
  8
AM_0
 10
480.99315000000001
 20
185.87934699999991
 30
0.0
 40
10.0
 50
184.99999
 51
270.0
  0
LINE
  5
34E8
  8
AM_0
 10
503.86900499999967
 20
175.87934799999999
 30
0.0
 11
507.04441799999989
 21
181.379347
 31
0.0
  0
ARC
  5
34E9
  8
AM_0
 10
506.86262699999997
 20
175.43330199999991
 30
0.0
 40
5.0
 50
341.74801999999988
 51
56.890858999999999
  0
LINE
  5
34EA
  8
AM_0
 10
580.86687000000006
 20
175.879333
 30
0.0
 11
577.69143899999995
 21
181.37933200000001
 31
0.0
  0
ARC
  5
34EB
  8
AM_0
 10
577.87324799999999
 20
175.43330199999991
 30
0.0
 40
5.0
 50
123.10912999999989
 51
198.25198
  0
LINE
  5
34EC
  8
AM_0
 10
518.25886800000001
 20
164.6749419999999
 30
0.0
 11
566.476992
 21
164.6749419999999
 31
0.0
  0
LINE
  5
34ED
  8
AM_0
 10
503.86900499999967
 20
175.87934799999999
 30
0.0
 11
480.99315000000001
 21
175.87934799999999
 31
0.0
  0
ARC
  5
34EE
  8
AM_0
 10
518.25886800000001
 20
171.674926
 30
0.0
 40
7.0000009999999993
 50
161.74801999999991
 51
270.0
  0
LINE
  5
34EF
  8
AM_0
 10
518.25886800000001
 20
165.90147400000001
 30
0.0
 11
523.25886600000001
 21
168.78822099999991
 31
0.0
  0
LINE
  5
34F0
  8
AM_0
 10
513.25889699999993
 20
168.7881909999999
 30
0.0
 11
518.25889800000004
 21
165.90144100000001
 31
0.0
  0
CIRCLE
  5
34F1
  8
AM_0
 10
518.25886800000001
 20
171.67495600000001
 30
0.0
 40
5.0
  0
LINE
  5
34F2
  8
AM_0
 10
523.25886600000001
 20
174.561691
 30
0.0
 11
518.25889800000004
 21
177.448441
 31
0.0
  0
LINE
  5
34F3
  8
AM_0
 10
518.25886800000001
 20
177.44845599999991
 30
0.0
 11
513.25886700000001
 21
174.5617059999999
 31
0.0
  0
LINE
  5
34F4
  8
AM_0
 10
513.25889699999993
 20
174.5617059999999
 30
0.0
 11
513.25889699999993
 21
168.78817599999991
 31
0.0
  0
LINE
  5
34F5
  8
AM_0
 10
523.25886600000001
 20
168.78817599999991
 30
0.0
 11
523.25886600000001
 21
174.5617059999999
 31
0.0
  0
LINE
  5
34F6
  8
AM_0
 10
566.476992
 20
177.4484709999999
 30
0.0
 11
561.47697599999992
 21
174.56172099999981
 31
0.0
  0
LINE
  5
34F7
  8
AM_0
 10
561.47700899999995
 20
168.78817599999991
 30
0.0
 11
566.476992
 21
165.90142599999999
 31
0.0
  0
CIRCLE
  5
34F8
  8
AM_0
 10
566.476992
 20
171.67495600000001
 30
0.0
 40
5.0
  0
LINE
  5
34F9
  8
AM_0
 10
561.47697599999992
 20
174.5617059999999
 30
0.0
 11
561.47697599999992
 21
168.78817599999991
 31
0.0
  0
LINE
  5
34FA
  8
AM_0
 10
566.476992
 20
165.9014589999999
 30
0.0
 11
571.47699299999999
 21
168.7882059999998
 31
0.0
  0
ARC
  5
34FB
  8
AM_0
 10
566.476992
 20
171.674926
 30
0.0
 40
7.0000009999999993
 50
270.0
 51
18.251978000000001
  0
LINE
  5
34FC
  8
AM_0
 10
571.47699299999999
 20
174.561691
 30
0.0
 11
566.47700700000019
 21
177.448441
 31
0.0
  0
LINE
  5
34FD
  8
AM_0
 10
571.47699299999999
 20
168.78817599999991
 30
0.0
 11
571.47699299999999
 21
174.5617059999999
 31
0.0
  0
LINE
  5
34FE
  8
AM_0
 10
512.66945099999998
 20
214.3524339999999
 30
0.0
 11
536.52122699999995
 21
190.5006699999999
 31
0.0
  0
LINE
  5
34FF
  8
AM_0
 10
507.04441799999989
 20
181.379347
 30
0.0
 11
542.36793599999999
 21
181.379347
 31
0.0
  0
LINE
  5
3500
  8
AM_0
 10
549.98115899999993
 20
197.65479999999999
 30
0.0
 11
521.46275400000002
 21
225.36253300000001
 31
0.0
  0
LINE
  5
3501
  8
AM_0
 10
566.32101599999999
 20
185.37934899999991
 30
0.0
 11
518.41487400000005
 21
185.37934899999991
 31
0.0
  0
LINE
  5
3502
  8
ﾁｭｳｼﾝｾﾝ
 10
578.10546699999975
 20
229.879366
 30
0.0
 11
506.63040599999988
 21
229.879366
 31
0.0
  0
ARC
  5
3503
  8
AM_0
 10
542.36793599999999
 20
246.87936400000001
 30
0.0
 40
44.000000999999983
 50
185.49419
 51
222.45267999999999
  0
LINE
  5
3504
  8
AM_0
 10
467.36792999999989
 20
226.879333
 30
0.0
 11
471.03122999999999
 21
185.00778099999991
 31
0.0
  0
LINE
  5
3505
  8
AM_0
 10
520.496172
 20
222.17915499999981
 30
0.0
 11
499.37495999999999
 21
201.05792199999991
 31
0.0
  0
LINE
  5
3506
  8
AM_0
 10
517.88859600000001
 20
225.22843900000001
 30
0.0
 11
496.54652999999979
 21
203.88635199999999
 31
0.0
  0
ARC
  5
3507
  8
AM_0
 10
494.42523
 20
206.007676
 30
0.0
 40
3.0
 50
220.44792000000001
 51
315.0
  0
CIRCLE
  5
3508
  8
AM_0
 10
482.26385999999991
 20
186.7752669999999
 30
0.0
 40
5.0
  0
ARC
  5
3509
  8
AM_0
 10
501.496263
 20
198.93660099999991
 30
0.0
 40
3.0
 50
135.0
 51
229.55207999999999
  0
ARC
  5
350A
  8
AM_0
 10
542.36793599999999
 20
229.8793509999999
 30
0.0
 40
60.000002999999992
 50
233.93341000000001
 51
236.89085
  0
ARC
  5
350B
  8
AM_0
 10
495.58385999999979
 20
251.379367
 30
0.0
 40
3.0
 50
270.0
 51
354.50582000000009
  0
ARC
  5
350C
  8
AM_0
 10
495.58385999999979
 20
242.3793639999999
 30
0.0
 40
3.0
 50
5.494178999999999
 51
90.000003000000007
  0
LINE
  5
350D
  8
AM_0
 10
467.36792999999989
 20
246.87936400000001
 30
0.0
 11
467.36792999999989
 21
226.87935100000001
 31
0.0
  0
ARC
  5
350E
  8
AM_0
 10
479.52884999999981
 20
242.3793639999999
 30
0.0
 40
3.0
 50
90.000003000000007
 51
184.09603999999999
  0
ARC
  5
350F
  8
AM_0
 10
479.52884999999981
 20
251.379367
 30
0.0
 40
3.0
 50
175.90395000000001
 51
270.0
  0
LINE
  5
3510
  8
AM_0
 10
479.52884999999981
 20
248.37936400000001
 30
0.0
 11
495.58385999999979
 21
248.37936400000001
 31
0.0
  0
LINE
  5
3511
  8
AM_0
 10
479.52884999999981
 20
245.37936400000001
 30
0.0
 11
495.58385999999979
 21
245.37936400000001
 31
0.0
  0
ARC
  5
3512
  8
AM_0
 10
522.61751100000004
 20
220.05784600000001
 30
0.0
 40
3.0
 50
45.826031
 51
135.0
  0
ARC
  5
3513
  8
AM_0
 10
515.76725999999985
 20
227.349763
 30
0.0
 40
3.0
 50
315.0
 51
36.285257000000001
  0
LINE
  5
3514
  8
AM_0
 10
582.98256300000003
 20
218.04415900000001
 30
0.0
 11
570.96489299999985
 21
255.946564
 31
0.0
  0
ARC
  5
3515
  8
AM_0
 10
563.91794100000004
 20
211.99934499999989
 30
0.0
 40
20.000001000000001
 50
225.8260299999998
 51
17.592213999999991
  0
LINE
  5
3516
  8
AM_0
 10
577.69145399999979
 20
181.379347
 30
0.0
 11
542.36793599999999
 21
181.379347
 31
0.0
  0
ARC
  5
3517
  8
AM_0
 10
534.39988800000003
 20
188.37936400000001
 30
0.0
 40
3.0
 50
270.0
 51
45.00000099999999
  0
ARC
  5
3518
  8
AM_0
 10
579.63037499999984
 20
196.080613
 30
0.0
 40
3.0
 50
211.70912000000001
 51
306.26119999999992
  0
ARC
  5
3519
  8
AM_0
 10
571.12309500000003
 20
190.82455300000001
 30
0.0
 40
3.0
 50
297.15705000000008
 51
31.70912199999999
  0
ARC
  5
351A
  8
AM_0
 10
542.36793599999999
 20
229.8793509999999
 30
0.0
 40
60.000002999999992
 50
303.10913999999991
 51
304.41151000000002
  0
ARC
  5
351B
  8
AM_0
 10
542.36793599999999
 20
229.8793509999999
 30
0.0
 40
60.000002999999992
 50
303.10913999999991
 51
306.06658999999991
  0
LINE
  5
351C
  8
AM_0
 10
572.67593699999986
 20
194.0188599999999
 30
0.0
 11
573.67528200000004
 21
192.4013829999999
 31
0.0
  0
LINE
  5
351D
  8
AM_0
 10
576.07884599999966
 20
196.12129299999981
 30
0.0
 11
577.07818799999995
 21
194.503816
 31
0.0
  0
ARC
  5
351E
  8
AM_0
 10
542.36793599999999
 20
246.87936400000001
 30
0.0
 40
9.5
 50
108.40848
 51
71.591511999999994
  0
LINE
  5
351F
  8
AM_0
 10
545.36793599999964
 20
252.879367
 30
0.0
 11
545.36793599999964
 21
258.879367
 31
0.0
  0
LINE
  5
3520
  8
AM_0
 10
539.36793599999999
 20
258.879367
 30
0.0
 11
539.36793599999999
 21
252.879367
 31
0.0
  0
CIRCLE
  5
3521
  8
AM_5
 10
542.36793599999999
 20
246.87936400000001
 30
0.0
 40
3.0
  0
CIRCLE
  5
3522
  8
AM_0
 10
542.36793599999999
 20
246.87936400000001
 30
0.0
 40
2.5
  0
LINE
  5
3523
  8
AM_0
 10
539.36793599999999
 20
252.879367
 30
0.0
 11
545.36793599999964
 21
252.879367
 31
0.0
  0
LINE
  5
3524
  8
AM_0
 10
545.36793599999964
 20
258.879367
 30
0.0
 11
539.36793599999999
 21
258.879367
 31
0.0
  0
ARC
  5
3525
  8
AM_0
 10
594.0221429999998
 20
242.3793639999999
 30
0.0
 40
3.0
 50
90.000003000000007
 51
200.0
  0
LINE
  5
3526
  8
AM_0
 10
583.71440399999994
 20
261.92822499999988
 30
0.0
 11
587.92733999999984
 21
250.3532889999999
 31
0.0
  0
ARC
  5
3527
  8
AM_0
 10
590.74643400000002
 20
251.379367
 30
0.0
 40
3.0
 50
200.0
 51
270.0
  0
ARC
  5
3528
  8
AM_0
 10
603.74270999999999
 20
185.87934699999991
 30
0.0
 40
10.0
 50
270.0
 51
355.0
  0
ARC
  5
3529
  8
AM_0
 10
542.36793599999999
 20
229.879366
 30
0.0
 40
80.0
 50
334.58668099999988
 51
20.364128999999991
  0
LINE
  5
352A
  8
AM_0
 10
617.36793899999998
 20
226.87935100000001
 30
0.0
 11
613.704654
 21
185.0077959999999
 31
0.0
  0
CIRCLE
  5
352B
  8
AM_0
 10
602.47200299999997
 20
186.7752669999999
 30
0.0
 40
5.0
  0
LINE
  5
352C
  8
AM_0
 10
617.36793899999998
 20
246.87936400000001
 30
0.0
 11
617.36793899999998
 21
226.87935100000001
 31
0.0
  0
ARC
  5
352D
  8
AM_0
 10
605.20700399999998
 20
242.3793639999999
 30
0.0
 40
3.0
 50
355.90395999999993
 51
90.000003000000007
  0
ARC
  5
352E
  8
AM_0
 10
605.20700399999998
 20
251.379367
 30
0.0
 40
3.0
 50
270.0
 51
4.096044
  0
LINE
  5
352F
  8
AM_0
 10
562.36793699999976
 20
321.8793609999999
 30
0.0
 11
604.58411100000001
 21
318.18591099999992
 31
0.0
  0
LINE
  5
3530
  8
AM_0
 10
597.3492
 20
271.11807399999992
 30
0.0
 11
592.34920199999999
 21
274.00482399999999
 31
0.0
  0
LINE
  5
3531
  8
AM_0
 10
542.36793599999999
 20
321.8793609999999
 30
0.0
 11
522.36793799999998
 21
321.8793609999999
 31
0.0
  0
LINE
  5
3532
  8
AM_0
 10
467.36792999999989
 20
266.87933500000003
 30
0.0
 11
471.06137999999987
 21
309.09552100000002
 31
0.0
  0
CIRCLE
  5
3533
  8
AM_0
 10
482.26385999999991
 20
306.983431
 30
0.0
 40
5.0
  0
ARC
  5
3534
  8
ﾁｭｳｼﾝｾﾝ1
 10
542.36793599999999
 20
246.87936400000001
 30
0.0
 40
85.000001999999981
 50
128.2554309999999
 51
141.7445779999999
  0
LINE
  5
3535
  8
ﾁｭｳｼﾝｾﾝ1
 10
489.3349139999998
 20
299.91234900000001
 30
0.0
 11
475.19279199999988
 21
314.05449900000002
 31
0.0
  0
LINE
  5
3536
  8
AM_0
 10
497.38667999999973
 20
271.11807399999992
 30
0.0
 11
492.38666999999992
 21
274.00482399999999
 31
0.0
  0
ARC
  5
3537
  8
AM_0
 10
494.42523
 20
287.75101000000001
 30
0.0
 40
3.0
 50
45.00000099999999
 51
139.5520799999999
  0
LINE
  5
3538
  8
AM_0
 10
492.38670000000002
 20
274.00482399999999
 30
0.0
 11
487.38665999999989
 21
271.11807399999992
 31
0.0
  0
LINE
  5
3539
  8
AM_0
 10
487.38665999999989
 20
271.11807399999992
 30
0.0
 11
487.38665999999989
 21
265.34457700000002
 31
0.0
  0
LINE
  5
353A
  8
AM_0
 10
520.71702600000003
 20
271.35870699999992
 30
0.0
 11
499.37495999999999
 21
292.70074599999998
 31
0.0
  0
LINE
  5
353B
  8
AM_0
 10
517.88859600000001
 20
268.53027700000001
 30
0.0
 11
496.54652999999979
 21
289.87231600000001
 31
0.0
  0
LINE
  5
353C
  8
AM_0
 10
497.38667999999973
 20
265.34457700000002
 30
0.0
 11
497.38667999999973
 21
271.11807399999992
 31
0.0
  0
ARC
  5
353D
  8
AM_0
 10
522.83833499999992
 20
273.48001299999981
 30
0.0
 40
3.0
 50
225.0
 51
306.28525999999982
  0
ARC
  5
353E
  8
AM_0
 10
501.496263
 20
294.82208500000002
 30
0.0
 40
3.0
 50
130.44793000000001
 51
225.0
  0
LINE
  5
353F
  8
AM_0
 10
522.36793799999998
 20
321.87933099999992
 30
0.0
 11
480.15176999999989
 21
318.18591099999992
 31
0.0
  0
ARC
  5
3540
  8
AM_0
 10
481.02332999999999
 20
308.22396099999992
 30
0.0
 40
10.0
 50
95.000001999999995
 51
175.00001
  0
LINE
  5
3541
  8
AM_0
 10
543.86793599999999
 20
309.718411
 30
0.0
 11
543.86793599999999
 21
293.66342500000002
 31
0.0
  0
LINE
  5
3542
  8
AM_0
 10
540.86793599999976
 20
309.718411
 30
0.0
 11
540.86793599999976
 21
293.66342500000002
 31
0.0
  0
ARC
  5
3543
  8
AM_0
 10
542.36793599999999
 20
246.87936400000001
 30
0.0
 40
44.000000999999983
 50
47.547316999999993
 51
84.505819000000017
  0
ARC
  5
3544
  8
AM_0
 10
561.89752499999997
 20
273.48001299999981
 30
0.0
 40
3.0
 50
233.7147499999999
 51
315.0
  0
ARC
  5
3545
  8
AM_0
 10
546.86793899999998
 20
293.66342500000002
 30
0.0
 40
3.0
 50
179.99998999999991
 51
264.50582000000003
  0
ARC
  5
3546
  8
AM_0
 10
542.36793599999999
 20
246.87936400000001
 30
0.0
 40
44.000000999999983
 50
95.494178999999988
 51
132.4526799999999
  0
ARC
  5
3547
  8
AM_0
 10
537.86793599999964
 20
293.66342500000002
 30
0.0
 40
3.0
 50
275.49417999999991
 51
0.0
  0
LINE
  5
3548
  8
AM_0
 10
564.01884600000005
 20
271.35870699999992
 30
0.0
 11
585.36093600000004
 21
292.70077900000001
 31
0.0
  0
LINE
  5
3549
  8
AM_0
 10
566.84727899999996
 20
268.53027700000001
 30
0.0
 11
588.18936600000018
 21
289.87234899999999
 31
0.0
  0
LINE
  5
354A
  8
AM_0
 10
592.34918700000003
 20
274.00485400000002
 30
0.0
 11
587.34918600000003
 21
271.11810400000002
 31
0.0
  0
LINE
  5
354B
  8
AM_0
 10
587.34918600000003
 20
271.11807399999992
 30
0.0
 11
587.34918600000003
 21
265.34457700000002
 31
0.0
  0
ARC
  5
354C
  8
AM_0
 10
583.23961199999985
 20
294.82208500000002
 30
0.0
 40
3.0
 50
315.0
 51
49.552073
  0
ARC
  5
354D
  8
AM_0
 10
590.31067199999995
 20
287.75101000000001
 30
0.0
 40
3.0
 50
40.447929000000002
 51
135.0
  0
ARC
  5
354E
  8
AM_0
 10
546.86793899999998
 20
309.718411
 30
0.0
 40
3.0
 50
85.903959
 51
180.00001
  0
LINE
  5
354F
  8
AM_0
 10
542.36793599999999
 20
321.8793609999999
 30
0.0
 11
562.36792200000002
 21
321.8793609999999
 31
0.0
  0
ARC
  5
3550
  8
AM_0
 10
537.86793599999964
 20
309.718411
 30
0.0
 40
3.0
 50
0.0
 51
94.096045999999987
  0
LINE
  5
3551
  8
AM_0
 10
617.36793899999998
 20
266.87933500000003
 30
0.0
 11
613.67450399999996
 21
309.09552100000002
 31
0.0
  0
CIRCLE
  5
3552
  8
AM_0
 10
602.47200299999997
 20
306.983431
 30
0.0
 40
5.0
  0
LINE
  5
3553
  8
AM_0
 10
597.3492
 20
265.34457700000002
 30
0.0
 11
597.3492
 21
271.11807399999992
 31
0.0
  0
ARC
  5
3554
  8
AM_0
 10
603.71254499999975
 20
308.22396099999992
 30
0.0
 40
10.0
 50
5.0
 51
84.999996999999979
  0
LINE
  5
3555
  8
0
 10
242.48245800000001
 20
371.95435800000001
 30
0.0
 11
242.48245800000001
 21
531.95435799999996
 31
0.0
1001
GENIUS_GENOREF_13
1005
2FA1
  0
LINE
  5
3556
  8
0
 10
252.48245800000001
 20
529.95435799999996
 30
0.0
 11
252.48245800000001
 21
373.95435800000001
 31
0.0
1001
GENIUS_GENOREF_13
1005
2FA1
  0
LINE
  5
3557
  8
AM_0
 10
273.48245800000001
 20
405.95434099999989
 30
0.0
 11
252.48245800000001
 21
405.95434099999989
 31
0.0
  0
LINE
  5
3558
  8
0
 10
254.41265899999991
 20
394.78842599999979
 30
0.0
 11
273.48245800000001
 21
395.45435800000001
 31
0.0
  0
LINE
  5
3559
  8
0
 10
242.48245800000001
 20
371.95435800000001
 30
0.0
 11
250.48245800000001
 21
371.95435800000001
 31
0.0
  0
ARC
  5
355A
  8
0
 10
250.48245800000001
 20
373.95435800000001
 30
0.0
 40
2.0
 50
270.0
 51
0.0
1001
GENIUS_GENOBJ-N-FIL_13
1002
{
1000
OWNER
1000
GEN
1002
}
1001
GENIUS_GENODEF_13
1002
{
1000
HIER
1070
     0
1002
}
1002
{
1000
MANEDIT
1070
     0
1002
}
1002
{
1000
NOSEL
1070
     0
1002
}
1002
{
1000
BEHIND
1070
     0
1002
}
1002
{
1000
OTHER
1070
     0
1002
}
1002
{
1000
REACTOR
1002
}
  0
ARC
  5
355B
  8
0
 10
254.48245800000001
 20
392.78964399999978
 30
0.0
 40
2.0
 50
91.999999999999986
 51
180.0
1001
GENIUS_GENOBJ-N-FIL_13
1002
{
1000
OWNER
1000
GEN
1002
}
1001
GENIUS_GENODEF_13
1002
{
1000
HIER
1070
     0
1002
}
1002
{
1000
MANEDIT
1070
     0
1002
}
1002
{
1000
NOSEL
1070
     0
1002
}
1002
{
1000
BEHIND
1070
     0
1002
}
1002
{
1000
OTHER
1070
     0
1002
}
1002
{
1000
REACTOR
1002
}
  0
LINE
  5
355C
  8
AM_0
 10
273.48245800000001
 20
420.01691599999992
 30
0.0
 11
252.48245800000001
 21
420.01691599999992
 31
0.0
  0
LINE
  5
355D
  8
AM_0
 10
273.48245800000001
 20
497.95435700000002
 30
0.0
 11
252.48245800000001
 21
497.95435700000002
 31
0.0
  0
LINE
  5
355E
  8
AM_0
 10
273.48245800000001
 20
483.89179699999988
 30
0.0
 11
252.48245800000001
 21
483.89179699999988
 31
0.0
  0
LINE
  5
355F
  8
0
 10
254.41265899999991
 20
509.12028999999978
 30
0.0
 11
273.48245800000001
 21
508.45435800000001
 31
0.0
  0
ARC
  5
3560
  8
0
 10
254.48245800000001
 20
511.11907199999968
 30
0.0
 40
2.0
 50
180.0
 51
268.0
1001
GENIUS_GENOBJ-N-FIL_13
1002
{
1000
OWNER
1000
GEN
1002
}
1001
GENIUS_GENODEF_13
1002
{
1000
HIER
1070
     0
1002
}
1002
{
1000
MANEDIT
1070
     0
1002
}
1002
{
1000
NOSEL
1070
     0
1002
}
1002
{
1000
BEHIND
1070
     0
1002
}
1002
{
1000
OTHER
1070
     0
1002
}
1002
{
1000
REACTOR
1002
}
  0
LINE
  5
3561
  8
0
 10
242.48245800000001
 20
531.95435799999996
 30
0.0
 11
250.48245800000001
 21
531.95435799999996
 31
0.0
  0
ARC
  5
3562
  8
0
 10
250.48245800000001
 20
529.95435799999996
 30
0.0
 40
2.0
 50
0.0
 51
90.0
1001
GENIUS_GENOBJ-N-FIL_13
1002
{
1000
OWNER
1000
GEN
1002
}
1001
GENIUS_GENODEF_13
1002
{
1000
HIER
1070
     0
1002
}
1002
{
1000
MANEDIT
1070
     0
1002
}
1002
{
1000
NOSEL
1070
     0
1002
}
1002
{
1000
BEHIND
1070
     0
1002
}
1002
{
1000
OTHER
1070
     0
1002
}
1002
{
1000
REACTOR
1002
}
  0
LINE
  5
3563
  8
ﾁｭｳｼﾝｾﾝ1
 10
489.3349139999998
 20
193.84637900000001
 30
0.0
 11
475.19279199999988
 21
179.70423
 31
0.0
  0
ARC
  5
3564
  8
ﾁｭｳｼﾝｾﾝ1
 10
542.36793599999999
 20
246.87936400000001
 30
0.0
 40
85.000001999999981
 50
218.25542200000001
 51
231.74456900000001
  0
LINE
  5
3565
  8
ﾁｭｳｼﾝｾﾝ1
 10
595.40095899999994
 20
299.91234900000001
 30
0.0
 11
609.54308000000003
 21
314.05449900000002
 31
0.0
  0
ARC
  5
3566
  8
ﾁｭｳｼﾝｾﾝ1
 10
542.36793599999999
 20
246.87936400000001
 30
0.0
 40
85.000001999999981
 50
38.255421999999989
 51
51.744568999999998
  0
ARC
  5
3567
  8
ﾁｭｳｼﾝｾﾝ1
 10
542.36793599999999
 20
246.87936400000001
 30
0.0
 40
85.000001999999981
 50
308.25543099999987
 51
321.74457799999982
  0
LINE
  5
3568
  8
ﾁｭｳｼﾝｾﾝ1
 10
595.40095899999994
 20
193.84637900000001
 30
0.0
 11
609.54308000000003
 21
179.70423
 31
0.0
  0
TEXT
  5
378A
  8
AM_0
 10
452.60672642449629
 20
470.67267418409062
 30
0.0
 40
10.0
  1
VX01-003AF~VX01-050AF
  0
ENDSEC
  0
EOF
