  0
SECTION
  2
HEADER
  9
$ACADVER
  1
AC1009
  9
$INSBASE
 10
0.0
 20
0.0
 30
0.0
  9
$EXTMIN
 10
205.35260232392761
 20
145.76017129637191
 30
-0.0000000000112498
  9
$EXTMAX
 10
658.50098595209511
 20
561.2083458302501
 30
0.0000000000002956
  9
$LIMMIN
 10
0.0
 20
0.0
  9
$LIMMAX
 10
853.5
 20
555.00000000000011
  9
$ORTHOMODE
 70
     0
  9
$REGENMODE
 70
     1
  9
$FILLMODE
 70
     1
  9
$QTEXTMODE
 70
     0
  9
$MIRRTEXT
 70
     1
  9
$DRAGMODE
 70
     2
  9
$LTSCALE
 40
3.0
  9
$OSMODE
 70
   551
  9
$ATTMODE
 70
     1
  9
$TEXTSIZE
 40
2.5
  9
$TRACEWID
 40
1.0
  9
$TEXTSTYLE
  7
STANDARD
  9
$CLAYER
  8
AM_0
  9
$CELTYPE
  6
BYLAYER
  9
$CECOLOR
 62
   256
  9
$DIMSCALE
 40
1.0
  9
$DIMASZ
 40
2.5
  9
$DIMEXO
 40
1.0
  9
$DIMDLI
 40
8.0
  9
$DIMRND
 40
0.0
  9
$DIMDLE
 40
0.0
  9
$DIMEXE
 40
0.6
  9
$DIMTP
 40
0.1
  9
$DIMTM
 40
0.1
  9
$DIMTXT
 40
2.5
  9
$DIMCEN
 40
0.0
  9
$DIMTSZ
 40
0.0
  9
$DIMTOL
 70
     0
  9
$DIMLIM
 70
     0
  9
$DIMTIH
 70
     0
  9
$DIMTOH
 70
     0
  9
$DIMSE1
 70
     0
  9
$DIMSE2
 70
     0
  9
$DIMTAD
 70
     1
  9
$DIMZIN
 70
     8
  9
$DIMBLK
  1

  9
$DIMASO
 70
     1
  9
$DIMSHO
 70
     1
  9
$DIMPOST
  1

  9
$DIMAPOST
  1
"
  9
$DIMALT
 70
     0
  9
$DIMALTD
 70
     2
  9
$DIMALTF
 40
0.0393701
  9
$DIMLFAC
 40
1.0
  9
$DIMTOFL
 70
     1
  9
$DIMTVP
 40
0.0
  9
$DIMTIX
 70
     0
  9
$DIMSOXD
 70
     0
  9
$DIMSAH
 70
     0
  9
$DIMBLK1
  1

  9
$DIMBLK2
  1

  9
$DIMSTYLE
  2
AM_ISO
  9
$DIMCLRD
 70
   256
  9
$DIMCLRE
 70
   256
  9
$DIMCLRT
 70
     4
  9
$DIMTFAC
 40
0.71
  9
$DIMGAP
 40
0.8
  9
$LUNITS
 70
     2
  9
$LUPREC
 70
     2
  9
$SKETCHINC
 40
1.0
  9
$FILLETRAD
 40
15.0
  9
$AUNITS
 70
     0
  9
$AUPREC
 70
     0
  9
$MENU
  1
.
  9
$ELEVATION
 40
0.0
  9
$PELEVATION
 40
0.0
  9
$THICKNESS
 40
0.0
  9
$LIMCHECK
 70
     0
  9
$BLIPMODE
 70
     0
  9
$CHAMFERA
 40
6.0
  9
$CHAMFERB
 40
3.0
  9
$SKPOLY
 70
     0
  9
$TDCREATE
 40
2452065.618108171
  9
$TDUPDATE
 40
2458541.5341735301
  9
$TDINDWG
 40
0.1521866088
  9
$TDUSRTIMER
 40
0.1521865856
  9
$USRTIMER
 70
     1
  9
$ANGBASE
 50
0.0
  9
$ANGDIR
 70
     0
  9
$PDMODE
 70
     0
  9
$PDSIZE
 40
0.0
  9
$PLINEWID
 40
0.0
  9
$COORDS
 70
     1
  9
$SPLFRAME
 70
     0
  9
$SPLINETYPE
 70
     6
  9
$SPLINESEGS
 70
     8
  9
$ATTDIA
 70
     1
  9
$ATTREQ
 70
     1
  9
$HANDLING
 70
     1
  9
$HANDSEED
  5
34A2
  9
$SURFTAB1
 70
     6
  9
$SURFTAB2
 70
     6
  9
$SURFTYPE
 70
     6
  9
$SURFU
 70
     6
  9
$SURFV
 70
     6
  9
$UCSNAME
  2

  9
$UCSORG
 10
0.0
 20
0.0
 30
0.0
  9
$UCSXDIR
 10
1.0
 20
0.0
 30
0.0
  9
$UCSYDIR
 10
0.0
 20
1.0
 30
0.0
  9
$PUCSNAME
  2

  9
$PUCSORG
 10
0.0
 20
0.0
 30
0.0
  9
$PUCSXDIR
 10
1.0
 20
0.0
 30
0.0
  9
$PUCSYDIR
 10
0.0
 20
1.0
 30
0.0
  9
$USERI1
 70
     0
  9
$USERI2
 70
     0
  9
$USERI3
 70
     0
  9
$USERI4
 70
     0
  9
$USERI5
 70
     0
  9
$USERR1
 40
0.0
  9
$USERR2
 40
0.0
  9
$USERR3
 40
0.0
  9
$USERR4
 40
0.0
  9
$USERR5
 40
0.0
  9
$WORLDVIEW
 70
     1
  9
$SHADEDGE
 70
     3
  9
$SHADEDIF
 70
    70
  9
$TILEMODE
 70
     1
  9
$MAXACTVP
 70
    64
  9
$PLIMCHECK
 70
     0
  9
$PEXTMIN
 10
1.0000000000000000E+020
 20
1.0000000000000000E+020
 30
1.0000000000000000E+020
  9
$PEXTMAX
 10
-1.0000000000000000E+020
 20
-1.0000000000000000E+020
 30
-1.0000000000000000E+020
  9
$PLIMMIN
 10
0.0
 20
0.0
  9
$PLIMMAX
 10
420.0
 20
297.0
  9
$UNITMODE
 70
     0
  9
$VISRETAIN
 70
     1
  9
$PLINEGEN
 70
     0
  9
$PSLTSCALE
 70
     1
  0
ENDSEC
  0
SECTION
  2
TABLES
  0
TABLE
  2
VPORT
 70
     1
  0
VPORT
  2
*ACTIVE
 70
     0
 10
0.0
 20
0.0
 11
1.0
 21
1.0
 12
431.9267941380113
 22
353.48425856331107
 13
0.0
 23
0.0
 14
7.5
 24
7.5
 15
30.0
 25
30.0
 16
0.0
 26
0.0
 36
1.0
 17
0.0
 27
0.0
 37
0.0
 40
418.3002214986418
 41
1.7571592210767459
 42
50.0
 43
0.0
 44
0.0
 50
0.0
 51
0.0
 71
     0
 72
   100
 73
     1
 74
     3
 75
     0
 76
     0
 77
     0
 78
     0
  0
ENDTAB
  0
TABLE
  2
LTYPE
 70
    27
  0
LTYPE
  2
CONTINUOUS
 70
     0
  3
Solid line
 72
    65
 73
     0
 40
0.0
  0
LTYPE
  2
AM_ISO02W050
 70
     0
  3
__ __ __ __ __ __ __ __ __ __ __ __ __ __ __
 72
    65
 73
     2
 40
7.5
 49
6.0
 49
-1.5
  0
LTYPE
  2
AM_ISO08W050
 70
     0
  3
____ . ____ . ____ . ____ . ____ . ____ . ____
 72
    65
 73
     4
 40
18.0
 49
12.0
 49
-1.5
 49
3.0
 49
-1.5
  0
LTYPE
  2
AM_ISO09W050
 70
     0
  3
_____ . . _____ . . _____ . . ____ .. ____
 72
    65
 73
     6
 40
22.5
 49
12.0
 49
-1.5
 49
3.0
 49
-1.5
 49
3.0
 49
-1.5
  0
LTYPE
  2
AMCONSTR
 70
     0
  3
_______________________
 72
    65
 73
     2
 40
9999.0
 49
9999.0
 49
0.0
  0
LTYPE
  2
AM_ISO08W050X2
 70
     0
  3
__ . __ . __ . __ . __ . __
 72
    65
 73
     4
 40
9.0
 49
6.0
 49
-0.75
 49
1.5
 49
-0.75
  0
LTYPE
  2
AM_ISO02W050X2
 70
     0
  3
 _ _ _ _ _ _ _ _ _ _ _ _
 72
    65
 73
     2
 40
3.75
 49
3.0
 49
-0.75
  0
LTYPE
  2
AMZIGZAG
 70
     0
  3
/\/-/\/-/\/-/\/-/\/-/\/
 72
    65
 73
     2
 40
11.000099999999991
 49
0.0001
 49
-11.0
  0
LTYPE
  2
ACISOWELD
 70
     0
  3
_ _ _ _ _
 72
    65
 73
     2
 40
2.0
 49
2.0
 49
-1.0
  0
LTYPE
  2
ACISOTGB
 70
     0
  3
__ . . __ . .
 72
    65
 73
     6
 40
9.0
 49
4.0
 49
-1.0
 49
1.0
 49
-1.0
 49
1.0
 49
-1.0
  0
LTYPE
  2
ACISOTGL
 70
     0
  3
_ _ _ _ _
 72
    65
 73
     2
 40
3.0
 49
2.0
 49
-1.0
  0
LTYPE
  2
CENTER
 70
     0
  3
__ . __
 72
    65
 73
     4
 40
7.0
 49
4.0
 49
-1.0
 49
1.0
 49
-1.0
  0
LTYPE
  2
PHANTOM2
 70
     0
  3
Phantom (.5x) ___ _ _ ___ _ _ ___ _ _ ___ _ _
 72
    65
 73
     6
 40
31.75
 49
15.875
 49
-3.174999999999998
 49
3.174999999999998
 49
-3.174999999999998
 49
3.174999999999998
 49
-3.174999999999998
  0
LTYPE
  2
ACANSTGBM
 70
     0
  3
__ . . __ . .
 72
    65
 73
     6
 40
9.0
 49
4.0
 49
-1.0
 49
1.0
 49
-1.0
 49
1.0
 49
-1.0
  0
LTYPE
  2
ACANSTGLM
 70
     0
  3
_ _ _ _ _
 72
    65
 73
     2
 40
3.0
 49
2.0
 49
-1.0
  0
LTYPE
  2
GEN7
 70
     0
  3
____ . ____ . ____ . ____ . ____ . ____ . ____
 72
    65
 73
     4
 40
14.25
 49
9.75
 49
-1.5
 49
1.5
 49
-1.5
  0
LTYPE
  2
GEN7A
 70
     0
  3
__ . __ . __
 72
    65
 73
     4
 40
7.375
 49
4.75
 49
-0.875
 49
0.875
 49
-0.875
  0
LTYPE
  2
ACJISTGB
 70
     0
  3
__ . . __ . .
 72
    65
 73
     6
 40
9.0
 49
4.0
 49
-1.0
 49
1.0
 49
-1.0
 49
1.0
 49
-1.0
  0
LTYPE
  2
ACJISTGL
 70
     0
  3
_ _ _ _ _
 72
    65
 73
     2
 40
3.0
 49
2.0
 49
-1.0
  0
LTYPE
  2
HIDDEN
 70
     0
  3
Hidden __ __ __ __ __ __ __ __ __ __ __ __ __ _
 72
    65
 73
     2
 40
0.375
 49
0.25
 49
-0.125
  0
LTYPE
  2
CENTER2
 70
     0
  3
Center (.5x) ___ _ ___ _ ___ _ ___ _ ___ _ ___
 72
    65
 73
     4
 40
1.125
 49
0.75
 49
-0.125
 49
0.125
 49
-0.125
  0
LTYPE
  2
HIDDEN2
 70
     0
  3
Hidden (.5x) _ _ _ _ _ _ _ _ _ _ _ _ _ _ _ _ _
 72
    65
 73
     2
 40
0.1875
 49
0.125
 49
-0.0625
  0
LTYPE
  2
AMZIGZAG2
 70
     0
  3
/\/-/\/-/\/-/\/-/\/-/\/
 72
    65
 73
     2
 40
0.4401
 49
0.0001
 49
-0.4400000000000002
  0
LTYPE
  2
ACANSTGB
 70
     0
  3
__ . . __ . .
 72
    65
 73
     6
 40
0.35433070866
 49
0.15748031496
 49
-0.03937007874
 49
0.03937007874
 49
-0.03937007874
 49
0.03937007874
 49
-0.03937007874
  0
LTYPE
  2
ACANSTGL
 70
     0
  3
_ _ _ _ _
 72
    65
 73
     2
 40
0.11811023622
 49
0.07874015748
 49
-0.03937007874
  0
ENDTAB
  0
TABLE
  2
LAYER
 70
     5
  0
LAYER
  2
0
 70
     0
 62
     7
  6
CONTINUOUS
  0
LAYER
  2
AM_0
 70
     0
 62
     7
  6
CONTINUOUS
  0
LAYER
  2
DEFPOINTS
 70
     0
 62
     7
  6
CONTINUOUS
  0
LAYER
  2
ﾁｭｳｼﾝｾﾝ
 70
     0
 62
     1
  6
GEN7
  0
LAYER
  2
ﾁｭｳｼﾝｾﾝ1
 70
     0
 62
     1
  6
GEN7A
  0
ENDTAB
  0
TABLE
  2
STYLE
 70
     9
  0
STYLE
  2
STANDARD
 70
     0
 40
0.0
 41
0.8299999999999999
 50
0.0
 71
     0
 42
2.5
  3
txt.shx
  4
bigfont.shx
  0
STYLE
  2
ANNOTATIVE
 70
     0
 40
0.0
 41
1.0
 50
0.0
 71
     0
 42
0.2
  3
txt
  4

  0
STYLE
  2

 70
     1
 40
0.0
 41
1.0
 50
0.0
 71
     0
 42
2.5
  3
ltypeshp.shx
  4

  0
STYLE
  2
ACISOTS
 70
     0
 40
1.0
 41
1.0
 50
0.0
 71
     0
 42
2.5
  3
isocp.shx
  4
extfont.shx
  0
STYLE
  2
ACISOGDT
 70
     0
 40
0.0
 41
1.0
 50
0.0
 71
     0
 42
2.5
  3
amgdt.shx
  4

  0
STYLE
  2
ACANSTS
 70
     0
 40
1.0
 41
1.0
 50
0.0
 71
     0
 42
2.5
  3
romans.shx
  4
bigfont.shx
  0
STYLE
  2
ACANSGDT
 70
     0
 40
0.0
 41
1.0
 50
0.0
 71
     0
 42
2.5
  3
amgdt.shx
  4

  0
STYLE
  2
ACJISTS
 70
     0
 40
1.0
 41
1.0
 50
0.0
 71
     0
 42
2.5
  3
isocp.shx
  4
bigfont.shx
  0
STYLE
  2
ACJISGDT
 70
     0
 40
0.0
 41
1.0
 50
0.0
 71
     0
 42
2.5
  3
amgdt.shx
  4

  0
ENDTAB
  0
TABLE
  2
VIEW
 70
     6
  0
VIEW
  2
AM_VIEW1
 70
     0
 40
277.49999999999989
 10
249.64779005524849
 20
416.24999999999989
 41
499.2955801104971
 11
0.0
 21
0.0
 31
1.0
 12
0.0
 22
0.0
 32
0.0
 42
50.0
 43
0.0
 44
0.0
 50
0.0
 71
     0
  0
VIEW
  2
AM_VIEW2
 70
     0
 40
277.49999999999989
 10
603.85220994475117
 20
416.24999999999989
 41
499.2955801104971
 11
0.0
 21
0.0
 31
1.0
 12
0.0
 22
0.0
 32
0.0
 42
50.0
 43
0.0
 44
0.0
 50
0.0
 71
     0
  0
VIEW
  2
AM_VIEW3
 70
     0
 40
277.49999999999989
 10
249.64779005524849
 20
138.7499999999998
 41
499.2955801104971
 11
0.0
 21
0.0
 31
1.0
 12
0.0
 22
0.0
 32
0.0
 42
50.0
 43
0.0
 44
0.0
 50
0.0
 71
     0
  0
VIEW
  2
AM_VIEW4
 70
     0
 40
277.49999999999989
 10
603.85220994475117
 20
138.7499999999998
 41
499.2955801104971
 11
0.0
 21
0.0
 31
1.0
 12
0.0
 22
0.0
 32
0.0
 42
50.0
 43
0.0
 44
0.0
 50
0.0
 71
     0
  0
VIEW
  2
AM_VIEW5
 70
     0
 40
277.5
 10
426.75
 20
277.49999999999989
 41
499.2955801104971
 11
0.0
 21
0.0
 31
1.0
 12
0.0
 22
0.0
 32
0.0
 42
50.0
 43
0.0
 44
0.0
 50
0.0
 71
     0
  0
VIEW
  2
AM_VIEW6
 70
     0
 40
554.99445000000014
 10
426.75
 20
277.49999999999989
 41
998.5811743093924
 11
0.0
 21
0.0
 31
1.0
 12
0.0
 22
0.0
 32
0.0
 42
50.0
 43
0.0
 44
0.0
 50
0.0
 71
     0
  0
ENDTAB
  0
TABLE
  2
UCS
 70
     0
  0
ENDTAB
  0
TABLE
  2
APPID
 70
    95
  0
APPID
  2
ACAD
 70
     0
  0
APPID
  2
ACADANNOTATIVE
 70
     0
  0
APPID
  2
MCAD_NO_VIS
 70
     0
  0
APPID
  2
ACAD_TEMP_GRAPHIC
 70
     0
  0
APPID
  2
ACATTRIBSERVICES
 70
     0
  0
APPID
  2
GENIUS_GENREC_14
 70
     0
  0
APPID
  2
GENIUS_GENOBJ-N-REC_13
 70
     0
  0
APPID
  2
GENIUS_GENODEF_13
 70
     0
  0
APPID
  2
GENIUS_GENOLIS_13
 70
     0
  0
APPID
  2
GENIUS_GENOBJ-N-TIT_13
 70
     0
  0
APPID
  2
GENIUS_GENOENT_13
 70
     0
  0
APPID
  2
GENIUS_GENTITLE_13
 70
     0
  0
APPID
  2
GENIUS_GENOREF_13
 70
     0
  0
APPID
  2
GENIUS_GENSCREG_15
 70
     0
  0
APPID
  2
GENIUS_GENOBJ-N-SDF_13
 70
     0
  0
APPID
  2
GENIUS_GENFIL_13
 70
     0
  0
APPID
  2
GENIUS_GENOBJ-N-CHA_13
 70
     0
  0
APPID
  2
GENIUS_GENDTOL_13
 70
     0
  0
APPID
  2
GENIUS_GENOBJ-N-FIL_13
 70
     0
  0
APPID
  2
AD_DRAW
 70
     0
  0
APPID
  2
DESIGNERASSEMBLIES
 70
     0
  0
APPID
  2
ASURF_PCURVE_APPNAME
 70
     0
  0
APPID
  2
GENIUS_GE3SECT_13
 70
     0
  0
APPID
  2
GENIUS_GENCFG_13
 70
     0
  0
APPID
  2
GENIUS_GE3CFG0_13
 70
     0
  0
APPID
  2
GENIUS_GENCFG0_13
 70
     0
  0
APPID
  2
GENIUS_GENCFG1_13
 70
     0
  0
APPID
  2
GENIUS_GENCFG2_13
 70
     0
  0
APPID
  2
GENIUS_GENCFG3_13
 70
     0
  0
APPID
  2
GENIUS_GENCFG4_13
 70
     0
  0
APPID
  2
GENIUS_GEVCFG0_13
 70
     0
  0
APPID
  2
GENIUS_GENHINW_13
 70
     0
  0
APPID
  2
GENIUS_FIRSTVISTXT_14
 70
     0
  0
APPID
  2
GENIUS_GENOBJ-N-LEADER_13
 70
     0
  0
APPID
  2
GEV_VCCNULL_SWITCH_OFF
 70
     0
  0
APPID
  2
GENIUS_GEFCFG0_13
 70
     0
  0
APPID
  2
GENIUS_GENZVEED_13
 70
     0
  0
APPID
  2
GENIUS_GENSCREG_13
 70
     0
  0
APPID
  2
GENIUS_DUMCFG0_13
 70
     0
  0
APPID
  2
GEVID936201362
 70
     0
  0
APPID
  2
GEVDC
 70
     0
  0
APPID
  2
GEVCON
 70
     0
  0
APPID
  2
VCC
 70
     0
  0
APPID
  2
GEVPT
 70
     0
  0
APPID
  2
GEVIT
 70
     0
  0
APPID
  2
GENBH
 70
     0
  0
APPID
  2
GEVMK
 70
     0
  0
APPID
  2
GENIUS_GENBH_13
 70
     0
  0
APPID
  2
GENIUS_GENOBJ-NBEHI-BHF_13
 70
     0
  0
APPID
  2
GENIUS_GENOBJ-NBEHI-BHB_13
 70
     0
  0
APPID
  2
GENIUS_GENOBJ-F-DESC_13
 70
     0
  0
APPID
  2
GENIUS_GEFDESC_14
 70
     0
  0
APPID
  2
GENIUS_GENOBJ-F-PART_13
 70
     0
  0
APPID
  2
GENIUS_GEFSTDP_13
 70
     0
  0
APPID
  2
GENIUS_GEFPARTINS_13
 70
     0
  0
APPID
  2
GENIUS_GENTRA_14
 70
     0
  0
APPID
  2
GENIUS_GENINF13_13
 70
     0
  0
APPID
  2
GENIUS_GENOBJ-N-INFOPT_13
 70
     0
  0
APPID
  2
GENIUS_GENOBJ-N-RSSYM_13
 70
     0
  0
APPID
  2
GENIUS_GENSYMENT_13
 70
     0
  0
APPID
  2
GENIUS_GENSCSYM_13
 70
     0
  0
APPID
  2
GENIUS_GEFINFNAM_13
 70
     0
  0
APPID
  2
GENIUS_GENOBJ-N-CEN_13
 70
     0
  0
APPID
  2
GENIUS_GENOBJ-N-CRS_13
 70
     0
  0
APPID
  2
GENIUS_GENOBJ-N-CRC_13
 70
     0
  0
APPID
  2
GENIUS_GENCRC_14
 70
     0
  0
APPID
  2
GEVID942827039
 70
     0
  0
APPID
  2
GEVID942827040
 70
     0
  0
APPID
  2
GEVID942827041
 70
     0
  0
APPID
  2
GENIUS_GENOBJ-F-SCPASSM_13
 70
     0
  0
APPID
  2
GENIUS_GENDIMSH_14
 70
     0
  0
APPID
  2
GEVID942827042
 70
     0
  0
APPID
  2
GEVID946020473
 70
     0
  0
APPID
  2
GEVID946020474
 70
     0
  0
APPID
  2
GEVID946020475
 70
     0
  0
APPID
  2
GENIUS_GENOBJ-N-HTC_13
 70
     0
  0
APPID
  2
GENIUS_GENHATCH_13
 70
     0
  0
APPID
  2
GEVID948854295
 70
     0
  0
APPID
  2
GEVID939402019
 70
     0
  0
APPID
  2
GEVID952919491
 70
     0
  0
APPID
  2
GEVID952919492
 70
     0
  0
APPID
  2
GENIUS_GEFWELD_13
 70
     0
  0
APPID
  2
GENIUS_GENOBJ-F-WELS_13
 70
     0
  0
APPID
  2
GEVID952919493
 70
     0
  0
APPID
  2
GENIUS_GENOBJ-N-RSBK_13
 70
     0
  0
APPID
  2
GENIUS_GENOBJ-N-LIB_13
 70
     0
  0
APPID
  2
GENIUS_GENSCALE_13
 70
     0
  0
APPID
  2
GEVID986376691
 70
     0
  0
APPID
  2
DCO15
 70
     0
  0
APPID
  2
ACAD_DSTYLE_DIMBREAK
 70
     0
  0
APPID
  2
ACAD_DSTYLE_DIMJAG
 70
     0
  0
APPID
  2
ACAD_NAV_VCDISPLAY
 70
     0
  0
APPID
  2
ACADANNOPO
 70
     0
  0
APPID
  2
ACAD_EXEMPT_FROM_CAD_STANDARDS
 70
     0
  0
APPID
  2
ACAD_MLEADERVER
 70
     0
  0
ENDTAB
  0
TABLE
  2
DIMSTYLE
 70
    23
  0
DIMSTYLE
  2
STANDARD
 70
     0
  3

  4

  5

  6

  7

 40
1.0
 41
0.18
 42
0.0625
 43
0.38
 44
0.18
 45
0.0
 46
0.0
 47
0.0
 48
0.0
140
0.18
141
0.09
142
0.0
143
25.399999999999999
144
1.0
145
0.0
146
1.0
147
0.09
 71
     0
 72
     0
 73
     1
 74
     1
 75
     0
 76
     0
 77
     0
 78
     0
170
     0
171
     2
172
     0
173
     0
174
     0
175
     0
176
     0
177
     0
178
     0
  0
DIMSTYLE
  2
ANNOTATIVE
 70
     0
  3

  4

  5

  6

  7

 40
1.0
 41
0.18
 42
0.0625
 43
0.38
 44
0.18
 45
0.0
 46
0.0
 47
0.0
 48
0.0
140
0.18
141
0.09
142
0.0
143
25.399999999999999
144
1.0
145
0.0
146
1.0
147
0.09
 71
     0
 72
     0
 73
     1
 74
     1
 75
     0
 76
     0
 77
     0
 78
     0
170
     0
171
     2
172
     0
173
     0
174
     0
175
     0
176
     0
177
     0
178
     0
  0
DIMSTYLE
  2
AM_ISO
 70
     0
  3

  4
"
  5

  6

  7

 40
1.0
 41
2.5
 42
1.0
 43
8.0
 44
0.6
 45
0.0
 46
0.0
 47
0.1
 48
0.1
140
2.5
141
0.0
142
0.0
143
0.0393701
144
1.0
145
0.0
146
0.71
147
0.8
 71
     0
 72
     0
 73
     0
 74
     0
 75
     0
 76
     0
 77
     1
 78
     8
170
     0
171
     2
172
     1
173
     0
174
     0
175
     0
176
   256
177
   256
178
     4
  0
DIMSTYLE
  2
AM_ISO$3
 70
     0
  3

  4
"
  5

  6

  7

 40
1.0
 41
2.5
 42
1.0
 43
8.0
 44
0.6
 45
0.0
 46
0.0
 47
0.1
 48
0.1
140
2.5
141
0.0
142
0.0
143
0.0393701
144
1.0
145
0.0
146
0.71
147
0.8
 71
     0
 72
     0
 73
     0
 74
     1
 75
     0
 76
     0
 77
     1
 78
     8
170
     0
171
     2
172
     0
173
     0
174
     0
175
     0
176
   256
177
   256
178
     4
  0
DIMSTYLE
  2
AM_ISO$4
 70
     0
  3

  4
"
  5

  6

  7

 40
1.0
 41
2.5
 42
1.0
 43
8.0
 44
0.6
 45
0.0
 46
0.0
 47
0.1
 48
0.1
140
2.5
141
0.0
142
0.0
143
0.0393701
144
1.0
145
0.0
146
0.71
147
0.8
 71
     0
 72
     0
 73
     0
 74
     1
 75
     0
 76
     0
 77
     1
 78
     8
170
     0
171
     2
172
     0
173
     0
174
     0
175
     0
176
   256
177
   256
178
     4
  0
DIMSTYLE
  2
AM_ISO$6
 70
     0
  3

  4
"
  5

  6

  7

 40
1.0
 41
2.5
 42
1.0
 43
8.0
 44
0.6
 45
0.0
 46
0.0
 47
0.1
 48
0.1
140
2.5
141
0.0
142
0.0
143
0.0393701
144
1.0
145
0.0
146
0.71
147
0.8
 71
     0
 72
     0
 73
     0
 74
     0
 75
     0
 76
     0
 77
     0
 78
     8
170
     0
171
     2
172
     1
173
     0
174
     0
175
     0
176
   256
177
   256
178
     4
  0
DIMSTYLE
  2
AM_ISO$7
 70
     0
  3

  4
"
  5

  6

  7

 40
1.0
 41
2.5
 42
1.0
 43
8.0
 44
0.6
 45
0.0
 46
0.0
 47
0.1
 48
0.1
140
2.5
141
0.0
142
0.0
143
0.0393701
144
1.0
145
0.0
146
0.71
147
0.8
 71
     0
 72
     0
 73
     0
 74
     0
 75
     0
 76
     0
 77
     1
 78
     8
170
     0
171
     2
172
     1
173
     0
174
     0
175
     0
176
   256
177
   256
178
     4
  0
DIMSTYLE
  2
AM_ISO$SF
 70
     0
  3

  4
"
  5

  6

  7

 40
1.0
 41
2.5
 42
1.0
 43
10.0
 44
1.0
 45
0.0
 46
0.0
 47
0.1
 48
0.1
140
3.5
141
0.0
142
0.0
143
0.0393701
144
1.0
145
0.0
146
0.71
147
1.5
 71
     0
 72
     0
 73
     0
 74
     0
 75
     1
 76
     1
 77
     1
 78
     8
170
     0
171
     2
172
     1
173
     0
174
     0
175
     0
176
   256
177
   256
178
     2
  0
DIMSTYLE
  2
AM_ISO$SH
 70
     0
  3

  4
"
  5

  6

  7

 40
1.0
 41
2.5
 42
1.0
 43
10.0
 44
1.0
 45
0.0
 46
0.0
 47
0.1
 48
0.1
140
3.5
141
0.0
142
0.0
143
0.0393701
144
2.0
145
0.0
146
0.71
147
1.5
 71
     0
 72
     0
 73
     0
 74
     0
 75
     1
 76
     1
 77
     1
 78
     8
170
     0
171
     2
172
     1
173
     1
174
     0
175
     0
176
   256
177
   256
178
     2
  0
DIMSTYLE
  2
AM_JIS
 70
     0
  3

  4
"
  5

  6

  7

 40
1.0
 41
2.5
 42
1.0
 43
7.0
 44
1.0
 45
0.0
 46
0.0
 47
0.1
 48
0.1000000001
140
2.5
141
0.0
142
0.0
143
0.0393701
144
1.0
145
0.0
146
0.71
147
1.0
 71
     0
 72
     0
 73
     0
 74
     0
 75
     0
 76
     0
 77
     3
 78
     8
170
     0
171
     2
172
     1
173
     0
174
     0
175
     0
176
   256
177
   256
178
     4
  0
DIMSTYLE
  2
AM_JIS$3
 70
     0
  3

  4
"
  5

  6

  7

 40
1.0
 41
2.5
 42
1.0
 43
7.0
 44
1.0
 45
0.0
 46
0.0
 47
0.1
 48
0.1000000001
140
2.5
141
0.0
142
0.0
143
0.0393701
144
1.0
145
0.0
146
0.71
147
1.0
 71
     0
 72
     0
 73
     0
 74
     1
 75
     0
 76
     0
 77
     3
 78
     8
170
     0
171
     2
172
     0
173
     0
174
     0
175
     0
176
   256
177
   256
178
     4
  0
DIMSTYLE
  2
AM_JIS$4
 70
     0
  3

  4
"
  5

  6

  7

 40
1.0
 41
2.5
 42
1.0
 43
7.0
 44
1.0
 45
0.0
 46
0.0
 47
0.1
 48
0.1000000001
140
2.5
141
0.0
142
0.0
143
0.0393701
144
1.0
145
0.0
146
0.71
147
1.0
 71
     0
 72
     0
 73
     0
 74
     0
 75
     0
 76
     0
 77
     3
 78
     8
170
     0
171
     2
172
     0
173
     0
174
     0
175
     0
176
   256
177
   256
178
     4
  0
DIMSTYLE
  2
AM_JIS$6
 70
     0
  3

  4
"
  5

  6

  7

 40
1.0
 41
2.5
 42
1.0
 43
7.0
 44
1.0
 45
0.0
 46
0.0
 47
0.1
 48
0.1000000001
140
2.5
141
0.0
142
0.0
143
0.0393701
144
1.0
145
0.0
146
0.71
147
1.0
 71
     0
 72
     0
 73
     0
 74
     0
 75
     0
 76
     0
 77
     0
 78
     8
170
     0
171
     2
172
     1
173
     0
174
     0
175
     0
176
   256
177
   256
178
     4
  0
DIMSTYLE
  2
AM_JIS$7
 70
     0
  3

  4
"
  5

  6

  7

 40
1.0
 41
2.5
 42
1.0
 43
7.0
 44
1.0
 45
0.0
 46
0.0
 47
0.1
 48
0.1000000001
140
2.5
141
0.0
142
0.0
143
0.0393701
144
1.0
145
0.0
146
0.71
147
1.0
 71
     0
 72
     0
 73
     0
 74
     0
 75
     0
 76
     0
 77
     3
 78
     8
170
     0
171
     2
172
     1
173
     0
174
     0
175
     0
176
   256
177
   256
178
     4
  0
DIMSTYLE
  2
AM_JIS$SF
 70
     0
  3

  4
"
  5

  6

  7

 40
1.0
 41
2.5
 42
1.0
 43
10.0
 44
1.0
 45
0.0
 46
0.0
 47
0.1
 48
0.1
140
3.5
141
0.0
142
0.0
143
0.0393701
144
1.0
145
0.0
146
0.71
147
1.5
 71
     0
 72
     0
 73
     0
 74
     0
 75
     1
 76
     1
 77
     3
 78
     8
170
     0
171
     2
172
     1
173
     0
174
     0
175
     0
176
   256
177
   256
178
     4
  0
DIMSTYLE
  2
AM_JIS$SH
 70
     0
  3

  4
"
  5

  6

  7

 40
1.0
 41
2.5
 42
1.0
 43
10.0
 44
1.0
 45
0.0
 46
0.0
 47
0.1
 48
0.1
140
3.5
141
0.0
142
0.0
143
0.0393701
144
1.0
145
0.0
146
0.71
147
1.5
 71
     0
 72
     0
 73
     0
 74
     0
 75
     1
 76
     0
 77
     3
 78
     8
170
     0
171
     2
172
     1
173
     1
174
     0
175
     0
176
   256
177
   256
178
     4
  0
DIMSTYLE
  2
AM_ANSI
 70
     0
  3

  4
mm
  5

  6

  7

 40
1.0
 41
0.1
 42
0.05
 43
0.5
 44
0.1
 45
0.0
 46
0.0
 47
0.1
 48
0.1
140
0.12
141
0.0
142
0.0
143
25.399999999999999
144
1.0
145
0.0
146
0.71
147
0.06
 71
     0
 72
     0
 73
     1
 74
     1
 75
     0
 76
     0
 77
     0
 78
     7
170
     0
171
     2
172
     0
173
     0
174
     0
175
     0
176
   256
177
   256
178
     2
  0
DIMSTYLE
  2
AM_ANSI$3
 70
     0
  3

  4
mm
  5

  6

  7

 40
1.0
 41
0.1
 42
0.05
 43
0.5
 44
0.1
 45
0.0
 46
0.0
 47
0.1
 48
0.1
140
0.12
141
0.0
142
0.0
143
25.399999999999999
144
1.0
145
0.0
146
0.71
147
0.06
 71
     0
 72
     0
 73
     1
 74
     1
 75
     0
 76
     0
 77
     0
 78
     7
170
     0
171
     2
172
     0
173
     0
174
     0
175
     0
176
   256
177
   256
178
     2
  0
DIMSTYLE
  2
AM_ANSI$4
 70
     0
  3

  4
mm
  5

  6

  7

 40
1.0
 41
0.1
 42
0.05
 43
0.5
 44
0.1
 45
0.0
 46
0.0
 47
0.1
 48
0.1
140
0.12
141
0.0
142
0.0
143
25.399999999999999
144
1.0
145
0.0
146
0.71
147
0.06
 71
     0
 72
     0
 73
     1
 74
     1
 75
     0
 76
     0
 77
     0
 78
     7
170
     0
171
     2
172
     0
173
     0
174
     0
175
     0
176
   256
177
   256
178
     2
  0
DIMSTYLE
  2
AM_ANSI$7
 70
     0
  3

  4
mm
  5

  6

  7

 40
1.0
 41
0.1
 42
0.05
 43
0.5
 44
0.1
 45
0.0
 46
0.0
 47
0.1
 48
0.1
140
0.24
141
0.0
142
0.0
143
25.399999999999999
144
1.0
145
0.0
146
0.71
147
0.06
 71
     0
 72
     0
 73
     1
 74
     1
 75
     0
 76
     0
 77
     0
 78
     7
170
     0
171
     2
172
     0
173
     0
174
     0
175
     0
176
   256
177
   256
178
     2
  0
DIMSTYLE
  2
AM_ANSI$SF
 70
     0
  3

  4
mm
  5

  6

  7

 40
1.0
 41
0.1
 42
0.05
 43
0.5
 44
0.1
 45
0.0
 46
0.0
 47
0.1
 48
0.1
140
0.12
141
0.0
142
0.0
143
25.399999999999999
144
1.0
145
0.0
146
0.71
147
0.06
 71
     0
 72
     0
 73
     1
 74
     1
 75
     1
 76
     1
 77
     0
 78
     7
170
     0
171
     2
172
     0
173
     0
174
     0
175
     0
176
   256
177
   256
178
     2
  0
DIMSTYLE
  2
AM_ANSI$SH
 70
     0
  3

  4
mm
  5

  6

  7

 40
1.0
 41
0.1
 42
0.05
 43
0.5
 44
0.1
 45
0.0
 46
0.0
 47
0.1
 48
0.1
140
0.12
141
0.0
142
0.0
143
25.399999999999999
144
1.0
145
0.0
146
0.71
147
0.06
 71
     0
 72
     0
 73
     1
 74
     1
 75
     1
 76
     1
 77
     0
 78
     7
170
     0
171
     2
172
     0
173
     1
174
     0
175
     0
176
   256
177
   256
178
     2
  0
ENDTAB
  0
ENDSEC
  0
SECTION
  2
BLOCKS
  0
BLOCK
  8
0
  2
$MODEL_SPACE
 70
     0
 10
0.0
 20
0.0
 30
0.0
  3
$MODEL_SPACE
  1

  0
ENDBLK
  5
3312
  8
0
  0
BLOCK
 67
     1
  8
0
  2
$PAPER_SPACE
 70
     0
 10
0.0
 20
0.0
 30
0.0
  3
$PAPER_SPACE
  1

  0
ENDBLK
  5
330E
 67
     1
  8
0
  0
BLOCK
  8
0
  2
GENAXEH
 70
     0
 10
0.0
 20
0.0
 30
0.0
  3
GENAXEH
  1

  0
LINE
  5
30E7
  8
0
 10
-1.0
 20
0.0
 30
0.0
 11
1.0
 21
0.0
 31
0.0
  0
ENDBLK
  5
30E8
  8
0
  0
BLOCK
  8
0
  2
_OPEN30
 70
     0
 10
0.0
 20
0.0
 30
0.0
  3
_OPEN30
  1

  0
LINE
  5
30EB
  8
0
 62
     0
 10
-1.0
 20
0.26794919
 30
0.0
 11
0.0
 21
0.0
 31
0.0
  0
LINE
  5
30EC
  8
0
 62
     0
 10
0.0
 20
0.0
 30
0.0
 11
-1.0
 21
-0.26794919
 31
0.0
  0
LINE
  5
30ED
  8
0
 62
     0
 10
0.0
 20
0.0
 30
0.0
 11
-1.0
 21
0.0
 31
0.0
  0
ENDBLK
  5
30EE
  8
0
  0
BLOCK
  8
0
  2
_NONE
 70
     0
 10
0.0
 20
0.0
 30
0.0
  3
_NONE
  1

  0
ENDBLK
  5
30F1
  8
0
  0
BLOCK
  8
0
  2
_ACMFILLEDHALF
 70
     0
 10
0.0
 20
0.0
 30
0.0
  3
_ACMFILLEDHALF
  1

  0
TRACE
  5
3407
  8
AM_0
 62
     0
 10
-0.8
 20
0.0
 30
0.0
 11
-1.0
 21
0.166666666
 31
0.0
 12
0.0
 22
0.0
 32
0.0
 13
0.0
 23
0.0
 33
0.0
  0
LINE
  5
3408
  8
AM_0
 62
     0
 10
-1.0
 20
0.0
 30
0.0
 11
-0.8
 21
0.0
 31
0.0
  0
ENDBLK
  5
3406
  8
0
  0
ENDSEC
  0
SECTION
  2
ENTITIES
  0
LINE
  5
30F3
  8
ﾁｭｳｼﾝｾﾝ
 10
205.39660915533861
 20
476.17733136355912
 30
0.0
 11
396.22883928113282
 21
476.17733136355912
 31
0.0
  0
LINE
  5
30F4
  8
AM_0
 10
347.00917928113267
 20
546.17733136355923
 30
0.0
 11
347.00917928113267
 21
406.17733136355901
 31
0.0
  0
LINE
  5
30F5
  8
AM_0
 10
337.00914928113281
 20
409.39598136355892
 30
0.0
 11
337.00914928113281
 21
542.95867136355923
 31
0.0
  0
LINE
  5
30F6
  8
AM_0
 10
343.00914928113281
 20
391.17733136355912
 30
0.0
 11
343.00914928113281
 21
561.17733136355923
 31
0.0
  0
LINE
  5
30F7
  8
AM_0
 10
315.00914928113269
 20
546.56630136355921
 30
0.0
 11
315.00914928113269
 21
405.78835136355917
 31
0.0
  0
LINE
  5
30F8
  8
AM_0
 10
245.0091792811329
 20
419.67733136355912
 30
0.0
 11
245.0091792811329
 21
532.67733136355923
 31
0.0
  0
LINE
  5
30F9
  8
AM_0
 10
276.0091792811329
 20
407.30895136355917
 30
0.0
 11
276.0091792811329
 21
545.04570136355915
 31
0.0
  0
LINE
  5
30FA
  8
AM_0
 10
348.00914928113281
 20
450.64299136355908
 30
0.0
 11
348.00914928113281
 21
501.71163136355898
 31
0.0
  0
LINE
  5
30FB
  8
AM_0
 10
283.00914928113281
 20
547.17733136355923
 30
0.0
 11
283.00914928113281
 21
405.17733136355918
 31
0.0
  0
LINE
  5
30FC
  8
AM_0
 10
350.00911928113283
 20
488.6773013635592
 30
0.0
 11
350.00911928113283
 21
463.6773613635591
 31
0.0
  0
LINE
  5
30FD
  8
AM_0
 10
390.00914928113269
 20
488.17733136355918
 30
0.0
 11
390.00914928113269
 21
464.17733136355901
 31
0.0
  0
LINE
  5
30FE
  8
AM_0
 10
330.55198928113282
 20
414.01522136355919
 30
0.0
 11
317.46632928113269
 21
421.74428136355908
 31
0.0
  0
LINE
  5
30FF
  8
AM_0
 10
330.55198928113282
 20
417.49947136355911
 30
0.0
 11
317.46632928113269
 21
425.228531363559
 31
0.0
  0
LINE
  5
3100
  8
AM_0
 10
316.00914928113281
 20
428.4792113635591
 30
0.0
 11
331.00914928113281
 21
428.4792113635591
 31
0.0
  0
LINE
  5
3101
  8
AM_0
 10
317.93065928113282
 20
402.78936136355901
 30
0.0
 11
330.08769928113281
 21
402.47103136355912
 31
0.0
  0
ARC
  5
3102
  8
AM_0
 10
274.0091792811329
 20
408.96605136355919
 30
0.0
 40
2.0
 50
0.0
 51
90.000003000000945
  0
LINE
  5
3103
  8
AM_0
 10
245.0091792811329
 20
444.23739136355908
 30
0.0
 11
276.0091792811329
 21
444.23739136355908
 31
0.0
  0
LINE
  5
3104
  8
AM_0
 10
245.0091792811329
 20
430.17702136355911
 30
0.0
 11
276.0091792811329
 21
430.17702136355911
 31
0.0
  0
LINE
  5
3105
  8
AM_0
 10
271.00914928113269
 20
419.49651136355919
 30
0.0
 11
245.00920928113291
 21
420.17733136355912
 31
0.0
  0
LINE
  5
3106
  8
AM_0
 10
271.00914928113269
 20
412.96605136355919
 30
0.0
 11
271.00914928113269
 21
428.17702136355899
 31
0.0
  0
ARC
  5
3107
  8
AM_0
 10
273.00914928113281
 20
412.96605136355919
 30
0.0
 40
2.0
 50
180.00001000000091
 51
270.0
  0
LINE
  5
3108
  8
AM_0
 10
273.00914928113281
 20
410.96605136355907
 30
0.0
 11
274.0091792811329
 21
410.96605136355907
 31
0.0
  0
ARC
  5
3109
  8
AM_0
 10
269.00914928113269
 20
428.17702136355899
 30
0.0
 40
2.0
 50
0.0
 51
90.000003000000945
  0
LINE
  5
310A
  8
AM_0
 10
314.03273928113282
 20
404.3649513635591
 30
0.0
 11
277.95680928113291
 21
405.30962136355907
 31
0.0
  0
ARC
  5
310B
  8
AM_0
 10
278.0091792811329
 20
407.30895136355917
 30
0.0
 40
2.0
 50
180.00001000000091
 51
268.5000000000004
  0
ARC
  5
310C
  8
AM_0
 10
318.00914928113281
 20
405.78835136355917
 30
0.0
 40
3.0
 50
179.9999899999988
 51
268.50000999999872
  0
ARC
  5
310D
  8
AM_0
 10
313.95421928113268
 20
401.36596136355888
 30
0.0
 40
3.0
 50
47.481952000001627
 51
88.499997000000747
  0
ARC
  5
310E
  8
AM_0
 10
320.00914928113281
 20
426.04940136355913
 30
0.0
 40
5.0
 50
179.9999899999988
 51
239.431710000001
  0
ARC
  5
310F
  8
AM_0
 10
320.00914928113281
 20
429.53365136355887
 30
0.0
 40
5.0
 50
179.9999899999988
 51
239.431710000001
  0
ARC
  5
3110
  8
AM_0
 10
316.00914928113281
 20
429.47921136355922
 30
0.0
 40
1.0
 50
179.9999899999988
 51
270.0
  0
LINE
  5
3111
  8
AM_0
 10
333.00914928113281
 20
434.22567136355912
 30
0.0
 11
333.00914928113281
 21
393.4579413635592
 31
0.0
  0
LINE
  5
3112
  8
AM_0
 10
334.93931928113278
 20
391.45913136355921
 30
0.0
 11
343.00914928113281
 21
391.17733136355912
 31
0.0
  0
ARC
  5
3113
  8
AM_0
 10
335.00917928113279
 20
393.4579413635592
 30
0.0
 40
2.0
 50
179.9999899999988
 51
268.00000999999861
  0
LINE
  5
3114
  8
AM_0
 10
350.00911928113283
 20
464.17733136355901
 30
0.0
 11
390.00914928113269
 21
464.17733136355901
 31
0.0
  0
ARC
  5
3115
  8
AM_0
 10
336.00914928113281
 20
434.22567136355912
 30
0.0
 40
3.0
 50
90.000003000000945
 51
180.00001000000091
  0
ARC
  5
3116
  8
AM_0
 10
328.00914928113281
 20
413.19436136355898
 30
0.0
 40
5.0
 50
0.0
 51
59.431709000000481
  0
ARC
  5
3117
  8
AM_0
 10
334.00914928113281
 20
409.39598136355892
 30
0.0
 40
3.0
 50
270.0
 51
0.0
  0
ARC
  5
3118
  8
AM_0
 10
330.00914928113281
 20
399.47207136355911
 30
0.0
 40
3.0
 50
0.0
 51
88.499997000000747
  0
ARC
  5
3119
  8
AM_0
 10
328.00914928113281
 20
409.7101013635592
 30
0.0
 40
5.0
 50
0.0
 51
59.431709000000481
  0
LINE
  5
311A
  8
AM_0
 10
343.00914928113281
 20
406.17733136355901
 30
0.0
 11
347.00917928113267
 21
406.17733136355901
 31
0.0
  0
ARC
  5
311B
  8
AM_0
 10
331.00914928113281
 20
426.47921136355922
 30
0.0
 40
2.0
 50
0.0
 51
90.000003000000945
  0
ARC
  5
311C
  8
AM_0
 10
347.00914928113281
 20
450.64299136355908
 30
0.0
 40
1.0
 50
272.0000000000004
 51
0.0
  0
LINE
  5
311D
  8
AM_0
 10
347.00917928113267
 20
449.64241136355901
 30
0.0
 11
347.04402928113279
 21
449.64364136355908
 31
0.0
  0
LINE
  5
311E
  8
AM_0
 10
348.00914928113281
 20
463.6773613635591
 30
0.0
 11
350.00911928113283
 21
463.6773613635591
 31
0.0
  0
LINE
  5
311F
  8
AM_0
 10
330.55198928113282
 20
538.33941136355929
 30
0.0
 11
317.46632928113269
 21
530.61037136355912
 31
0.0
  0
LINE
  5
3120
  8
AM_0
 10
316.00914928113281
 20
523.87545136355925
 30
0.0
 11
331.00914928113281
 21
523.87545136355925
 31
0.0
  0
LINE
  5
3121
  8
AM_0
 10
330.55198928113282
 20
534.85518136355915
 30
0.0
 11
317.46632928113269
 21
527.12615136355896
 31
0.0
  0
LINE
  5
3122
  8
AM_0
 10
317.93062928113278
 20
549.56527136355919
 30
0.0
 11
330.08766928113278
 21
549.88359136355905
 31
0.0
  0
ARC
  5
3123
  8
AM_0
 10
278.0091792811329
 20
545.04570136355915
 30
0.0
 40
2.0
 50
91.500001000001546
 51
180.00001000000091
  0
ARC
  5
3124
  8
AM_0
 10
274.0091792811329
 20
543.38863136355906
 30
0.0
 40
2.0
 50
270.0
 51
0.0
  0
LINE
  5
3125
  8
AM_0
 10
245.0091792811329
 20
508.1172713635591
 30
0.0
 11
276.0091792811329
 21
508.1172713635591
 31
0.0
  0
LINE
  5
3126
  8
AM_0
 10
245.0091792811329
 20
522.17763136355904
 30
0.0
 11
276.0091792811329
 21
522.17763136355904
 31
0.0
  0
LINE
  5
3127
  8
AM_0
 10
271.0091792811329
 20
532.85817136355922
 30
0.0
 11
245.00920928113291
 21
532.17733136355923
 31
0.0
  0
LINE
  5
3128
  8
AM_0
 10
271.00914928113269
 20
539.38863136355906
 30
0.0
 11
271.00914928113269
 21
524.17763136355904
 31
0.0
  0
ARC
  5
3129
  8
AM_0
 10
269.00914928113269
 20
524.17763136355904
 30
0.0
 40
2.0
 50
270.0
 51
0.0
  0
ARC
  5
312A
  8
AM_0
 10
273.00914928113281
 20
539.38863136355906
 30
0.0
 40
2.0
 50
90.000003000000945
 51
180.00001000000091
  0
LINE
  5
312B
  8
AM_0
 10
273.00914928113281
 20
541.38863136355906
 30
0.0
 11
274.0091792811329
 21
541.38863136355906
 31
0.0
  0
ARC
  5
312C
  8
AM_0
 10
320.00914928113281
 20
526.30526136355923
 30
0.0
 40
5.0
 50
120.5682899999989
 51
180.00001000000091
  0
ARC
  5
312D
  8
AM_0
 10
320.00914928113281
 20
522.82100136355916
 30
0.0
 40
5.0
 50
120.5682899999989
 51
180.00001000000091
  0
ARC
  5
312E
  8
AM_0
 10
316.00914928113281
 20
522.87545136355925
 30
0.0
 40
1.0
 50
90.000003000000945
 51
180.00001000000091
  0
LINE
  5
312F
  8
AM_0
 10
314.03276928113269
 20
547.98973136355914
 30
0.0
 11
277.95683928113289
 21
547.04503136355913
 31
0.0
  0
ARC
  5
3130
  8
AM_0
 10
318.00914928113281
 20
546.56630136355921
 30
0.0
 40
3.0
 50
91.500001000001546
 51
180.00001000000091
  0
ARC
  5
3131
  8
AM_0
 10
313.95421928113268
 20
550.98867136355921
 30
0.0
 40
3.0
 50
271.49999999999932
 51
312.51811999999887
  0
ARC
  5
3132
  8
AM_0
 10
334.00914928113281
 20
542.95867136355923
 30
0.0
 40
3.0
 50
0.0
 51
90.000003000000945
  0
LINE
  5
3133
  8
AM_0
 10
333.00914928113281
 20
518.12899136355895
 30
0.0
 11
333.00914928113281
 21
558.89672136355921
 31
0.0
  0
LINE
  5
3134
  8
AM_0
 10
358.00914928113281
 20
480.1773013635592
 30
0.0
 11
390.00914928113269
 21
480.1773013635592
 31
0.0
  0
LINE
  5
3135
  8
AM_0
 10
358.00914928113281
 20
472.17733136355912
 30
0.0
 11
390.00914928113269
 21
472.17733136355912
 31
0.0
  0
LINE
  5
3136
  8
AM_0
 10
350.00911928113283
 20
488.17733136355918
 30
0.0
 11
390.00914928113269
 21
488.17733136355918
 31
0.0
  0
ARC
  5
3137
  8
AM_0
 10
347.00914928113281
 20
501.71163136355898
 30
0.0
 40
1.0
 50
0.0
 51
87.999999999999659
  0
LINE
  5
3138
  8
AM_0
 10
347.00917928113267
 20
502.71224136355897
 30
0.0
 11
347.04405928113277
 21
502.71102136355921
 31
0.0
  0
ARC
  5
3139
  8
AM_0
 10
358.00914928113281
 20
476.1773013635592
 30
0.0
 40
3.9999962
 50
90.000003000000945
 51
270.0
  0
LINE
  5
313A
  8
AM_0
 10
358.00914928113281
 20
480.1773013635592
 30
0.0
 11
358.00914928113281
 21
472.17733136355912
 31
0.0
  0
LINE
  5
313B
  8
AM_0
 10
348.00914928113281
 20
488.6773013635592
 30
0.0
 11
350.00911928113283
 21
488.6773013635592
 31
0.0
  0
ARC
  5
313C
  8
AM_0
 10
336.00914928113281
 20
518.12899136355895
 30
0.0
 40
3.0
 50
179.9999899999988
 51
270.0
  0
ARC
  5
313D
  8
AM_0
 10
331.00914928113281
 20
525.87545136355925
 30
0.0
 40
2.0
 50
270.0
 51
0.0
  0
ARC
  5
313E
  8
AM_0
 10
328.00914928113281
 20
539.16030136355926
 30
0.0
 40
5.0
 50
300.56828999999891
 51
0.0
  0
ARC
  5
313F
  8
AM_0
 10
328.00914928113281
 20
542.64455136355923
 30
0.0
 40
5.0
 50
300.56828999999891
 51
0.0
  0
LINE
  5
3140
  8
AM_0
 10
343.00914928113281
 20
546.17733136355923
 30
0.0
 11
347.00917928113267
 21
546.17733136355923
 31
0.0
  0
LINE
  5
3141
  8
AM_0
 10
334.93934928113282
 20
560.89553136355914
 30
0.0
 11
343.00911928113283
 21
561.17733136355923
 31
0.0
  0
ARC
  5
3142
  8
AM_0
 10
330.00914928113281
 20
552.88259136355919
 30
0.0
 40
3.0
 50
271.49999999999932
 51
0.0
  0
ARC
  5
3143
  8
AM_0
 10
335.00917928113279
 20
558.89672136355921
 30
0.0
 40
2.0
 50
91.999998000000545
 51
180.00001000000091
  0
LINE
  5
3144
  8
ﾁｭｳｼﾝｾﾝ
 10
393.7216192811332
 20
247.62466464989029
 30
0.0
 11
260.68688928113278
 21
247.62466464989029
 31
0.0
  0
LINE
  5
3145
  8
AM_0
 10
350.00909928113271
 20
259.62466464989029
 30
0.0
 11
390.00914928113269
 21
259.62466464989029
 31
0.0
  0
LINE
  5
3146
  8
AM_0
 10
350.00909928113271
 20
235.62466464989021
 30
0.0
 11
390.00914928113269
 21
235.62466464989021
 31
0.0
  0
LINE
  5
3147
  8
AM_0
 10
358.00910928113291
 20
262.62466464989018
 30
0.0
 11
390.00914928113269
 21
262.62466464989018
 31
0.0
  0
LINE
  5
3148
  8
0
 10
224.00915928113301
 20
305.62467864989031
 30
0.0
 11
224.00915928113301
 21
149.62467864989031
 31
0.0
1001
GENIUS_GENOREF_13
1005
2E32
  0
LINE
  5
3149
  8
0
 10
214.00915928113301
 20
147.62467864989031
 30
0.0
 11
214.00915928113301
 21
307.62467864989031
 31
0.0
1001
GENIUS_GENOREF_13
1005
2E32
  0
LINE
  5
314A
  8
AM_0
 10
271.00910928113291
 20
277.29180864989019
 30
0.0
 11
271.00910928113291
 21
257.65271064989031
 31
0.0
  0
LINE
  5
314B
  8
AM_0
 10
245.00915928113301
 20
171.6246776498902
 30
0.0
 11
245.00915928113301
 21
283.62466464989012
 31
0.0
  0
LINE
  5
314C
  8
AM_0
 10
276.0091792811329
 20
269.11898964989041
 30
0.0
 11
276.0091792811329
 21
158.62467564989021
 31
0.0
  0
LINE
  5
314D
  8
AM_0
 10
343.00910928113291
 20
165.1246616498903
 30
0.0
 11
343.00910928113291
 21
332.62468164989019
 31
0.0
  0
LINE
  5
314E
  8
AM_0
 10
315.00914928113269
 20
311.69863164989027
 30
0.0
 11
315.00914928113269
 21
266.46951264989042
 31
0.0
  0
LINE
  5
314F
  8
AM_0
 10
283.00910928113291
 20
298.62466464989012
 30
0.0
 11
283.00910928113291
 21
154.12467564989021
 31
0.0
  0
LINE
  5
3150
  8
AM_0
 10
337.00910928113291
 20
183.34333764989009
 30
0.0
 11
337.00910928113291
 21
314.40601164989027
 31
0.0
  0
LINE
  5
3151
  8
AM_0
 10
348.00914928113281
 20
221.67535464989029
 30
0.0
 11
348.00914928113281
 21
273.65341164989042
 31
0.0
  0
LINE
  5
3152
  8
0
 10
225.93936028772771
 20
170.45874659498759
 30
0.0
 11
245.00915928113301
 21
171.1246786498904
 31
0.0
  0
LINE
  5
3153
  8
ﾁｭｳｼﾝｾﾝ
 10
205.39660915533861
 20
227.62467864989031
 30
0.0
 11
279.14754209658719
 21
227.62467864989031
 31
0.0
  0
LINE
  5
3154
  8
AM_0
 10
245.00915928113301
 20
195.68723664989039
 30
0.0
 11
224.00915928113301
 21
195.68723664989039
 31
0.0
  0
LINE
  5
3155
  8
AM_0
 10
245.00915928113301
 20
181.62466164989041
 30
0.0
 11
224.00915928113301
 21
181.62466164989041
 31
0.0
  0
LINE
  5
3156
  8
AM_0
 10
245.00915928113301
 20
259.56211764989041
 30
0.0
 11
224.00915928113301
 21
259.56211764989041
 31
0.0
  0
LINE
  5
3157
  8
0
 10
214.00915928113301
 20
147.62467864989031
 30
0.0
 11
222.00915928113301
 21
147.62467864989031
 31
0.0
  0
ARC
  5
3158
  8
0
 10
222.00915928113301
 20
149.62467864989031
 30
0.0
 40
2.0
 50
270.0
 51
0.0
1001
GENIUS_GENOBJ-N-FIL_13
1002
{
1000
OWNER
1000
GEN
1002
}
1001
GENIUS_GENODEF_13
1002
{
1000
HIER
1070
     0
1002
}
1002
{
1000
MANEDIT
1070
     0
1002
}
1002
{
1000
NOSEL
1070
     0
1002
}
1002
{
1000
BEHIND
1070
     0
1002
}
1002
{
1000
OTHER
1070
     0
1002
}
1002
{
1000
REACTOR
1002
}
  0
ARC
  5
3159
  8
0
 10
226.00915928113301
 20
168.4599649409495
 30
0.0
 40
2.0
 50
92.000000000000341
 51
180.0
1001
GENIUS_GENOBJ-N-FIL_13
1002
{
1000
OWNER
1000
GEN
1002
}
1001
GENIUS_GENODEF_13
1002
{
1000
HIER
1070
     0
1002
}
1002
{
1000
MANEDIT
1070
     0
1002
}
1002
{
1000
NOSEL
1070
     0
1002
}
1002
{
1000
BEHIND
1070
     0
1002
}
1002
{
1000
OTHER
1070
     0
1002
}
1002
{
1000
REACTOR
1002
}
  0
LINE
  5
315A
  8
AM_0
 10
333.00914928113281
 20
167.4052406498902
 30
0.0
 11
333.00914928113281
 21
200.4703346498903
 31
0.0
  0
LINE
  5
315B
  8
AM_0
 10
347.0091292811328
 20
247.62466464989029
 30
0.0
 11
347.0091292811328
 21
177.6246776498902
 31
0.0
  0
ARC
  5
315C
  8
AM_0
 10
334.00910928113279
 20
183.34333764989009
 30
0.0
 40
3.0
 50
270.0
 51
0.0
  0
LINE
  5
315D
  8
AM_0
 10
283.00910928113291
 20
154.12467564989021
 30
0.0
 11
319.00910928113291
 21
152.62467564989029
 31
0.0
  0
LINE
  5
315E
  8
AM_0
 10
283.00910928113291
 20
164.7545906498903
 30
0.0
 11
319.00910928113291
 21
164.7545906498903
 31
0.0
  0
ARC
  5
315F
  8
AM_0
 10
268.00910928113291
 20
168.0213746498903
 30
0.0
 40
3.0
 50
0.0
 51
88.499997000000747
  0
ARC
  5
3160
  8
AM_0
 10
269.00915928113301
 20
176.4089336498904
 30
0.0
 40
2.00000007
 50
0.0
 51
90.000003000000945
  0
LINE
  5
3161
  8
AM_0
 10
245.00915928113301
 20
171.62466264989021
 30
0.0
 11
268.08764928113283
 21
171.0203366498904
 31
0.0
  0
ARC
  5
3162
  8
AM_0
 10
278.00915928113301
 20
158.62467564989021
 30
0.0
 40
2.00000007
 50
179.9999899999988
 51
270.0
  0
LINE
  5
3163
  8
AM_0
 10
278.00915928113301
 20
156.6246626498903
 30
0.0
 11
283.00910928113291
 21
156.6246626498903
 31
0.0
  0
LINE
  5
3164
  8
AM_0
 10
271.00910928113291
 20
176.4089336498904
 30
0.0
 11
271.00910928113291
 21
164.62467864989031
 31
0.0
  0
LINE
  5
3165
  8
AM_0
 10
271.00910928113291
 20
164.7545906498903
 30
0.0
 11
276.0091792811329
 21
164.7545906498903
 31
0.0
  0
ARC
  5
3166
  8
AM_0
 10
273.00917928113279
 20
162.7546046498903
 30
0.0
 40
2.00000007
 50
90.000003000000945
 51
110.7662300000014
  0
LINE
  5
3167
  8
AM_0
 10
271.00910928113291
 20
178.40891964989029
 30
0.0
 11
276.0091792811329
 21
178.40891964989029
 31
0.0
  0
LINE
  5
3168
  8
AM_0
 10
334.93934928113288
 20
165.40646064989011
 30
0.0
 11
343.009139281133
 21
165.1246616498903
 31
0.0
  0
LINE
  5
3169
  8
AM_0
 10
319.00910928113291
 20
168.03513864989031
 30
0.0
 11
319.00910928113291
 21
152.62467564989029
 31
0.0
  0
ARC
  5
316A
  8
AM_0
 10
320.0091292811328
 20
168.03513864989031
 30
0.0
 40
1.0000000199999981
 50
91.500001000001546
 51
180.00001000000091
  0
LINE
  5
316B
  8
AM_0
 10
319.98296928113291
 20
169.03480164989031
 30
0.0
 11
333.00914928113281
 21
169.3758986498903
 31
0.0
  0
ARC
  5
316C
  8
AM_0
 10
335.0091292811328
 20
167.4052406498902
 30
0.0
 40
2.00000007
 50
179.9999899999988
 51
268.00000999999861
  0
LINE
  5
316D
  8
AM_0
 10
343.00910928113291
 20
177.6246776498902
 30
0.0
 11
347.0091292811328
 21
177.6246776498902
 31
0.0
  0
LINE
  5
316E
  8
AM_0
 10
245.00915928113301
 20
195.68766564989039
 30
0.0
 11
276.0091792811329
 21
195.68766564989039
 31
0.0
  0
LINE
  5
316F
  8
AM_0
 10
245.00915928113301
 20
181.6246616498903
 30
0.0
 11
276.0091792811329
 21
181.6246616498903
 31
0.0
  0
LINE
  5
3170
  8
AM_0
 10
245.00915928113301
 20
259.56167664989039
 30
0.0
 11
271.00910928113291
 21
259.56167664989039
 31
0.0
  0
ARC
  5
3171
  8
AM_0
 10
269.00915928113301
 20
257.65271064989031
 30
0.0
 40
2.00000007
 50
270.0
 51
0.0
  0
LINE
  5
3172
  8
AM_0
 10
271.00910928113291
 20
255.6527246498901
 30
0.0
 11
276.0091792811329
 21
255.6527246498901
 31
0.0
  0
ARC
  5
3173
  8
AM_0
 10
336.00914928113281
 20
200.4703346498903
 30
0.0
 40
3.0
 50
90.000003000000945
 51
180.00001000000091
  0
ARC
  5
3174
  8
AM_0
 10
345.00914928113281
 20
221.67535464989029
 30
0.0
 40
3.0
 50
311.81031000000121
 51
0.0
  0
ARC
  5
3175
  8
AM_0
 10
320.0091292811328
 20
266.46951264989042
 30
0.0
 40
5.0000001000000003
 50
179.9999899999988
 51
270.0
  0
LINE
  5
3176
  8
AM_0
 10
320.0091292811328
 20
261.46952964989032
 30
0.0
 11
334.23989928113281
 21
261.46952964989032
 31
0.0
  0
LINE
  5
3177
  8
AM_0
 10
350.00909928113271
 20
260.12466564989018
 30
0.0
 11
350.00909928113271
 21
235.12467864989031
 31
0.0
  0
LINE
  5
3178
  8
AM_0
 10
348.00914928113281
 20
235.12467864989031
 30
0.0
 11
350.00909928113271
 21
235.12467864989031
 31
0.0
  0
LINE
  5
3179
  8
AM_0
 10
347.0091292811328
 20
247.62466464989029
 30
0.0
 11
347.0091292811328
 21
259.42762764989038
 31
0.0
  0
LINE
  5
317A
  8
AM_0
 10
343.00910928113291
 20
259.42762764989038
 30
0.0
 11
347.0091292811328
 21
259.42762764989038
 31
0.0
  0
LINE
  5
317B
  8
AM_0
 10
348.00914928113281
 20
260.12466564989018
 30
0.0
 11
350.00909928113271
 21
260.12466564989018
 31
0.0
  0
LINE
  5
317C
  8
AM_0
 10
358.00910928113291
 20
262.62466464989018
 30
0.0
 11
358.00910928113291
 21
259.62466464989029
 31
0.0
  0
LINE
  5
317D
  8
0
 10
225.93936028772771
 20
284.7906107047931
 30
0.0
 11
245.00915928113301
 21
284.12467864989031
 31
0.0
  0
LINE
  5
317E
  8
AM_0
 10
245.00915928113301
 20
273.62467764989037
 30
0.0
 11
224.00915928113301
 21
273.62467764989037
 31
0.0
  0
ARC
  5
317F
  8
0
 10
226.00915928113301
 20
286.78939235883098
 30
0.0
 40
2.0
 50
180.0
 51
267.9999999999996
1001
GENIUS_GENOBJ-N-FIL_13
1002
{
1000
OWNER
1000
GEN
1002
}
1001
GENIUS_GENODEF_13
1002
{
1000
HIER
1070
     0
1002
}
1002
{
1000
MANEDIT
1070
     0
1002
}
1002
{
1000
NOSEL
1070
     0
1002
}
1002
{
1000
BEHIND
1070
     0
1002
}
1002
{
1000
OTHER
1070
     0
1002
}
1002
{
1000
REACTOR
1002
}
  0
LINE
  5
3180
  8
0
 10
214.00915928113301
 20
307.62467864989031
 30
0.0
 11
222.00915928113301
 21
307.62467864989031
 31
0.0
  0
ARC
  5
3181
  8
0
 10
222.00915928113301
 20
305.62467864989031
 30
0.0
 40
2.0
 50
0.0
 51
90.0
1001
GENIUS_GENOBJ-N-FIL_13
1002
{
1000
OWNER
1000
GEN
1002
}
1001
GENIUS_GENODEF_13
1002
{
1000
HIER
1070
     0
1002
}
1002
{
1000
MANEDIT
1070
     0
1002
}
1002
{
1000
NOSEL
1070
     0
1002
}
1002
{
1000
BEHIND
1070
     0
1002
}
1002
{
1000
OTHER
1070
     0
1002
}
1002
{
1000
REACTOR
1002
}
  0
LINE
  5
3182
  8
AM_0
 10
283.00916928113247
 20
298.62466464989012
 30
0.0
 11
312.08765928113252
 21
299.38610964989027
 31
0.0
  0
LINE
  5
3183
  8
AM_0
 10
283.00910928113291
 20
276.42169164989031
 30
0.0
 11
313.32740928113282
 21
276.42169164989031
 31
0.0
  0
LINE
  5
3184
  8
AM_0
 10
245.00915928113301
 20
283.62466464989012
 30
0.0
 11
271.14002928113291
 21
284.30893164989038
 31
0.0
  0
LINE
  5
3185
  8
AM_0
 10
245.00915928113301
 20
273.62466564989018
 30
0.0
 11
271.00910928113291
 21
273.62466564989018
 31
0.0
  0
LINE
  5
3186
  8
AM_0
 10
276.0091792811329
 20
296.62466664989017
 30
0.0
 11
276.0091792811329
 21
281.29184064989028
 31
0.0
  0
ARC
  5
3187
  8
AM_0
 10
271.00910928113291
 20
289.30722264989032
 30
0.0
 40
5.0000001000000003
 50
271.49999999999932
 51
0.0
  0
ARC
  5
3188
  8
AM_0
 10
273.00917928113279
 20
277.29180864989019
 30
0.0
 40
2.00000007
 50
90.000003000000945
 51
180.00001000000091
  0
ARC
  5
3189
  8
AM_0
 10
273.00917928113279
 20
273.11901864989039
 30
0.0
 40
2.00000007
 50
179.9999899999988
 51
270.0
  0
LINE
  5
318A
  8
AM_0
 10
273.00917928113279
 20
271.11902064989027
 30
0.0
 11
274.00910928113291
 21
271.11902064989027
 31
0.0
  0
ARC
  5
318B
  8
AM_0
 10
274.00910928113291
 20
269.11898964989041
 30
0.0
 40
2.00000007
 50
0.0
 51
90.000003000000945
  0
LINE
  5
318C
  8
AM_0
 10
273.00917928113279
 20
279.29180964989041
 30
0.0
 11
274.00910928113291
 21
279.29180964989041
 31
0.0
  0
ARC
  5
318D
  8
AM_0
 10
274.00910928113291
 20
281.29184064989028
 30
0.0
 40
2.00000007
 50
270.0
 51
0.0
  0
ARC
  5
318E
  8
AM_0
 10
278.00915928113301
 20
296.62466664989017
 30
0.0
 40
2.00000007
 50
90.000003000000945
 51
180.00001000000091
  0
LINE
  5
318F
  8
AM_0
 10
278.00915928113301
 20
298.62466464989012
 30
0.0
 11
283.00910928113291
 21
298.62466464989012
 31
0.0
  0
LINE
  5
3190
  8
AM_0
 10
347.0091292811328
 20
286.24929864989031
 30
0.0
 11
347.0091292811328
 21
317.62465164989021
 31
0.0
  0
LINE
  5
3191
  8
AM_0
 10
333.00914928113281
 20
289.57632564989018
 30
0.0
 11
333.00914928113281
 21
330.34405164989028
 31
0.0
  0
ARC
  5
3192
  8
AM_0
 10
336.00914928113281
 20
289.57632564989018
 30
0.0
 40
3.0
 50
179.9999899999988
 51
270.0
  0
LINE
  5
3193
  8
AM_0
 10
316.45730928113312
 20
287.3533346498902
 30
0.0
 11
333.49457928113293
 21
287.3533346498902
 31
0.0
  0
LINE
  5
3194
  8
AM_0
 10
315.00914928113269
 20
293.85833964989018
 30
0.0
 11
331.33826928113263
 21
301.92816264989023
 31
0.0
  0
LINE
  5
3195
  8
AM_0
 10
317.0091292811328
 20
290.28183264989019
 30
0.0
 11
330.46520928113318
 21
290.28183264989019
 31
0.0
  0
ARC
  5
3196
  8
AM_0
 10
312.00917928113279
 20
302.38510164989032
 30
0.0
 40
3.0
 50
271.49999999999932
 51
0.0
  0
ARC
  5
3197
  8
AM_0
 10
317.0091292811328
 20
292.28183064989031
 30
0.0
 40
2.00000007
 50
179.9999899999988
 51
270.0
  0
ARC
  5
3198
  8
AM_0
 10
330.46520928113318
 20
287.2818326498903
 30
0.0
 40
3.0
 50
22.483536000001401
 51
90.000003000000945
  0
ARC
  5
3199
  8
AM_0
 10
330.00914928113281
 20
304.61764764989027
 30
0.0
 40
3.0
 50
296.29842999999852
 51
0.0
  0
LINE
  5
319A
  8
AM_0
 10
343.72136928113252
 20
279.85528764989027
 30
0.0
 11
347.00909928113282
 21
275.93707464989018
 31
0.0
  0
LINE
  5
319B
  8
AM_0
 10
347.00909928113282
 20
275.93707464989018
 30
0.0
 11
347.30723928113281
 21
275.58178764989032
 31
0.0
  0
ARC
  5
319C
  8
AM_0
 10
345.00914928113281
 20
273.65341164989042
 30
0.0
 40
3.0
 50
0.0
 51
39.999999000000308
  0
LINE
  5
319D
  8
AM_0
 10
343.00910928113291
 20
286.24929864989031
 30
0.0
 11
347.0091292811328
 21
286.24929864989031
 31
0.0
  0
ARC
  5
319E
  8
AM_0
 10
341.42324928113271
 20
277.92694164989013
 30
0.0
 40
3.0
 50
39.999999000000308
 51
58.08679700000102
  0
ARC
  5
319F
  8
AM_0
 10
334.00910928113279
 20
314.40601164989027
 30
0.0
 40
3.0
 50
0.0
 51
90.000003000000945
  0
LINE
  5
31A0
  8
AM_0
 10
334.9393192811329
 20
332.3428616498901
 30
0.0
 11
343.00910928113291
 21
332.62468164989019
 31
0.0
  0
ARC
  5
31A1
  8
AM_0
 10
335.0091292811328
 20
330.34405164989028
 30
0.0
 40
2.00000007
 50
91.999998000000545
 51
180.00001000000091
  0
ARC
  5
31A2
  8
AM_0
 10
320.0091292811328
 20
311.69863164989027
 30
0.0
 40
5.0000001000000003
 50
91.999998000000545
 51
180.00001000000091
  0
LINE
  5
31A3
  8
AM_0
 10
320.33462928113272
 20
316.69558164989019
 30
0.0
 11
330.11384928113262
 21
317.03707164989032
 31
0.0
  0
ARC
  5
31A4
  8
AM_0
 10
330.00914928113281
 20
320.03527164988998
 30
0.0
 40
3.0
 50
272.0000000000004
 51
0.0
  0
LINE
  5
31A5
  8
AM_0
 10
343.00910928113291
 20
317.62465164989021
 30
0.0
 11
347.0091292811328
 21
317.62465164989021
 31
0.0
  0
LINE
  5
31A6
  8
ﾁｭｳｼﾝｾﾝ
 10
569.82763065741824
 20
337.1229749251018
 30
0.0
 11
569.82763065741824
 21
145.7613806498903
 31
0.0
  0
LINE
  5
31A7
  8
AM_0
 10
484.82765865741789
 20
277.62466464989012
 30
0.0
 11
484.82765865741789
 21
247.62466464989029
 31
0.0
  0
LINE
  5
31A8
  8
AM_0
 10
654.82763265741801
 20
277.62466464989012
 30
0.0
 11
654.82763265741801
 21
247.62466464989029
 31
0.0
  0
ARC
  5
31A9
  8
AM_0
 10
628.13909265741825
 20
272.36865264989012
 30
0.0
 40
11.000000399999999
 50
311.14394000000038
 51
94.843180000001766
  0
ARC
  5
31AA
  8
AM_0
 10
511.51619565741828
 20
272.36865264989012
 30
0.0
 40
11.000000399999999
 50
85.156818000000143
 51
228.85605999999939
  0
ARC
  5
31AB
  8
AM_0
 10
569.82763065741824
 20
247.62466464989029
 30
0.0
 40
52.000007999999987
 50
137.75566999999961
 51
174.78408999999971
  0
ARC
  5
31AC
  8
AM_0
 10
569.82763065741824
 20
247.62466464989029
 30
0.0
 40
52.000007999999987
 50
5.215907700001436
 51
42.244334000000627
  0
ARC
  5
31AD
  8
AM_0
 10
569.82763065741824
 20
247.62466464989029
 30
0.0
 40
66.000003000000007
 50
168.1228399999984
 51
0.0000100179138904
  0
ARC
  5
31AE
  8
AM_0
 10
569.82763065741824
 20
247.62466464989029
 30
0.0
 40
70.000001999999995
 50
164.54750999999871
 51
0.0000100179138904
  0
ARC
  5
31AF
  8
AM_0
 10
569.82763065741824
 20
247.62466464989029
 30
0.0
 40
33.0
 50
0.0
 51
180.00001000000091
  0
ARC
  5
31B0
  8
AM_0
 10
569.82763065741824
 20
247.6246946498903
 30
0.0
 40
26.500002599999998
 50
270.0
 51
90.000003000000945
  0
ARC
  5
31B1
  8
AM_0
 10
569.82763065741824
 20
247.6246946498903
 30
0.0
 40
26.500002599999998
 50
90.000003000000945
 51
270.0
  0
LINE
  5
31B2
  8
AM_0
 10
528.87642465741851
 20
169.62469164989031
 30
0.0
 11
610.77884865741828
 21
169.62469164989031
 31
0.0
  0
LINE
  5
31B3
  8
ﾁｭｳｼﾝｾﾝ
 10
478.48955865741817
 20
247.62466464989029
 30
0.0
 11
658.44121965741829
 21
247.62466464989029
 31
0.0
  0
ARC
  5
31B4
  8
AM_0
 10
597.95491965741837
 20
159.71955564989031
 30
0.0
 40
7.0000007999999987
 50
270.00001999999853
 51
15.0805590000001
  0
ARC
  5
31B5
  8
AM_0
 10
569.82763065741824
 20
227.62467864989031
 30
0.0
 40
80.0
 50
294.44141315731082
 51
308.62481336808679
  0
ARC
  5
31B6
  8
AM_0
 10
609.54514365741807
 20
162.8286866498901
 30
0.0
 40
5.0000001000000003
 50
121.5067300000014
 51
195.0163499999997
  0
ARC
  5
31B7
  8
AM_0
 10
607.82764665741786
 20
227.62467864989031
 30
0.0
 40
5.0000001000000003
 50
179.9999899999988
 51
270.0
  0
LINE
  5
31B8
  8
AM_0
 10
390.00914928113269
 20
262.62466464989018
 30
0.0
 11
390.00914928113269
 21
235.62466464989021
 31
0.0
  0
LINE
  5
31B9
  8
ﾁｭｳｼﾝｾﾝ1
 10
490.12826865741829
 20
167.92530564989019
 30
0.0
 11
508.82353665741817
 21
186.62055864989031
 31
0.0
  0
LINE
  5
31BA
  8
AM_0
 10
484.82762865741819
 20
217.62466464989009
 30
0.0
 11
487.08239865741791
 21
174.60131664989009
 31
0.0
  0
ARC
  5
31BB
  8
ﾁｭｳｼﾝｾﾝ1
 10
569.82763065741824
 20
247.62466464989029
 30
0.0
 40
100.0000109999999
 50
217.75737999999939
 51
232.63991999999891
  0
CIRCLE
  5
31BC
  8
AM_0
 10
499.11696465741818
 20
176.91399864989029
 30
0.0
 40
6.0000002999999991
  0
LINE
  5
31BD
  8
AM_0
 10
538.82533965741823
 20
154.73991264989041
 30
0.0
 11
535.95034065741834
 21
159.71954064989021
 31
0.0
  0
ARC
  5
31BE
  8
AM_0
 10
541.70035365741785
 20
159.71955564989031
 30
0.0
 40
7.0000007999999987
 50
164.919440000001
 51
270.0
  0
CIRCLE
  5
31BF
  8
AM_0
 10
541.70035365741785
 20
159.71955564989031
 30
0.0
 40
4.9796462999999971
  0
LINE
  5
31C0
  8
AM_0
 10
535.95034065741834
 20
159.71955564989031
 30
0.0
 11
538.82533965741823
 21
164.69920164989031
 31
0.0
  0
LINE
  5
31C1
  8
AM_0
 10
497.0686846574182
 20
165.1246616498903
 30
0.0
 11
526.2783406574182
 21
165.1246616498903
 31
0.0
  0
ARC
  5
31C2
  8
AM_0
 10
497.0686846574182
 20
175.12467864989031
 30
0.0
 40
10.000000200000001
 50
183.00000999999961
 51
270.0
  0
ARC
  5
31C3
  8
AM_0
 10
569.82763065741824
 20
227.62467864989031
 30
0.0
 40
80.0
 50
231.3751866319131
 51
245.5586040101648
  0
ARC
  5
31C4
  8
AM_0
 10
569.82763065741824
 20
227.62467864989031
 30
0.0
 40
71.000000999999983
 50
234.7757899999998
 51
238.4932699999984
  0
LINE
  5
31C5
  8
AM_0
 10
526.2783406574182
 20
165.1246766498902
 30
0.0
 11
528.87642465741851
 21
169.6246766498902
 31
0.0
  0
ARC
  5
31C6
  8
AM_0
 10
530.11012965741816
 20
162.8286866498901
 30
0.0
 40
5.0000001000000003
 50
344.9836399999993
 51
56.872542999999951
  0
ARC
  5
31C7
  8
AM_0
 10
569.82763065741824
 20
227.62467864989031
 30
0.0
 40
80.0
 50
249.4414823499157
 51
290.55851765008413
  0
LINE
  5
31C8
  8
AM_0
 10
541.70035365741785
 20
152.71955664989031
 30
0.0
 11
597.95491965741837
 21
152.71955664989031
 31
0.0
  0
LINE
  5
31C9
  8
AM_0
 10
547.45033965741823
 20
159.71955564989031
 30
0.0
 11
544.57534065741834
 21
154.73991264989041
 31
0.0
  0
LINE
  5
31CA
  8
AM_0
 10
544.57534065741834
 20
154.73991264989041
 30
0.0
 11
538.82536965741815
 21
154.73991264989041
 31
0.0
  0
LINE
  5
31CB
  8
AM_0
 10
547.45035465741796
 20
159.71955564989031
 30
0.0
 11
544.5753556574183
 21
164.69920164989031
 31
0.0
  0
LINE
  5
31CC
  8
AM_0
 10
544.57534065741834
 20
164.69920164989031
 30
0.0
 11
538.82536965741815
 21
164.69920164989031
 31
0.0
  0
CIRCLE
  5
31CD
  8
AM_0
 10
597.95491965741837
 20
159.71955564989031
 30
0.0
 40
4.9796462999999971
  0
LINE
  5
31CE
  8
AM_0
 10
595.07991765741815
 20
154.73991264989041
 30
0.0
 11
592.20491865741815
 21
159.71954064989021
 31
0.0
  0
LINE
  5
31CF
  8
AM_0
 10
603.70491765741815
 20
159.71955564989031
 30
0.0
 11
600.82991865741815
 21
154.73991264989041
 31
0.0
  0
LINE
  5
31D0
  8
AM_0
 10
600.82991865741815
 20
154.73991264989041
 30
0.0
 11
595.079932657418
 21
154.73991264989041
 31
0.0
  0
LINE
  5
31D1
  8
AM_0
 10
600.82991865741815
 20
164.69920164989031
 30
0.0
 11
595.079932657418
 21
164.69920164989031
 31
0.0
  0
LINE
  5
31D2
  8
AM_0
 10
592.20491865741815
 20
159.71955564989031
 30
0.0
 11
595.07991765741815
 21
164.69920164989031
 31
0.0
  0
LINE
  5
31D3
  8
AM_0
 10
603.70491765741815
 20
159.71955564989031
 30
0.0
 11
600.829933657418
 21
164.69920164989031
 31
0.0
  0
LINE
  5
31D4
  8
AM_0
 10
484.82765865741789
 20
217.62466464989009
 30
0.0
 11
484.82765865741789
 21
247.62466464989029
 31
0.0
  0
ARC
  5
31D5
  8
AM_0
 10
514.82762865741824
 20
225.6246776498902
 30
0.0
 40
3.0
 50
270.0
 51
0.0
  0
ARC
  5
31D6
  8
AM_0
 10
531.82762665741825
 20
227.62467864989031
 30
0.0
 40
5.0000001000000003
 50
270.0
 51
0.0
  0
ARC
  5
31D7
  8
AM_0
 10
510.79375365741828
 20
225.6246776498902
 30
0.0
 40
3.0
 50
200.43878000000009
 51
270.0
  0
LINE
  5
31D8
  8
AM_0
 10
531.82762665741825
 20
222.62467764989029
 30
0.0
 11
510.79375365741828
 21
222.62467764989029
 31
0.0
  0
ARC
  5
31D9
  8
AM_0
 10
507.02635665741798
 20
242.62467864989031
 30
0.0
 40
3.0
 50
90.000003000000945
 51
184.55206999999911
  0
ARC
  5
31DA
  8
AM_0
 10
507.02635665741798
 20
252.62468064989031
 30
0.0
 40
3.0
 50
175.44793000000081
 51
270.0
  0
ARC
  5
31DB
  8
AM_0
 10
502.3048606574182
 20
261.82585164989013
 30
0.0
 40
3.0
 50
348.12283999999852
 51
48.856062999999523
  0
LINE
  5
31DC
  8
AM_0
 10
502.88969865741819
 20
259.42762764989038
 30
0.0
 11
502.88969865741819
 21
259.42762764989038
 31
0.0
  0
ARC
  5
31DD
  8
AM_0
 10
502.54237965741783
 20
257.45802264989032
 30
0.0
 40
2.00000007
 50
351.68541000000101
 51
79.999998000001099
  0
ARC
  5
31DE
  8
AM_0
 10
502.54237965741783
 20
257.45802264989032
 30
0.0
 40
2.00000007
 50
79.999998000001099
 51
171.6854100000009
  0
ARC
  5
31DF
  8
AM_0
 10
514.82762865741824
 20
242.62467864989031
 30
0.0
 40
3.0
 50
0.0
 51
90.000003000000945
  0
LINE
  5
31E0
  8
AM_0
 10
536.82762765741825
 20
247.62466464989029
 30
0.0
 11
536.82762765741825
 21
227.62467864989031
 31
0.0
  0
LINE
  5
31E1
  8
AM_0
 10
517.82762865741824
 20
242.62467864989031
 30
0.0
 11
517.82762865741824
 21
225.6246776498902
 31
0.0
  0
LINE
  5
31E2
  8
AM_0
 10
507.02635665741798
 20
249.62468064989011
 30
0.0
 11
515.05537965741803
 21
249.62468064989011
 31
0.0
  0
LINE
  5
31E3
  8
AM_0
 10
507.02635665741798
 20
245.62467864989031
 30
0.0
 11
514.82762865741824
 21
245.62467864989031
 31
0.0
  0
ARC
  5
31E4
  8
AM_0
 10
515.05537965741803
 20
252.62468064989031
 30
0.0
 40
3.0
 50
270.0
 51
354.78408999999971
  0
ARC
  5
31E5
  8
AM_0
 10
569.82763065741824
 20
247.62466464989029
 30
0.0
 40
12.00000029999998
 50
109.47121999999951
 51
70.528788999999293
  0
CIRCLE
  5
31E6
  8
AM_0
 62
     2
 10
569.82763065741824
 20
247.62466464989029
 30
0.0
 40
4.000000199999997
  0
CIRCLE
  5
31E7
  8
AM_0
 10
569.82763065741824
 20
247.62466464989029
 30
0.0
 40
3.0
  0
LINE
  5
31E8
  8
AM_0
 10
565.82761365741828
 20
255.62466564989029
 30
0.0
 11
573.82761465741817
 21
255.62466564989029
 31
0.0
  0
LINE
  5
31E9
  8
AM_0
 10
565.82761365741828
 20
262.62466464989018
 30
0.0
 11
573.82761465741817
 21
262.62466464989018
 31
0.0
  0
LINE
  5
31EA
  8
ﾁｭｳｼﾝｾﾝ
 10
608.49336297959326
 20
227.62467864989031
 30
0.0
 11
531.16189833524322
 21
227.62467864989031
 31
0.0
  0
LINE
  5
31EB
  8
AM_0
 10
565.82761365741828
 20
262.62466464989018
 30
0.0
 11
565.82761365741828
 21
255.62466564989029
 31
0.0
  0
LINE
  5
31EC
  8
AM_0
 10
602.82763065741824
 20
247.62466464989029
 30
0.0
 11
602.82763065741824
 21
227.62467864989031
 31
0.0
  0
LINE
  5
31ED
  8
AM_0
 10
573.82761465741817
 20
262.62466464989018
 30
0.0
 11
573.82761465741817
 21
255.62466564989029
 31
0.0
  0
LINE
  5
31EE
  8
AM_0
 10
654.82764765741854
 20
217.62466464989009
 30
0.0
 11
652.57288665741817
 21
174.60131664989009
 31
0.0
  0
CIRCLE
  5
31EF
  8
AM_0
 10
640.53830865741816
 20
176.91399864989029
 30
0.0
 40
6.0000002999999991
  0
LINE
  5
31F0
  8
AM_0
 10
613.37691765741852
 20
165.1246616498903
 30
0.0
 11
642.58658865741813
 21
165.1246616498903
 31
0.0
  0
LINE
  5
31F1
  8
AM_0
 10
613.37693265741825
 20
165.1246616498903
 30
0.0
 11
610.77884865741828
 21
169.6246766498902
 31
0.0
  0
ARC
  5
31F2
  8
AM_0
 10
569.82763065741824
 20
227.62467864989031
 30
0.0
 40
71.000000999999983
 50
301.50671999999992
 51
305.22421000000008
  0
ARC
  5
31F3
  8
AM_0
 10
642.58658865741813
 20
175.12467864989031
 30
0.0
 40
10.000000200000001
 50
270.0
 51
357.00000000000091
  0
ARC
  5
31F4
  8
AM_0
 10
624.82764465741832
 20
225.6246776498902
 30
0.0
 40
3.0
 50
179.9999899999988
 51
270.0
  0
ARC
  5
31F5
  8
AM_0
 10
628.86153465741813
 20
225.6246776498902
 30
0.0
 40
3.0
 50
270.0
 51
339.56121999999971
  0
LINE
  5
31F6
  8
AM_0
 10
654.82763265741801
 20
217.62466464989009
 30
0.0
 11
654.82763265741801
 21
247.62466464989029
 31
0.0
  0
LINE
  5
31F7
  8
AM_0
 10
607.82764665741786
 20
222.62467764989029
 30
0.0
 11
628.86153465741813
 21
222.62467764989029
 31
0.0
  0
ARC
  5
31F8
  8
AM_0
 10
569.82763065741824
 20
247.62466464989029
 30
0.0
 40
70.000001999999995
 50
0.0
 51
15.45248699999985
  0
ARC
  5
31F9
  8
AM_0
 10
637.11289365741823
 20
257.45802264989032
 30
0.0
 40
2.00000007
 50
8.314587399999116
 51
99.999999999998593
  0
ARC
  5
31FA
  8
AM_0
 10
624.82764465741832
 20
242.62467864989031
 30
0.0
 40
3.0
 50
90.000003000000945
 51
180.00001000000091
  0
ARC
  5
31FB
  8
AM_0
 10
632.62891665741824
 20
242.62467864989031
 30
0.0
 40
3.0
 50
355.44793000000089
 51
90.000003000000945
  0
LINE
  5
31FC
  8
AM_0
 10
621.82764465741832
 20
242.62467864989031
 30
0.0
 11
621.82764465741832
 21
225.6246776498902
 31
0.0
  0
ARC
  5
31FD
  8
AM_0
 10
624.59989365741853
 20
252.62468064989031
 30
0.0
 40
3.0
 50
185.21591000000021
 51
270.0
  0
ARC
  5
31FE
  8
AM_0
 10
569.82763065741824
 20
247.62466464989029
 30
0.0
 40
66.000003000000007
 50
0.0
 51
11.877162000000441
  0
LINE
  5
31FF
  8
AM_0
 10
632.62891665741824
 20
249.62468064989011
 30
0.0
 11
624.59989365741853
 21
249.62468064989011
 31
0.0
  0
LINE
  5
3200
  8
AM_0
 10
632.62891665741824
 20
245.62467864989031
 30
0.0
 11
624.82764465741832
 21
245.62467864989031
 31
0.0
  0
ARC
  5
3201
  8
AM_0
 10
632.62891665741824
 20
252.62468064989031
 30
0.0
 40
3.0
 50
270.0
 51
4.5520714000013554
  0
LINE
  5
3202
  8
AM_0
 10
636.76560465741818
 20
259.42762764989038
 30
0.0
 11
636.76560465741818
 21
259.42762764989038
 31
0.0
  0
ARC
  5
3203
  8
AM_0
 10
637.11289365741823
 20
257.45802264989032
 30
0.0
 40
2.00000007
 50
99.999999999998593
 51
188.31458999999879
  0
ARC
  5
3204
  8
AM_0
 10
637.35042765741832
 20
261.82585164989013
 30
0.0
 40
3.0
 50
131.14394000000021
 51
191.87716000000131
  0
ARC
  5
3205
  8
AM_0
 10
569.82763065741824
 20
247.62466464989029
 30
0.0
 40
66.000003000000007
 50
34.109954000000712
 51
145.8900399999994
  0
ARC
  5
3206
  8
AM_0
 10
569.82763065741824
 20
247.62466464989029
 30
0.0
 40
70.000001999999995
 50
30.534626999999471
 51
149.46537000000049
  0
LINE
  5
3207
  8
AM_0
 10
599.82764565741832
 20
332.62468164989019
 30
0.0
 11
643.09705665741842
 21
330.35704164989028
 31
0.0
  0
LINE
  5
3208
  8
AM_0
 10
612.43752465741829
 20
293.77008264989041
 30
0.0
 11
593.21688165741818
 21
274.54943964989042
 31
0.0
  0
LINE
  5
3209
  8
AM_0
 10
615.97304565741786
 20
290.23455864989018
 30
0.0
 11
596.75242065741816
 21
271.01391564989029
 31
0.0
  0
ARC
  5
320A
  8
AM_0
 10
569.82763065741824
 20
247.62466464989029
 30
0.0
 40
52.000007999999987
 50
47.755664999999908
 51
84.784094000000906
  0
LINE
  5
320B
  8
AM_0
 10
539.82764265741821
 20
332.62468164989019
 30
0.0
 11
496.55821665741843
 21
330.3570116498903
 31
0.0
  0
LINE
  5
320C
  8
AM_0
 10
523.68224265741833
 20
290.23452864989008
 30
0.0
 11
542.90287065741825
 21
271.01391564989029
 31
0.0
  0
LINE
  5
320D
  8
AM_0
 10
527.217763657418
 20
293.77008264989041
 30
0.0
 11
546.43840665741823
 21
274.54943964989042
 31
0.0
  0
LINE
  5
320E
  8
AM_0
 10
484.82765865741789
 20
277.62466464989012
 30
0.0
 11
487.0952986574182
 21
320.8940816498901
 31
0.0
  0
ARC
  5
320F
  8
AM_0
 10
515.29656165741835
 20
288.24929964989019
 30
0.0
 40
2.00000007
 50
143.31458000000069
 51
235.00001000000159
  0
CIRCLE
  5
3210
  8
AM_0
 10
511.51619565741828
 20
272.36865264989012
 30
0.0
 40
4.9796462999999971
  0
LINE
  5
3211
  8
AM_0
 10
514.39119465741805
 20
267.38900964989023
 30
0.0
 11
508.64119665741822
 21
267.38900964989023
 31
0.0
  0
LINE
  5
3212
  8
AM_0
 10
514.39119465741805
 20
277.34829864989041
 30
0.0
 11
508.64119665741822
 21
277.34829864989041
 31
0.0
  0
LINE
  5
3213
  8
AM_0
 10
508.64119665741822
 20
267.38903964989038
 30
0.0
 11
505.76619465741823
 21
272.36865264989012
 31
0.0
  0
LINE
  5
3214
  8
AM_0
 10
505.76619465741823
 20
272.36865264989012
 30
0.0
 11
508.64119665741822
 21
277.34832864989028
 31
0.0
  0
LINE
  5
3215
  8
AM_0
 10
517.26619665741828
 20
272.36868264989027
 30
0.0
 11
514.39119465741805
 21
267.38900964989023
 31
0.0
  0
LINE
  5
3216
  8
AM_0
 10
517.26616665741835
 20
272.36868264989027
 30
0.0
 11
514.39119465741805
 21
277.34829864989041
 31
0.0
  0
ARC
  5
3217
  8
AM_0
 10
512.69820165741805
 20
286.31869764989023
 30
0.0
 40
3.0
 50
265.15682000000152
 51
325.89004999999969
  0
ARC
  5
3218
  8
AM_0
 10
515.29656165741835
 20
288.24929964989019
 30
0.0
 40
2.00000007
 50
234.9999999999998
 51
323.31458999999938
  0
LINE
  5
3219
  8
AM_0
 10
514.14940365741825
 20
286.6109936498903
 30
0.0
 11
514.14940365741825
 21
286.6109936498903
 31
0.0
  0
ARC
  5
321A
  8
AM_0
 10
521.56090365741795
 20
288.1132226498903
 30
0.0
 40
3.0
 50
45.000000999999187
 51
140.0083900000005
  0
ARC
  5
321B
  8
AM_0
 10
529.33907265741823
 20
295.8913886498903
 30
0.0
 40
3.0
 50
129.9916099999993
 51
225.0
  0
ARC
  5
321C
  8
AM_0
 10
497.08159365741818
 20
320.37073164989027
 30
0.0
 40
10.000000200000001
 50
92.999998999998368
 51
176.99999000000011
  0
CIRCLE
  5
321D
  8
AM_0
 10
499.11696465741818
 20
318.33535164989007
 30
0.0
 40
6.0000002999999991
  0
LINE
  5
321E
  8
AM_0
 10
571.82764365741775
 20
310.42594164989032
 30
0.0
 11
571.82764365741775
 21
302.39694264989032
 31
0.0
  0
LINE
  5
321F
  8
AM_0
 10
567.82762965741813
 20
310.42594164989032
 30
0.0
 11
567.82762965741813
 21
302.39694264989032
 31
0.0
  0
ARC
  5
3220
  8
AM_0
 10
574.82764365741798
 20
302.39694264989032
 30
0.0
 40
3.0
 50
179.9999899999988
 51
264.78408999999971
  0
ARC
  5
3221
  8
AM_0
 10
548.55971565741834
 20
276.67077864989022
 30
0.0
 40
3.0
 50
225.0
 51
306.21205999999847
  0
ARC
  5
3222
  8
AM_0
 10
540.7815316574181
 20
268.89257964989031
 30
0.0
 40
3.0
 50
323.7879400000013
 51
45.000000999999187
  0
ARC
  5
3223
  8
AM_0
 10
564.82762965741813
 20
302.39694264989032
 30
0.0
 40
3.0
 50
275.21591000000029
 51
0.0
  0
ARC
  5
3224
  8
AM_0
 10
569.82763065741824
 20
247.62466464989029
 30
0.0
 40
52.000007999999987
 50
95.215910999999693
 51
132.2443300000003
  0
ARC
  5
3225
  8
AM_0
 10
591.09555765741788
 20
276.67077864989022
 30
0.0
 40
3.0
 50
233.78794000000141
 51
315.0
  0
ARC
  5
3226
  8
AM_0
 10
598.87374165741835
 20
268.89257964989031
 30
0.0
 40
3.0
 50
135.0
 51
216.2120599999985
  0
LINE
  5
3227
  8
AM_0
 10
599.82763065741824
 20
332.62468164989019
 30
0.0
 11
569.82763065741824
 21
332.62468164989019
 31
0.0
  0
ARC
  5
3228
  8
AM_0
 10
574.82764365741798
 20
310.42594164989032
 30
0.0
 40
3.0
 50
85.447927000001329
 51
180.00001000000091
  0
ARC
  5
3229
  8
AM_0
 10
564.82762965741813
 20
310.42594164989032
 30
0.0
 40
3.0
 50
0.0
 51
94.552070999998918
  0
LINE
  5
322A
  8
AM_0
 10
539.82762765741836
 20
332.62468164989019
 30
0.0
 11
569.82763065741824
 21
332.62468164989019
 31
0.0
  0
LINE
  5
322B
  8
ﾁｭｳｼﾝｾﾝ1
 10
649.64475465741805
 20
327.44179164988998
 30
0.0
 11
630.79137465741826
 21
308.5884116498903
 31
0.0
  0
ARC
  5
322C
  8
ﾁｭｳｼﾝｾﾝ1
 10
569.82763065741824
 20
247.62466464989029
 30
0.0
 40
100.0000109999999
 50
37.757374999999172
 51
52.639915999999452
  0
LINE
  5
322D
  8
AM_0
 10
654.82763265741801
 20
277.62466464989012
 30
0.0
 11
652.55997765741824
 21
320.8940816498901
 31
0.0
  0
ARC
  5
322E
  8
AM_0
 10
624.35872965741805
 20
288.24929964989019
 30
0.0
 40
2.00000007
 50
305.0
 51
36.685414000000087
  0
CIRCLE
  5
322F
  8
AM_0
 10
628.13913765741825
 20
272.36859264989027
 30
0.0
 40
4.9796462999999971
  0
LINE
  5
3230
  8
AM_0
 10
631.01413965741835
 20
267.38894664989027
 30
0.0
 11
625.26413865741824
 21
267.38894664989027
 31
0.0
  0
LINE
  5
3231
  8
AM_0
 10
631.01413965741835
 20
277.34826864989031
 30
0.0
 11
625.26413865741824
 21
277.34826864989031
 31
0.0
  0
LINE
  5
3232
  8
AM_0
 10
625.26412365741828
 20
267.3889766498902
 30
0.0
 11
622.38912465741839
 21
272.36859264989027
 31
0.0
  0
LINE
  5
3233
  8
AM_0
 10
622.38913965741835
 20
272.36859264989027
 30
0.0
 11
625.26413865741824
 21
277.34823564989023
 31
0.0
  0
LINE
  5
3234
  8
AM_0
 10
633.88912365741839
 20
272.36859264989027
 30
0.0
 11
631.01413965741835
 21
267.38894664989027
 31
0.0
  0
LINE
  5
3235
  8
AM_0
 10
633.88912365741839
 20
272.36862264989031
 30
0.0
 11
631.01413965741835
 21
277.34826864989031
 31
0.0
  0
ARC
  5
3236
  8
AM_0
 10
624.35872965741805
 20
288.24929964989019
 30
0.0
 40
2.00000007
 50
216.68541999999911
 51
305.0
  0
LINE
  5
3237
  8
AM_0
 10
625.50588465741805
 20
286.6109936498903
 30
0.0
 11
625.50588465741805
 21
286.6109936498903
 31
0.0
  0
ARC
  5
3238
  8
AM_0
 10
626.95708665741824
 20
286.31869764989023
 30
0.0
 40
3.0
 50
214.1099600000004
 51
274.84317999999843
  0
ARC
  5
3239
  8
AM_0
 10
610.31620065741822
 20
295.8913886498903
 30
0.0
 40
3.0
 50
315.0
 51
50.008388000000352
  0
ARC
  5
323A
  8
AM_0
 10
618.09436965741816
 20
288.1132226498903
 30
0.0
 40
3.0
 50
39.991611000000759
 51
135.0
  0
CIRCLE
  5
323B
  8
AM_0
 10
640.53830865741816
 20
318.33535164989007
 30
0.0
 40
6.0000002999999991
  0
ARC
  5
323C
  8
AM_0
 10
642.5736946574184
 20
320.37073164989027
 30
0.0
 40
10.000000200000001
 50
3.0000000999988461
 51
86.999999000000216
  0
ARC
  5
323E
  8
ﾁｭｳｼﾝｾﾝ1
 10
569.82763065741824
 20
247.62466464989029
 30
0.0
 40
100.0000109999999
 50
127.3600840000004
 51
142.2426250000008
  0
LINE
  5
323F
  8
ﾁｭｳｼﾝｾﾝ1
 10
490.0105066574182
 20
327.44179164988998
 30
0.0
 11
508.86388665741782
 21
308.5884116498903
 31
0.0
  0
ARC
  5
3240
  8
ﾁｭｳｼﾝｾﾝ1
 10
569.82763065741824
 20
247.62466464989029
 30
0.0
 40
100.0000109999999
 50
307.36008000000078
 51
322.24262000000039
  0
LINE
  5
3241
  8
ﾁｭｳｼﾝｾﾝ1
 10
649.52699265741819
 20
167.92530564989019
 30
0.0
 11
630.83172465741814
 21
186.62055864989031
 31
0.0
  0
LINE
  5
3242
  8
0
 10
214.00917928113279
 20
396.17733886355921
 30
0.0
 11
214.00917928113279
 21
556.17733886355904
 31
0.0
1001
GENIUS_GENOREF_13
1005
2FC4
  0
LINE
  5
3243
  8
0
 10
224.0091792811329
 20
554.17733886355927
 30
0.0
 11
224.0091792811329
 21
398.17733886355921
 31
0.0
1001
GENIUS_GENOREF_13
1005
2FC4
  0
LINE
  5
3244
  8
AM_0
 10
245.0091792811329
 20
430.17732186355931
 30
0.0
 11
224.0091792811329
 21
430.17732186355931
 31
0.0
  0
LINE
  5
3245
  8
AM_0
 10
245.0091792811329
 20
444.2398968635593
 30
0.0
 11
224.0091792811329
 21
444.2398968635593
 31
0.0
  0
LINE
  5
3246
  8
0
 10
225.9393802877276
 20
419.0114068086566
 30
0.0
 11
245.0091792811329
 21
419.67733886355921
 31
0.0
  0
LINE
  5
3247
  8
0
 10
214.00917928113279
 20
396.17733886355921
 30
0.0
 11
222.0091792811329
 21
396.17733886355921
 31
0.0
  0
ARC
  5
3248
  8
0
 10
222.0091792811329
 20
398.17733886355921
 30
0.0
 40
2.0
 50
270.0
 51
0.0
1001
GENIUS_GENOBJ-N-FIL_13
1002
{
1000
OWNER
1000
GEN
1002
}
1001
GENIUS_GENODEF_13
1002
{
1000
HIER
1070
     0
1002
}
1002
{
1000
MANEDIT
1070
     0
1002
}
1002
{
1000
NOSEL
1070
     0
1002
}
1002
{
1000
BEHIND
1070
     0
1002
}
1002
{
1000
OTHER
1070
     0
1002
}
1002
{
1000
REACTOR
1002
}
  0
ARC
  5
3249
  8
0
 10
226.0091792811329
 20
417.01262515461832
 30
0.0
 40
2.0
 50
92.000000000000341
 51
180.0
1001
GENIUS_GENOBJ-N-FIL_13
1002
{
1000
OWNER
1000
GEN
1002
}
1001
GENIUS_GENODEF_13
1002
{
1000
HIER
1070
     0
1002
}
1002
{
1000
MANEDIT
1070
     0
1002
}
1002
{
1000
NOSEL
1070
     0
1002
}
1002
{
1000
BEHIND
1070
     0
1002
}
1002
{
1000
OTHER
1070
     0
1002
}
1002
{
1000
REACTOR
1002
}
  0
LINE
  5
324A
  8
AM_0
 10
245.0091792811329
 20
522.17733786355905
 30
0.0
 11
224.0091792811329
 21
522.17733786355905
 31
0.0
  0
LINE
  5
324B
  8
0
 10
225.9393802877276
 20
533.34327091846205
 30
0.0
 11
245.0091792811329
 21
532.67733886355927
 31
0.0
  0
LINE
  5
324C
  8
AM_0
 10
245.0091792811329
 20
508.1147778635592
 30
0.0
 11
224.0091792811329
 21
508.1147778635592
 31
0.0
  0
ARC
  5
324D
  8
0
 10
226.0091792811329
 20
535.34205257250017
 30
0.0
 40
2.0
 50
180.0
 51
267.9999999999996
1001
GENIUS_GENOBJ-N-FIL_13
1002
{
1000
OWNER
1000
GEN
1002
}
1001
GENIUS_GENODEF_13
1002
{
1000
HIER
1070
     0
1002
}
1002
{
1000
MANEDIT
1070
     0
1002
}
1002
{
1000
NOSEL
1070
     0
1002
}
1002
{
1000
BEHIND
1070
     0
1002
}
1002
{
1000
OTHER
1070
     0
1002
}
1002
{
1000
REACTOR
1002
}
  0
LINE
  5
324E
  8
0
 10
214.00917928113279
 20
556.17733886355904
 30
0.0
 11
222.0091792811329
 21
556.17733886355904
 31
0.0
  0
ARC
  5
324F
  8
0
 10
222.0091792811329
 20
554.17733886355927
 30
0.0
 40
2.0
 50
0.0
 51
90.0
1001
GENIUS_GENOBJ-N-FIL_13
1002
{
1000
OWNER
1000
GEN
1002
}
1001
GENIUS_GENODEF_13
1002
{
1000
HIER
1070
     0
1002
}
1002
{
1000
MANEDIT
1070
     0
1002
}
1002
{
1000
NOSEL
1070
     0
1002
}
1002
{
1000
BEHIND
1070
     0
1002
}
1002
{
1000
OTHER
1070
     0
1002
}
1002
{
1000
REACTOR
1002
}
  0
TEXT
  5
342C
  8
AM_0
 10
459.84394318423517
 20
493.39629227676892
 30
0.0
 40
10.0
  1
VX01-060AF~VX01-200AF
  0
ENDSEC
  0
EOF
