  0
SECTION
  2
HEADER
  9
$ACADVER
  1
AC1009
  9
$INSBASE
 10
0.0
 20
0.0
 30
0.0
  9
$EXTMIN
 10
174.29184941911581
 20
124.97860480051671
 30
-0.0000000000112498
  9
$EXTMAX
 10
721.92482940971922
 20
591.9882195871561
 30
0.0000000000002956
  9
$LIMMIN
 10
0.0
 20
0.0
  9
$LIMMAX
 10
853.5
 20
555.00000000000011
  9
$ORTHOMODE
 70
     0
  9
$REGENMODE
 70
     1
  9
$FILLMODE
 70
     1
  9
$QTEXTMODE
 70
     0
  9
$MIRRTEXT
 70
     1
  9
$DRAGMODE
 70
     2
  9
$LTSCALE
 40
3.0
  9
$OSMODE
 70
   551
  9
$ATTMODE
 70
     1
  9
$TEXTSIZE
 40
2.5
  9
$TRACEWID
 40
1.0
  9
$TEXTSTYLE
  7
STANDARD
  9
$CLAYER
  8
AM_0
  9
$CELTYPE
  6
BYLAYER
  9
$CECOLOR
 62
   256
  9
$DIMSCALE
 40
1.0
  9
$DIMASZ
 40
2.5
  9
$DIMEXO
 40
1.0
  9
$DIMDLI
 40
8.0
  9
$DIMRND
 40
0.0
  9
$DIMDLE
 40
0.0
  9
$DIMEXE
 40
0.6
  9
$DIMTP
 40
0.1
  9
$DIMTM
 40
0.1
  9
$DIMTXT
 40
2.5
  9
$DIMCEN
 40
0.0
  9
$DIMTSZ
 40
0.0
  9
$DIMTOL
 70
     0
  9
$DIMLIM
 70
     0
  9
$DIMTIH
 70
     0
  9
$DIMTOH
 70
     0
  9
$DIMSE1
 70
     0
  9
$DIMSE2
 70
     0
  9
$DIMTAD
 70
     1
  9
$DIMZIN
 70
     8
  9
$DIMBLK
  1

  9
$DIMASO
 70
     1
  9
$DIMSHO
 70
     1
  9
$DIMPOST
  1

  9
$DIMAPOST
  1
"
  9
$DIMALT
 70
     0
  9
$DIMALTD
 70
     2
  9
$DIMALTF
 40
0.0393701
  9
$DIMLFAC
 40
1.0
  9
$DIMTOFL
 70
     1
  9
$DIMTVP
 40
0.0
  9
$DIMTIX
 70
     0
  9
$DIMSOXD
 70
     0
  9
$DIMSAH
 70
     0
  9
$DIMBLK1
  1

  9
$DIMBLK2
  1

  9
$DIMSTYLE
  2
AM_ISO
  9
$DIMCLRD
 70
   256
  9
$DIMCLRE
 70
   256
  9
$DIMCLRT
 70
     4
  9
$DIMTFAC
 40
0.71
  9
$DIMGAP
 40
0.8
  9
$LUNITS
 70
     2
  9
$LUPREC
 70
     2
  9
$SKETCHINC
 40
1.0
  9
$FILLETRAD
 40
15.0
  9
$AUNITS
 70
     0
  9
$AUPREC
 70
     0
  9
$MENU
  1
.
  9
$ELEVATION
 40
0.0
  9
$PELEVATION
 40
0.0
  9
$THICKNESS
 40
0.0
  9
$LIMCHECK
 70
     0
  9
$BLIPMODE
 70
     0
  9
$CHAMFERA
 40
6.0
  9
$CHAMFERB
 40
3.0
  9
$SKPOLY
 70
     0
  9
$TDCREATE
 40
2452065.6277114009
  9
$TDUPDATE
 40
2458541.5344928009
  9
$TDINDWG
 40
0.1738068866
  9
$TDUSRTIMER
 40
0.1738066898
  9
$USRTIMER
 70
     1
  9
$ANGBASE
 50
0.0
  9
$ANGDIR
 70
     0
  9
$PDMODE
 70
     0
  9
$PDSIZE
 40
0.0
  9
$PLINEWID
 40
0.0
  9
$COORDS
 70
     1
  9
$SPLFRAME
 70
     0
  9
$SPLINETYPE
 70
     6
  9
$SPLINESEGS
 70
     8
  9
$ATTDIA
 70
     1
  9
$ATTREQ
 70
     1
  9
$HANDLING
 70
     1
  9
$HANDSEED
  5
3492
  9
$SURFTAB1
 70
     6
  9
$SURFTAB2
 70
     6
  9
$SURFTYPE
 70
     6
  9
$SURFU
 70
     6
  9
$SURFV
 70
     6
  9
$UCSNAME
  2

  9
$UCSORG
 10
0.0
 20
0.0
 30
0.0
  9
$UCSXDIR
 10
1.0
 20
0.0
 30
0.0
  9
$UCSYDIR
 10
0.0
 20
1.0
 30
0.0
  9
$PUCSNAME
  2

  9
$PUCSORG
 10
0.0
 20
0.0
 30
0.0
  9
$PUCSXDIR
 10
1.0
 20
0.0
 30
0.0
  9
$PUCSYDIR
 10
0.0
 20
1.0
 30
0.0
  9
$USERI1
 70
     0
  9
$USERI2
 70
     0
  9
$USERI3
 70
     0
  9
$USERI4
 70
     0
  9
$USERI5
 70
     0
  9
$USERR1
 40
0.0
  9
$USERR2
 40
0.0
  9
$USERR3
 40
0.0
  9
$USERR4
 40
0.0
  9
$USERR5
 40
0.0
  9
$WORLDVIEW
 70
     1
  9
$SHADEDGE
 70
     3
  9
$SHADEDIF
 70
    70
  9
$TILEMODE
 70
     1
  9
$MAXACTVP
 70
    64
  9
$PLIMCHECK
 70
     0
  9
$PEXTMIN
 10
1.0000000000000000E+020
 20
1.0000000000000000E+020
 30
1.0000000000000000E+020
  9
$PEXTMAX
 10
-1.0000000000000000E+020
 20
-1.0000000000000000E+020
 30
-1.0000000000000000E+020
  9
$PLIMMIN
 10
0.0
 20
0.0
  9
$PLIMMAX
 10
420.0
 20
297.0
  9
$UNITMODE
 70
     0
  9
$VISRETAIN
 70
     1
  9
$PLINEGEN
 70
     0
  9
$PSLTSCALE
 70
     1
  0
ENDSEC
  0
SECTION
  2
TABLES
  0
TABLE
  2
VPORT
 70
     1
  0
VPORT
  2
*ACTIVE
 70
     0
 10
0.0
 20
0.0
 11
1.0
 21
1.0
 12
448.10833941441751
 22
358.4834121938365
 13
0.0
 23
0.0
 14
7.5
 24
7.5
 15
30.0
 25
30.0
 16
0.0
 26
0.0
 36
1.0
 17
0.0
 27
0.0
 37
0.0
 40
470.21563044879019
 41
1.7571592210767459
 42
50.0
 43
0.0
 44
0.0
 50
0.0
 51
0.0
 71
     0
 72
   100
 73
     1
 74
     3
 75
     0
 76
     0
 77
     0
 78
     0
  0
ENDTAB
  0
TABLE
  2
LTYPE
 70
    26
  0
LTYPE
  2
CONTINUOUS
 70
     0
  3
Solid line
 72
    65
 73
     0
 40
0.0
  0
LTYPE
  2
AM_ISO02W050
 70
     0
  3
__ __ __ __ __ __ __ __ __ __ __ __ __ __ __
 72
    65
 73
     2
 40
7.5
 49
6.0
 49
-1.5
  0
LTYPE
  2
AM_ISO08W050
 70
     0
  3
____ . ____ . ____ . ____ . ____ . ____ . ____
 72
    65
 73
     4
 40
18.0
 49
12.0
 49
-1.5
 49
3.0
 49
-1.5
  0
LTYPE
  2
AM_ISO09W050
 70
     0
  3
_____ . . _____ . . _____ . . ____ .. ____
 72
    65
 73
     6
 40
22.5
 49
12.0
 49
-1.5
 49
3.0
 49
-1.5
 49
3.0
 49
-1.5
  0
LTYPE
  2
AMCONSTR
 70
     0
  3
_______________________
 72
    65
 73
     2
 40
9999.0
 49
9999.0
 49
0.0
  0
LTYPE
  2
AM_ISO08W050X2
 70
     0
  3
__ . __ . __ . __ . __ . __
 72
    65
 73
     4
 40
9.0
 49
6.0
 49
-0.75
 49
1.5
 49
-0.75
  0
LTYPE
  2
AM_ISO02W050X2
 70
     0
  3
 _ _ _ _ _ _ _ _ _ _ _ _
 72
    65
 73
     2
 40
3.75
 49
3.0
 49
-0.75
  0
LTYPE
  2
AMZIGZAG
 70
     0
  3
/\/-/\/-/\/-/\/-/\/-/\/
 72
    65
 73
     2
 40
11.000099999999991
 49
0.0001
 49
-11.0
  0
LTYPE
  2
ACISOWELD
 70
     0
  3
_ _ _ _ _
 72
    65
 73
     2
 40
2.0
 49
2.0
 49
-1.0
  0
LTYPE
  2
ACISOTGB
 70
     0
  3
__ . . __ . .
 72
    65
 73
     6
 40
9.0
 49
4.0
 49
-1.0
 49
1.0
 49
-1.0
 49
1.0
 49
-1.0
  0
LTYPE
  2
ACISOTGL
 70
     0
  3
_ _ _ _ _
 72
    65
 73
     2
 40
3.0
 49
2.0
 49
-1.0
  0
LTYPE
  2
CENTER
 70
     0
  3
__ . __
 72
    65
 73
     4
 40
7.0
 49
4.0
 49
-1.0
 49
1.0
 49
-1.0
  0
LTYPE
  2
PHANTOM2
 70
     0
  3
Phantom (.5x) ___ _ _ ___ _ _ ___ _ _ ___ _ _
 72
    65
 73
     6
 40
31.75
 49
15.875
 49
-3.174999999999998
 49
3.174999999999998
 49
-3.174999999999998
 49
3.174999999999998
 49
-3.174999999999998
  0
LTYPE
  2
ACANSTGBM
 70
     0
  3
__ . . __ . .
 72
    65
 73
     6
 40
9.0
 49
4.0
 49
-1.0
 49
1.0
 49
-1.0
 49
1.0
 49
-1.0
  0
LTYPE
  2
ACANSTGLM
 70
     0
  3
_ _ _ _ _
 72
    65
 73
     2
 40
3.0
 49
2.0
 49
-1.0
  0
LTYPE
  2
GEN7
 70
     0
  3
____ . ____ . ____ . ____ . ____ . ____ . ____
 72
    65
 73
     4
 40
14.25
 49
9.75
 49
-1.5
 49
1.5
 49
-1.5
  0
LTYPE
  2
GEN7A
 70
     0
  3
__ . __ . __
 72
    65
 73
     4
 40
7.375
 49
4.75
 49
-0.875
 49
0.875
 49
-0.875
  0
LTYPE
  2
ACJISTGB
 70
     0
  3
__ . . __ . .
 72
    65
 73
     6
 40
9.0
 49
4.0
 49
-1.0
 49
1.0
 49
-1.0
 49
1.0
 49
-1.0
  0
LTYPE
  2
ACJISTGL
 70
     0
  3
_ _ _ _ _
 72
    65
 73
     2
 40
3.0
 49
2.0
 49
-1.0
  0
LTYPE
  2
HIDDEN
 70
     0
  3
Hidden __ __ __ __ __ __ __ __ __ __ __ __ __ _
 72
    65
 73
     2
 40
0.375
 49
0.25
 49
-0.125
  0
LTYPE
  2
CENTER2
 70
     0
  3
Center (.5x) ___ _ ___ _ ___ _ ___ _ ___ _ ___
 72
    65
 73
     4
 40
1.125
 49
0.75
 49
-0.125
 49
0.125
 49
-0.125
  0
LTYPE
  2
HIDDEN2
 70
     0
  3
Hidden (.5x) _ _ _ _ _ _ _ _ _ _ _ _ _ _ _ _ _
 72
    65
 73
     2
 40
0.1875
 49
0.125
 49
-0.0625
  0
LTYPE
  2
AMZIGZAG2
 70
     0
  3
/\/-/\/-/\/-/\/-/\/-/\/
 72
    65
 73
     2
 40
0.4401
 49
0.0001
 49
-0.4400000000000002
  0
LTYPE
  2
ACANSTGB
 70
     0
  3
__ . . __ . .
 72
    65
 73
     6
 40
0.35433070866
 49
0.15748031496
 49
-0.03937007874
 49
0.03937007874
 49
-0.03937007874
 49
0.03937007874
 49
-0.03937007874
  0
LTYPE
  2
ACANSTGL
 70
     0
  3
_ _ _ _ _
 72
    65
 73
     2
 40
0.11811023622
 49
0.07874015748
 49
-0.03937007874
  0
ENDTAB
  0
TABLE
  2
LAYER
 70
     5
  0
LAYER
  2
0
 70
     0
 62
     7
  6
CONTINUOUS
  0
LAYER
  2
AM_0
 70
     0
 62
     7
  6
CONTINUOUS
  0
LAYER
  2
DEFPOINTS
 70
     0
 62
     7
  6
CONTINUOUS
  0
LAYER
  2
ﾁｭｳｼﾝｾﾝ
 70
     0
 62
     1
  6
GEN7
  0
LAYER
  2
ﾁｭｳｼﾝｾﾝ1
 70
     0
 62
     1
  6
GEN7A
  0
ENDTAB
  0
TABLE
  2
STYLE
 70
     9
  0
STYLE
  2
STANDARD
 70
     0
 40
0.0
 41
0.8299999999999999
 50
0.0
 71
     0
 42
2.5
  3
txt.shx
  4
bigfont.shx
  0
STYLE
  2
ANNOTATIVE
 70
     0
 40
0.0
 41
1.0
 50
0.0
 71
     0
 42
0.2
  3
txt
  4

  0
STYLE
  2

 70
     1
 40
0.0
 41
1.0
 50
0.0
 71
     0
 42
2.5
  3
ltypeshp.shx
  4

  0
STYLE
  2
ACISOTS
 70
     0
 40
1.0
 41
1.0
 50
0.0
 71
     0
 42
2.5
  3
isocp.shx
  4
extfont.shx
  0
STYLE
  2
ACISOGDT
 70
     0
 40
0.0
 41
1.0
 50
0.0
 71
     0
 42
2.5
  3
amgdt.shx
  4

  0
STYLE
  2
ACANSTS
 70
     0
 40
1.0
 41
1.0
 50
0.0
 71
     0
 42
2.5
  3
romans.shx
  4
bigfont.shx
  0
STYLE
  2
ACANSGDT
 70
     0
 40
0.0
 41
1.0
 50
0.0
 71
     0
 42
2.5
  3
amgdt.shx
  4

  0
STYLE
  2
ACJISTS
 70
     0
 40
1.0
 41
1.0
 50
0.0
 71
     0
 42
2.5
  3
isocp.shx
  4
bigfont.shx
  0
STYLE
  2
ACJISGDT
 70
     0
 40
0.0
 41
1.0
 50
0.0
 71
     0
 42
2.5
  3
amgdt.shx
  4

  0
ENDTAB
  0
TABLE
  2
VIEW
 70
     6
  0
VIEW
  2
AM_VIEW1
 70
     0
 40
277.49999999999989
 10
249.64779005524849
 20
416.24999999999989
 41
499.2955801104971
 11
0.0
 21
0.0
 31
1.0
 12
0.0
 22
0.0
 32
0.0
 42
50.0
 43
0.0
 44
0.0
 50
0.0
 71
     0
  0
VIEW
  2
AM_VIEW2
 70
     0
 40
277.49999999999989
 10
603.85220994475117
 20
416.24999999999989
 41
499.2955801104971
 11
0.0
 21
0.0
 31
1.0
 12
0.0
 22
0.0
 32
0.0
 42
50.0
 43
0.0
 44
0.0
 50
0.0
 71
     0
  0
VIEW
  2
AM_VIEW3
 70
     0
 40
277.49999999999989
 10
249.64779005524849
 20
138.7499999999998
 41
499.2955801104971
 11
0.0
 21
0.0
 31
1.0
 12
0.0
 22
0.0
 32
0.0
 42
50.0
 43
0.0
 44
0.0
 50
0.0
 71
     0
  0
VIEW
  2
AM_VIEW4
 70
     0
 40
277.49999999999989
 10
603.85220994475117
 20
138.7499999999998
 41
499.2955801104971
 11
0.0
 21
0.0
 31
1.0
 12
0.0
 22
0.0
 32
0.0
 42
50.0
 43
0.0
 44
0.0
 50
0.0
 71
     0
  0
VIEW
  2
AM_VIEW5
 70
     0
 40
277.5
 10
426.75
 20
277.49999999999989
 41
499.2955801104971
 11
0.0
 21
0.0
 31
1.0
 12
0.0
 22
0.0
 32
0.0
 42
50.0
 43
0.0
 44
0.0
 50
0.0
 71
     0
  0
VIEW
  2
AM_VIEW6
 70
     0
 40
554.99445000000014
 10
426.75
 20
277.49999999999989
 41
998.5811743093924
 11
0.0
 21
0.0
 31
1.0
 12
0.0
 22
0.0
 32
0.0
 42
50.0
 43
0.0
 44
0.0
 50
0.0
 71
     0
  0
ENDTAB
  0
TABLE
  2
UCS
 70
     0
  0
ENDTAB
  0
TABLE
  2
APPID
 70
    95
  0
APPID
  2
ACAD
 70
     0
  0
APPID
  2
ACADANNOTATIVE
 70
     0
  0
APPID
  2
MCAD_NO_VIS
 70
     0
  0
APPID
  2
ACAD_TEMP_GRAPHIC
 70
     0
  0
APPID
  2
ACATTRIBSERVICES
 70
     0
  0
APPID
  2
GENIUS_GENREC_14
 70
     0
  0
APPID
  2
GENIUS_GENOBJ-N-REC_13
 70
     0
  0
APPID
  2
GENIUS_GENODEF_13
 70
     0
  0
APPID
  2
GENIUS_GENOLIS_13
 70
     0
  0
APPID
  2
GENIUS_GENOBJ-N-TIT_13
 70
     0
  0
APPID
  2
GENIUS_GENOENT_13
 70
     0
  0
APPID
  2
GENIUS_GENTITLE_13
 70
     0
  0
APPID
  2
GENIUS_GENOREF_13
 70
     0
  0
APPID
  2
GENIUS_GENSCREG_15
 70
     0
  0
APPID
  2
GENIUS_GENOBJ-N-SDF_13
 70
     0
  0
APPID
  2
GENIUS_GENFIL_13
 70
     0
  0
APPID
  2
GENIUS_GENOBJ-N-CHA_13
 70
     0
  0
APPID
  2
GENIUS_GENDTOL_13
 70
     0
  0
APPID
  2
GENIUS_GENOBJ-N-FIL_13
 70
     0
  0
APPID
  2
AD_DRAW
 70
     0
  0
APPID
  2
DESIGNERASSEMBLIES
 70
     0
  0
APPID
  2
ASURF_PCURVE_APPNAME
 70
     0
  0
APPID
  2
GENIUS_GE3SECT_13
 70
     0
  0
APPID
  2
GENIUS_GENCFG_13
 70
     0
  0
APPID
  2
GENIUS_GE3CFG0_13
 70
     0
  0
APPID
  2
GENIUS_GENCFG0_13
 70
     0
  0
APPID
  2
GENIUS_GENCFG1_13
 70
     0
  0
APPID
  2
GENIUS_GENCFG2_13
 70
     0
  0
APPID
  2
GENIUS_GENCFG3_13
 70
     0
  0
APPID
  2
GENIUS_GENCFG4_13
 70
     0
  0
APPID
  2
GENIUS_GEVCFG0_13
 70
     0
  0
APPID
  2
GENIUS_GENHINW_13
 70
     0
  0
APPID
  2
GENIUS_FIRSTVISTXT_14
 70
     0
  0
APPID
  2
GENIUS_GENOBJ-N-LEADER_13
 70
     0
  0
APPID
  2
GEV_VCCNULL_SWITCH_OFF
 70
     0
  0
APPID
  2
GENIUS_GEFCFG0_13
 70
     0
  0
APPID
  2
GENIUS_GENZVEED_13
 70
     0
  0
APPID
  2
GENIUS_GENSCREG_13
 70
     0
  0
APPID
  2
GENIUS_DUMCFG0_13
 70
     0
  0
APPID
  2
GEVID936201362
 70
     0
  0
APPID
  2
GEVDC
 70
     0
  0
APPID
  2
GEVCON
 70
     0
  0
APPID
  2
VCC
 70
     0
  0
APPID
  2
GEVPT
 70
     0
  0
APPID
  2
GEVIT
 70
     0
  0
APPID
  2
GENBH
 70
     0
  0
APPID
  2
GEVMK
 70
     0
  0
APPID
  2
GENIUS_GENBH_13
 70
     0
  0
APPID
  2
GENIUS_GENOBJ-NBEHI-BHF_13
 70
     0
  0
APPID
  2
GENIUS_GENOBJ-NBEHI-BHB_13
 70
     0
  0
APPID
  2
GENIUS_GENOBJ-F-DESC_13
 70
     0
  0
APPID
  2
GENIUS_GEFDESC_14
 70
     0
  0
APPID
  2
GENIUS_GENOBJ-F-PART_13
 70
     0
  0
APPID
  2
GENIUS_GEFSTDP_13
 70
     0
  0
APPID
  2
GENIUS_GEFPARTINS_13
 70
     0
  0
APPID
  2
GENIUS_GENTRA_14
 70
     0
  0
APPID
  2
GENIUS_GENINF13_13
 70
     0
  0
APPID
  2
GENIUS_GENOBJ-N-INFOPT_13
 70
     0
  0
APPID
  2
GENIUS_GENOBJ-N-RSSYM_13
 70
     0
  0
APPID
  2
GENIUS_GENSYMENT_13
 70
     0
  0
APPID
  2
GENIUS_GENSCSYM_13
 70
     0
  0
APPID
  2
GENIUS_GEFINFNAM_13
 70
     0
  0
APPID
  2
GENIUS_GENOBJ-N-CEN_13
 70
     0
  0
APPID
  2
GENIUS_GENOBJ-N-CRS_13
 70
     0
  0
APPID
  2
GENIUS_GENOBJ-N-CRC_13
 70
     0
  0
APPID
  2
GENIUS_GENCRC_14
 70
     0
  0
APPID
  2
GEVID942827039
 70
     0
  0
APPID
  2
GEVID942827040
 70
     0
  0
APPID
  2
GEVID942827041
 70
     0
  0
APPID
  2
GENIUS_GENOBJ-F-SCPASSM_13
 70
     0
  0
APPID
  2
GENIUS_GENDIMSH_14
 70
     0
  0
APPID
  2
GEVID942827042
 70
     0
  0
APPID
  2
GEVID946020473
 70
     0
  0
APPID
  2
GEVID946020474
 70
     0
  0
APPID
  2
GEVID946020475
 70
     0
  0
APPID
  2
GENIUS_GENOBJ-N-HTC_13
 70
     0
  0
APPID
  2
GENIUS_GENHATCH_13
 70
     0
  0
APPID
  2
GEVID948854295
 70
     0
  0
APPID
  2
GEVID939402019
 70
     0
  0
APPID
  2
GEVID952919491
 70
     0
  0
APPID
  2
GEVID952919492
 70
     0
  0
APPID
  2
GENIUS_GEFWELD_13
 70
     0
  0
APPID
  2
GENIUS_GENOBJ-F-WELS_13
 70
     0
  0
APPID
  2
GEVID952919493
 70
     0
  0
APPID
  2
GENIUS_GENOBJ-N-RSBK_13
 70
     0
  0
APPID
  2
GENIUS_GENOBJ-N-LIB_13
 70
     0
  0
APPID
  2
GENIUS_GENSCALE_13
 70
     0
  0
APPID
  2
GEVID986376691
 70
     0
  0
APPID
  2
DCO15
 70
     0
  0
APPID
  2
ACAD_DSTYLE_DIMBREAK
 70
     0
  0
APPID
  2
ACAD_DSTYLE_DIMJAG
 70
     0
  0
APPID
  2
ACAD_NAV_VCDISPLAY
 70
     0
  0
APPID
  2
ACADANNOPO
 70
     0
  0
APPID
  2
ACAD_EXEMPT_FROM_CAD_STANDARDS
 70
     0
  0
APPID
  2
ACAD_MLEADERVER
 70
     0
  0
ENDTAB
  0
TABLE
  2
DIMSTYLE
 70
    22
  0
DIMSTYLE
  2
STANDARD
 70
     0
  3

  4

  5

  6

  7

 40
1.0
 41
0.18
 42
0.0625
 43
0.38
 44
0.18
 45
0.0
 46
0.0
 47
0.0
 48
0.0
140
0.18
141
0.09
142
0.0
143
25.399999999999999
144
1.0
145
0.0
146
1.0
147
0.09
 71
     0
 72
     0
 73
     1
 74
     1
 75
     0
 76
     0
 77
     0
 78
     0
170
     0
171
     2
172
     0
173
     0
174
     0
175
     0
176
     0
177
     0
178
     0
  0
DIMSTYLE
  2
ANNOTATIVE
 70
     0
  3

  4

  5

  6

  7

 40
1.0
 41
0.18
 42
0.0625
 43
0.38
 44
0.18
 45
0.0
 46
0.0
 47
0.0
 48
0.0
140
0.18
141
0.09
142
0.0
143
25.399999999999999
144
1.0
145
0.0
146
1.0
147
0.09
 71
     0
 72
     0
 73
     1
 74
     1
 75
     0
 76
     0
 77
     0
 78
     0
170
     0
171
     2
172
     0
173
     0
174
     0
175
     0
176
     0
177
     0
178
     0
  0
DIMSTYLE
  2
AM_ISO
 70
     0
  3

  4
"
  5

  6

  7

 40
1.0
 41
2.5
 42
1.0
 43
8.0
 44
0.6
 45
0.0
 46
0.0
 47
0.1
 48
0.1
140
2.5
141
0.0
142
0.0
143
0.0393701
144
1.0
145
0.0
146
0.71
147
0.8
 71
     0
 72
     0
 73
     0
 74
     0
 75
     0
 76
     0
 77
     1
 78
     8
170
     0
171
     2
172
     1
173
     0
174
     0
175
     0
176
   256
177
   256
178
     4
  0
DIMSTYLE
  2
AM_ISO$3
 70
     0
  3

  4
"
  5

  6

  7

 40
1.0
 41
2.5
 42
1.0
 43
8.0
 44
0.6
 45
0.0
 46
0.0
 47
0.1
 48
0.1
140
2.5
141
0.0
142
0.0
143
0.0393701
144
1.0
145
0.0
146
0.71
147
0.8
 71
     0
 72
     0
 73
     0
 74
     1
 75
     0
 76
     0
 77
     1
 78
     8
170
     0
171
     2
172
     0
173
     0
174
     0
175
     0
176
   256
177
   256
178
     4
  0
DIMSTYLE
  2
AM_ISO$4
 70
     0
  3

  4
"
  5

  6

  7

 40
1.0
 41
2.5
 42
1.0
 43
8.0
 44
0.6
 45
0.0
 46
0.0
 47
0.1
 48
0.1
140
2.5
141
0.0
142
0.0
143
0.0393701
144
1.0
145
0.0
146
0.71
147
0.8
 71
     0
 72
     0
 73
     0
 74
     1
 75
     0
 76
     0
 77
     1
 78
     8
170
     0
171
     2
172
     0
173
     0
174
     0
175
     0
176
   256
177
   256
178
     4
  0
DIMSTYLE
  2
AM_ISO$6
 70
     0
  3

  4
"
  5

  6

  7

 40
1.0
 41
2.5
 42
1.0
 43
8.0
 44
0.6
 45
0.0
 46
0.0
 47
0.1
 48
0.1
140
2.5
141
0.0
142
0.0
143
0.0393701
144
1.0
145
0.0
146
0.71
147
0.8
 71
     0
 72
     0
 73
     0
 74
     0
 75
     0
 76
     0
 77
     0
 78
     8
170
     0
171
     2
172
     1
173
     0
174
     0
175
     0
176
   256
177
   256
178
     4
  0
DIMSTYLE
  2
AM_ISO$7
 70
     0
  3

  4
"
  5

  6

  7

 40
1.0
 41
2.5
 42
1.0
 43
8.0
 44
0.6
 45
0.0
 46
0.0
 47
0.1
 48
0.1
140
2.5
141
0.0
142
0.0
143
0.0393701
144
1.0
145
0.0
146
0.71
147
0.8
 71
     0
 72
     0
 73
     0
 74
     0
 75
     0
 76
     0
 77
     1
 78
     8
170
     0
171
     2
172
     1
173
     0
174
     0
175
     0
176
   256
177
   256
178
     4
  0
DIMSTYLE
  2
AM_ISO$SF
 70
     0
  3

  4
"
  5

  6

  7

 40
1.0
 41
2.5
 42
1.0
 43
10.0
 44
1.0
 45
0.0
 46
0.0
 47
0.1
 48
0.1
140
3.5
141
0.0
142
0.0
143
0.0393701
144
1.0
145
0.0
146
0.71
147
1.5
 71
     0
 72
     0
 73
     0
 74
     0
 75
     1
 76
     1
 77
     1
 78
     8
170
     0
171
     2
172
     1
173
     0
174
     0
175
     0
176
   256
177
   256
178
     2
  0
DIMSTYLE
  2
AM_ISO$SH
 70
     0
  3

  4
"
  5

  6

  7

 40
1.0
 41
2.5
 42
1.0
 43
10.0
 44
1.0
 45
0.0
 46
0.0
 47
0.1
 48
0.1
140
3.5
141
0.0
142
0.0
143
0.0393701
144
2.0
145
0.0
146
0.71
147
1.5
 71
     0
 72
     0
 73
     0
 74
     0
 75
     1
 76
     1
 77
     1
 78
     8
170
     0
171
     2
172
     1
173
     1
174
     0
175
     0
176
   256
177
   256
178
     2
  0
DIMSTYLE
  2
AM_JIS
 70
     0
  3

  4
"
  5

  6

  7

 40
1.0
 41
2.5
 42
1.0
 43
7.0
 44
1.0
 45
0.0
 46
0.0
 47
0.1
 48
0.1000000001
140
2.5
141
0.0
142
0.0
143
0.0393701
144
1.0
145
0.0
146
0.71
147
1.0
 71
     0
 72
     0
 73
     0
 74
     0
 75
     0
 76
     0
 77
     3
 78
     8
170
     0
171
     2
172
     1
173
     0
174
     0
175
     0
176
   256
177
   256
178
     4
  0
DIMSTYLE
  2
AM_JIS$3
 70
     0
  3

  4
"
  5

  6

  7

 40
1.0
 41
2.5
 42
1.0
 43
7.0
 44
1.0
 45
0.0
 46
0.0
 47
0.1
 48
0.1000000001
140
2.5
141
0.0
142
0.0
143
0.0393701
144
1.0
145
0.0
146
0.71
147
1.0
 71
     0
 72
     0
 73
     0
 74
     1
 75
     0
 76
     0
 77
     3
 78
     8
170
     0
171
     2
172
     0
173
     0
174
     0
175
     0
176
   256
177
   256
178
     4
  0
DIMSTYLE
  2
AM_JIS$4
 70
     0
  3

  4
"
  5

  6

  7

 40
1.0
 41
2.5
 42
1.0
 43
7.0
 44
1.0
 45
0.0
 46
0.0
 47
0.1
 48
0.1000000001
140
2.5
141
0.0
142
0.0
143
0.0393701
144
1.0
145
0.0
146
0.71
147
1.0
 71
     0
 72
     0
 73
     0
 74
     0
 75
     0
 76
     0
 77
     3
 78
     8
170
     0
171
     2
172
     0
173
     0
174
     0
175
     0
176
   256
177
   256
178
     4
  0
DIMSTYLE
  2
AM_JIS$6
 70
     0
  3

  4
"
  5

  6

  7

 40
1.0
 41
2.5
 42
1.0
 43
7.0
 44
1.0
 45
0.0
 46
0.0
 47
0.1
 48
0.1000000001
140
2.5
141
0.0
142
0.0
143
0.0393701
144
1.0
145
0.0
146
0.71
147
1.0
 71
     0
 72
     0
 73
     0
 74
     0
 75
     0
 76
     0
 77
     0
 78
     8
170
     0
171
     2
172
     1
173
     0
174
     0
175
     0
176
   256
177
   256
178
     4
  0
DIMSTYLE
  2
AM_JIS$7
 70
     0
  3

  4
"
  5

  6

  7

 40
1.0
 41
2.5
 42
1.0
 43
7.0
 44
1.0
 45
0.0
 46
0.0
 47
0.1
 48
0.1000000001
140
2.5
141
0.0
142
0.0
143
0.0393701
144
1.0
145
0.0
146
0.71
147
1.0
 71
     0
 72
     0
 73
     0
 74
     0
 75
     0
 76
     0
 77
     3
 78
     8
170
     0
171
     2
172
     1
173
     0
174
     0
175
     0
176
   256
177
   256
178
     4
  0
DIMSTYLE
  2
AM_JIS$SF
 70
     0
  3

  4
"
  5

  6

  7

 40
1.0
 41
2.5
 42
1.0
 43
10.0
 44
1.0
 45
0.0
 46
0.0
 47
0.1
 48
0.1
140
3.5
141
0.0
142
0.0
143
0.0393701
144
1.0
145
0.0
146
0.71
147
1.5
 71
     0
 72
     0
 73
     0
 74
     0
 75
     1
 76
     1
 77
     3
 78
     8
170
     0
171
     2
172
     1
173
     0
174
     0
175
     0
176
   256
177
   256
178
     4
  0
DIMSTYLE
  2
AM_JIS$SH
 70
     0
  3

  4
"
  5

  6

  7

 40
1.0
 41
2.5
 42
1.0
 43
10.0
 44
1.0
 45
0.0
 46
0.0
 47
0.1
 48
0.1
140
3.5
141
0.0
142
0.0
143
0.0393701
144
1.0
145
0.0
146
0.71
147
1.5
 71
     0
 72
     0
 73
     0
 74
     0
 75
     1
 76
     0
 77
     3
 78
     8
170
     0
171
     2
172
     1
173
     1
174
     0
175
     0
176
   256
177
   256
178
     4
  0
DIMSTYLE
  2
AM_ANSI
 70
     0
  3

  4
mm
  5

  6

  7

 40
1.0
 41
0.1
 42
0.05
 43
0.5
 44
0.1
 45
0.0
 46
0.0
 47
0.1
 48
0.1
140
0.12
141
0.0
142
0.0
143
25.399999999999999
144
1.0
145
0.0
146
0.71
147
0.06
 71
     0
 72
     0
 73
     1
 74
     1
 75
     0
 76
     0
 77
     0
 78
     7
170
     0
171
     2
172
     0
173
     0
174
     0
175
     0
176
   256
177
   256
178
     2
  0
DIMSTYLE
  2
AM_ANSI$3
 70
     0
  3

  4
mm
  5

  6

  7

 40
1.0
 41
0.1
 42
0.05
 43
0.5
 44
0.1
 45
0.0
 46
0.0
 47
0.1
 48
0.1
140
0.12
141
0.0
142
0.0
143
25.399999999999999
144
1.0
145
0.0
146
0.71
147
0.06
 71
     0
 72
     0
 73
     1
 74
     1
 75
     0
 76
     0
 77
     0
 78
     7
170
     0
171
     2
172
     0
173
     0
174
     0
175
     0
176
   256
177
   256
178
     2
  0
DIMSTYLE
  2
AM_ANSI$4
 70
     0
  3

  4
mm
  5

  6

  7

 40
1.0
 41
0.1
 42
0.05
 43
0.5
 44
0.1
 45
0.0
 46
0.0
 47
0.1
 48
0.1
140
0.12
141
0.0
142
0.0
143
25.399999999999999
144
1.0
145
0.0
146
0.71
147
0.06
 71
     0
 72
     0
 73
     1
 74
     1
 75
     0
 76
     0
 77
     0
 78
     7
170
     0
171
     2
172
     0
173
     0
174
     0
175
     0
176
   256
177
   256
178
     2
  0
DIMSTYLE
  2
AM_ANSI$7
 70
     0
  3

  4
mm
  5

  6

  7

 40
1.0
 41
0.1
 42
0.05
 43
0.5
 44
0.1
 45
0.0
 46
0.0
 47
0.1
 48
0.1
140
0.24
141
0.0
142
0.0
143
25.399999999999999
144
1.0
145
0.0
146
0.71
147
0.06
 71
     0
 72
     0
 73
     1
 74
     1
 75
     0
 76
     0
 77
     0
 78
     7
170
     0
171
     2
172
     0
173
     0
174
     0
175
     0
176
   256
177
   256
178
     2
  0
DIMSTYLE
  2
AM_ANSI$SF
 70
     0
  3

  4
mm
  5

  6

  7

 40
1.0
 41
0.1
 42
0.05
 43
0.5
 44
0.1
 45
0.0
 46
0.0
 47
0.1
 48
0.1
140
0.12
141
0.0
142
0.0
143
25.399999999999999
144
1.0
145
0.0
146
0.71
147
0.06
 71
     0
 72
     0
 73
     1
 74
     1
 75
     1
 76
     1
 77
     0
 78
     7
170
     0
171
     2
172
     0
173
     0
174
     0
175
     0
176
   256
177
   256
178
     2
  0
DIMSTYLE
  2
AM_ANSI$SH
 70
     0
  3

  4
mm
  5

  6

  7

 40
1.0
 41
0.1
 42
0.05
 43
0.5
 44
0.1
 45
0.0
 46
0.0
 47
0.1
 48
0.1
140
0.12
141
0.0
142
0.0
143
25.399999999999999
144
1.0
145
0.0
146
0.71
147
0.06
 71
     0
 72
     0
 73
     1
 74
     1
 75
     1
 76
     1
 77
     0
 78
     7
170
     0
171
     2
172
     0
173
     1
174
     0
175
     0
176
   256
177
   256
178
     2
  0
ENDTAB
  0
ENDSEC
  0
SECTION
  2
BLOCKS
  0
BLOCK
  8
0
  2
$MODEL_SPACE
 70
     0
 10
0.0
 20
0.0
 30
0.0
  3
$MODEL_SPACE
  1

  0
ENDBLK
  5
32FB
  8
0
  0
BLOCK
 67
     1
  8
0
  2
$PAPER_SPACE
 70
     0
 10
0.0
 20
0.0
 30
0.0
  3
$PAPER_SPACE
  1

  0
ENDBLK
  5
32F7
 67
     1
  8
0
  0
BLOCK
  8
0
  2
GENAXEH
 70
     0
 10
0.0
 20
0.0
 30
0.0
  3
GENAXEH
  1

  0
LINE
  5
30C7
  8
0
 10
-1.0
 20
0.0
 30
0.0
 11
1.0
 21
0.0
 31
0.0
  0
ENDBLK
  5
30C8
  8
0
  0
BLOCK
  8
0
  2
_OPEN30
 70
     0
 10
0.0
 20
0.0
 30
0.0
  3
_OPEN30
  1

  0
LINE
  5
30CB
  8
0
 62
     0
 10
-1.0
 20
0.26794919
 30
0.0
 11
0.0
 21
0.0
 31
0.0
  0
LINE
  5
30CC
  8
0
 62
     0
 10
0.0
 20
0.0
 30
0.0
 11
-1.0
 21
-0.26794919
 31
0.0
  0
LINE
  5
30CD
  8
0
 62
     0
 10
0.0
 20
0.0
 30
0.0
 11
-1.0
 21
0.0
 31
0.0
  0
ENDBLK
  5
30CE
  8
0
  0
BLOCK
  8
0
  2
_NONE
 70
     0
 10
0.0
 20
0.0
 30
0.0
  3
_NONE
  1

  0
ENDBLK
  5
30D1
  8
0
  0
BLOCK
  8
0
  2
*U5
 70
     1
 10
0.0
 20
0.0
 30
0.0
  3
*U5
  1

  0
TEXT
  5
30D4
  8
AM_0
 62
     4
 10
180.13908597013071
 20
240.57901846686201
 30
0.0
 40
7.5
  1
\U+2205
 50
90.0
 41
0.8299999999999999
  0
TEXT
  5
30D5
  8
AM_0
 62
     4
 10
180.13908597013071
 20
246.804018466862
 30
0.0
 40
7.5
  1
160
 50
90.0
 41
0.8299999999999999
  0
ENDBLK
  5
30D6
  8
0
  0
BLOCK
  8
0
  2
*U6
 70
     1
 10
0.0
 20
0.0
 30
0.0
  3
*U6
  1

  0
TEXT
  5
30D9
  8
AM_0
 62
     4
 10
200.0194265256288
 20
234.56151846686191
 30
0.0
 40
7.5
  1
\U+2205
 50
90.0
 41
0.8299999999999999
  0
TEXT
  5
30DA
  8
AM_0
 62
     4
 10
200.0194265256288
 20
240.78651846686191
 30
0.0
 40
7.5
  1
110 
 50
90.0
 41
0.8299999999999999
  0
TEXT
  5
30DB
  8
AM_0
 62
     4
 10
200.0194265256288
 20
258.0090184668619
 30
0.0
 40
6.0
  1
G7
 50
90.0
 41
0.8299999999999999
  0
ENDBLK
  5
30DC
  8
0
  0
BLOCK
  8
0
  2
*U7
 70
     1
 10
0.0
 20
0.0
 30
0.0
  3
*U7
  1

  0
TEXT
  5
30DF
  8
AM_0
 62
     4
 10
539.13511108507089
 20
233.59151846686191
 30
0.0
 40
7.5
  1
\U+2205
 50
90.0
 41
0.8299999999999999
  0
TEXT
  5
30E0
  8
AM_0
 62
     4
 10
539.13511108507089
 20
239.81651846686199
 30
0.0
 40
7.5
  1
170
 50
90.0
 41
0.8299999999999999
  0
TEXT
  5
30E1
  8
AM_0
 62
     4
 10
539.13511108507089
 20
255.37901846686199
 30
0.0
 40
6.0
  1
h7
 50
90.0
 41
0.8299999999999999
  0
ENDBLK
  5
30E2
  8
0
  0
BLOCK
  8
0
  2
*U8
 70
     1
 10
0.0
 20
0.0
 30
0.0
  3
*U8
  1

  0
TEXT
  5
30E5
  8
AM_0
 62
     4
 10
659.14478791105273
 20
380.1946042182928
 30
0.0
 40
7.5
  1
o
 41
0.8299999999999999
  0
TEXT
  5
30E6
  8
AM_0
 62
     4
 10
666.55550219676695
 20
380.1946042182928
 30
0.0
 40
7.5
  1
 185
 41
0.8299999999999999
  0
ENDBLK
  5
30E7
  8
0
  0
BLOCK
  8
0
  2
*U9
 70
     1
 10
0.0
 20
0.0
 30
0.0
  3
*U9
  1

  0
TEXT
  5
30EA
  8
AM_0
 62
     4
 10
608.95560731191381
 20
366.1175878308307
 30
0.0
 40
7.5
  1
o
 41
0.8299999999999999
  0
TEXT
  5
30EB
  8
AM_0
 62
     4
 10
616.36632159762803
 20
366.1175878308307
 30
0.0
 40
7.5
  1
 185
 41
0.8299999999999999
  0
ENDBLK
  5
30EC
  8
0
  0
BLOCK
  8
0
  2
*U10
 70
     1
 10
0.0
 20
0.0
 30
0.0
  3
*U10
  1

  0
TEXT
  5
30EF
  8
AM_0
 62
     4
 10
149.83024592648979
 20
220.4845020793997
 30
0.0
 40
7.5
  1
\U+2205
 50
90.0
 41
0.8299999999999999
  0
TEXT
  5
30F0
  8
AM_0
 62
     4
 10
149.83024592648979
 20
226.7095020793997
 30
0.0
 40
7.5
  1
110 
 50
90.0
 41
0.8299999999999999
  0
TEXT
  5
30F1
  8
AM_0
 62
     4
 10
149.83024592648979
 20
243.93200207939981
 30
0.0
 40
6.0
  1
G7
 50
90.0
 41
0.8299999999999999
  0
ENDBLK
  5
30F2
  8
0
  0
BLOCK
  8
0
  2
*U11
 70
     1
 10
0.0
 20
0.0
 30
0.0
  3
*U11
  1

  0
TEXT
  5
30F5
  8
AM_0
 62
     4
 10
129.9499053709917
 20
226.5020020793998
 30
0.0
 40
7.5
  1
\U+2205
 50
90.0
 41
0.8299999999999999
  0
TEXT
  5
30F6
  8
AM_0
 62
     4
 10
129.9499053709917
 20
232.72700207939991
 30
0.0
 40
7.5
  1
160
 50
90.0
 41
0.8299999999999999
  0
ENDBLK
  5
30F7
  8
0
  0
BLOCK
  8
0
  2
*U12
 70
     1
 10
0.0
 20
0.0
 30
0.0
  3
*U12
  1

  0
TEXT
  5
30FA
  8
AM_0
 62
     4
 10
488.94593048593163
 20
219.5145020793999
 30
0.0
 40
7.5
  1
\U+2205
 50
90.0
 41
0.8299999999999999
  0
TEXT
  5
30FB
  8
AM_0
 62
     4
 10
488.94593048593163
 20
225.7395020793999
 30
0.0
 40
7.5
  1
170
 50
90.0
 41
0.8299999999999999
  0
TEXT
  5
30FC
  8
AM_0
 62
     4
 10
488.94593048593163
 20
241.30200207939981
 30
0.0
 40
6.0
  1
h7
 50
90.0
 41
0.8299999999999999
  0
ENDBLK
  5
30FD
  8
0
  0
BLOCK
  8
0
  2
_ACMFILLEDHALF
 70
     0
 10
0.0
 20
0.0
 30
0.0
  3
_ACMFILLEDHALF
  1

  0
TRACE
  5
3400
  8
AM_0
 62
     0
 10
-0.8
 20
0.0
 30
0.0
 11
-1.0
 21
0.166666666
 31
0.0
 12
0.0
 22
0.0
 32
0.0
 13
0.0
 23
0.0
 33
0.0
  0
LINE
  5
3401
  8
AM_0
 62
     0
 10
-1.0
 20
0.0
 30
0.0
 11
-0.8
 21
0.0
 31
0.0
  0
ENDBLK
  5
33FF
  8
0
  0
ENDSEC
  0
SECTION
  2
ENTITIES
  0
LINE
  5
30FF
  8
AM_0
 10
410.99792897171392
 20
503.46143280250311
 30
0.0
 11
442.99792897171392
 21
503.46143280250311
 31
0.0
  0
LINE
  5
3100
  8
AM_0
 10
410.99792897171392
 20
495.46143280250311
 30
0.0
 11
442.99792897171392
 21
495.46143280250311
 31
0.0
  0
LINE
  5
3101
  8
AM_0
 10
400.99795897171367
 20
485.461432802503
 30
0.0
 11
442.99792897171392
 21
485.461432802503
 31
0.0
  0
LINE
  5
3102
  8
AM_0
 10
400.99795897171367
 20
513.46143280250317
 30
0.0
 11
442.99792897171392
 21
513.46143280250317
 31
0.0
  0
LINE
  5
3103
  8
ﾁｭｳｼﾝｾﾝ
 10
174.3081189717139
 20
499.46143280250328
 30
0.0
 11
447.70495897171372
 21
499.46143280250311
 31
0.0
  0
POLYLINE
  5
3104
  8
AM_0
 66
     1
 10
0.0
 20
0.0
 30
0.0
  0
VERTEX
  5
3105
  8
AM_0
 10
383.9110189717137
 20
583.87442280250309
 30
0.0
 42
0.081985852
  0
VERTEX
  5
3106
  8
AM_0
 10
361.79512897171372
 20
528.96274280250304
 30
0.0
 42
0.10914194
  0
VERTEX
  5
3107
  8
AM_0
 10
361.79521897171372
 20
469.95973280250308
 30
0.0
 42
0.081985219
  0
VERTEX
  5
3108
  8
AM_0
 10
383.9110189717137
 20
415.04843280250287
 30
0.0
  0
SEQEND
  5
3109
  8
AM_0
  0
ARC
  5
310A
  8
AM_0
 10
410.99792897171392
 20
499.46143280250311
 30
0.0
 40
3.9999962
 50
90.000003000000945
 51
270.0
  0
LINE
  5
310B
  8
AM_0
 10
386.99795897171367
 20
409.24204280250319
 30
0.0
 11
386.99795897171367
 21
589.68082280250314
 31
0.0
  0
LINE
  5
310C
  8
AM_0
 10
396.99795897171367
 20
406.96143280250288
 30
0.0
 11
396.99795897171367
 21
591.96143280250328
 31
0.0
  0
LINE
  5
310D
  8
AM_0
 10
390.99795897171367
 20
428.96143280250311
 30
0.0
 11
390.99795897171367
 21
569.633732802503
 31
0.0
  0
LINE
  5
310E
  8
AM_0
 10
400.9979889717136
 20
584.46143280250317
 30
0.0
 11
400.9979889717136
 21
414.461432802503
 31
0.0
  0
LINE
  5
310F
  8
AM_0
 10
229.9979289717138
 20
446.90515280250321
 30
0.0
 11
229.9979289717138
 21
552.01773280250313
 31
0.0
  0
LINE
  5
3110
  8
AM_0
 10
209.9979289717138
 20
442.96143280250311
 30
0.0
 11
209.9979289717138
 21
555.96143280250305
 31
0.0
  0
LINE
  5
3111
  8
AM_0
 10
269.49789897171382
 20
438.96143280250311
 30
0.0
 11
269.49789897171382
 21
559.96143280250305
 31
0.0
  0
LINE
  5
3112
  8
AM_0
 10
278.49795897171367
 20
435.96143280250288
 30
0.0
 11
278.49795897171367
 21
562.96143280250328
 31
0.0
  0
LINE
  5
3113
  8
AM_0
 10
314.99792897171392
 20
428.37128280250317
 30
0.0
 11
314.99792897171392
 21
570.55158280250305
 31
0.0
  0
LINE
  5
3114
  8
AM_0
 10
304.99795897171367
 20
422.63257280250309
 30
0.0
 11
304.99795897171367
 21
576.29029280250313
 31
0.0
  0
LINE
  5
3115
  8
AM_0
 10
321.99795897171367
 20
417.21048280250312
 30
0.0
 11
321.99795897171367
 21
581.71237280250307
 31
0.0
  0
LINE
  5
3116
  8
AM_0
 10
410.99792897171392
 20
503.46143280250311
 30
0.0
 11
410.99792897171392
 21
495.46143280250311
 31
0.0
  0
LINE
  5
3117
  8
AM_0
 10
321.99795897171367
 20
417.21048280250312
 30
0.0
 11
309.82345897171382
 21
417.63562280250312
 31
0.0
  0
LINE
  5
3118
  8
AM_0
 10
304.99795897171367
 20
440.15293280250319
 30
0.0
 11
314.99792897171392
 21
440.15293280250319
 31
0.0
  0
ARC
  5
3119
  8
AM_0
 10
309.99795897171367
 20
422.63257280250309
 30
0.0
 40
5.0
 50
180.00001000000091
 51
267.9999999999996
  0
LINE
  5
311A
  8
AM_0
 10
232.9979289717138
 20
496.46143280250323
 30
0.0
 11
266.49789897171382
 21
496.46143280250323
 31
0.0
  0
LINE
  5
311B
  8
AM_0
 10
209.9979289717138
 20
443.461432802503
 30
0.0
 11
266.62146897171391
 21
441.48407280250308
 31
0.0
  0
LINE
  5
311C
  8
AM_0
 10
209.9979289717138
 20
453.4611228025031
 30
0.0
 11
229.9979289717138
 21
453.4611228025031
 31
0.0
  0
ARC
  5
311D
  8
AM_0
 10
225.9979289717138
 20
446.90515280250321
 30
0.0
 40
4.0
 50
267.9999999999996
 51
0.0000006832462478
  0
ARC
  5
311E
  8
AM_0
 10
232.9979289717138
 20
493.461432802503
 30
0.0
 40
3.0
 50
90.000003000000945
 51
180.00001000000091
  0
LINE
  5
311F
  8
AM_0
 10
209.9979289717138
 20
467.52149280250319
 30
0.0
 11
229.9979289717138
 21
467.52149280250319
 31
0.0
  0
LINE
  5
3120
  8
AM_0
 10
278.49795897171367
 20
447.4214528025031
 30
0.0
 11
304.99792897171392
 21
447.4214528025031
 31
0.0
  0
LINE
  5
3121
  8
AM_0
 10
278.49798897171382
 20
435.96140280250307
 30
0.0
 11
302.10263897171382
 21
435.13712280250309
 31
0.0
  0
ARC
  5
3122
  8
AM_0
 10
272.49789897171388
 20
438.96143280250311
 30
0.0
 40
3.0
 50
180.00001000000091
 51
270.0
  0
LINE
  5
3123
  8
AM_0
 10
278.49798897171382
 20
435.96143280250288
 30
0.0
 11
272.49789897171388
 21
435.96143280250288
 31
0.0
  0
LINE
  5
3124
  8
AM_0
 10
278.49795897171367
 20
447.4214528025031
 30
0.0
 11
269.49789897171382
 21
447.4214528025031
 31
0.0
  0
ARC
  5
3125
  8
AM_0
 10
266.51678897171382
 20
438.48590280250312
 30
0.0
 40
3.0
 50
4.545488300001014
 51
87.999999999999659
  0
ARC
  5
3126
  8
AM_0
 10
301.99795897171367
 20
432.13895280250313
 30
0.0
 40
3.0
 50
0.0
 51
87.999999999999659
  0
LINE
  5
3127
  8
AM_0
 10
278.49795897171367
 20
462.31348280250307
 30
0.0
 11
304.99792897171392
 21
462.31348280250307
 31
0.0
  0
LINE
  5
3128
  8
AM_0
 10
278.49795897171367
 20
462.31348280250307
 30
0.0
 11
269.49789897171382
 21
462.31348280250307
 31
0.0
  0
ARC
  5
3129
  8
AM_0
 10
266.49789897171382
 20
493.461432802503
 30
0.0
 40
3.0
 50
0.0
 51
90.000003000000945
  0
LINE
  5
312A
  8
AM_0
 10
381.94268897171372
 20
415.11716280250289
 30
0.0
 11
321.99795897171367
 21
417.21048280250312
 31
0.0
  0
LINE
  5
312B
  8
AM_0
 10
388.92816897171372
 20
407.24323280250309
 30
0.0
 11
396.99792897171392
 21
406.96143280250288
 31
0.0
  0
ARC
  5
312C
  8
AM_0
 10
388.99798897171371
 20
409.24204280250319
 30
0.0
 40
2.0
 50
179.9999899999988
 51
268.00000999999861
  0
ARC
  5
312D
  8
AM_0
 10
381.76815897171372
 20
410.12021280250309
 30
0.0
 40
5.0
 50
45.000000999999187
 51
87.999999999999659
  0
LINE
  5
312E
  8
AM_0
 10
385.30368897171371
 20
413.655732802503
 30
0.0
 11
386.99798897171371
 21
411.96146280250309
 31
0.0
  0
LINE
  5
312F
  8
AM_0
 10
396.99795897171367
 20
414.461432802503
 30
0.0
 11
400.9979889717136
 21
414.461432802503
 31
0.0
  0
ARC
  5
3130
  8
AM_0
 10
387.99795897171367
 20
429.28913280250322
 30
0.0
 40
3.0
 50
267.9999999999996
 51
0.0
  0
ARC
  5
3131
  8
AM_0
 10
389.99795897171367
 20
448.33618280250317
 30
0.0
 40
3.0
 50
90.000003000000945
 51
180.00001000000091
  0
LINE
  5
3132
  8
AM_0
 10
321.99795897171367
 20
581.71237280250307
 30
0.0
 11
309.82342897171372
 21
581.28723280250324
 31
0.0
  0
LINE
  5
3133
  8
AM_0
 10
304.99795897171367
 20
558.76993280250315
 30
0.0
 11
314.99792897171392
 21
558.76993280250315
 31
0.0
  0
LINE
  5
3134
  8
AM_0
 10
232.9979289717138
 20
502.46143280250288
 30
0.0
 11
266.49789897171382
 21
502.46143280250288
 31
0.0
  0
LINE
  5
3135
  8
AM_0
 10
266.62146897171391
 20
557.43875280250313
 30
0.0
 11
209.9979289717138
 21
555.46143280250305
 31
0.0
  0
ARC
  5
3136
  8
AM_0
 10
232.9979289717138
 20
505.46143280250311
 30
0.0
 40
3.0
 50
180.00001000000091
 51
270.0
  0
LINE
  5
3137
  8
AM_0
 10
209.9979289717138
 20
531.40137280250315
 30
0.0
 11
229.9979289717138
 21
531.40137280250315
 31
0.0
  0
ARC
  5
3138
  8
AM_0
 10
225.9979289717138
 20
552.01773280250313
 30
0.0
 40
4.0
 50
0.0
 51
91.999998000000545
  0
LINE
  5
3139
  8
AM_0
 10
209.9979289717138
 20
545.46173280250298
 30
0.0
 11
229.9979289717138
 21
545.46173280250298
 31
0.0
  0
LINE
  5
313A
  8
AM_0
 10
278.49795897171367
 20
536.60938280250298
 30
0.0
 11
304.99792897171392
 21
536.60938280250298
 31
0.0
  0
ARC
  5
313B
  8
AM_0
 10
266.49789897171382
 20
505.46143280250311
 30
0.0
 40
3.0
 50
270.0
 51
0.0
  0
LINE
  5
313C
  8
AM_0
 10
278.49795897171367
 20
536.60938280250298
 30
0.0
 11
269.49789897171382
 21
536.60938280250298
 31
0.0
  0
LINE
  5
313D
  8
AM_0
 10
278.49795897171367
 20
562.96143280250328
 30
0.0
 11
302.10266897171402
 21
563.78574280250325
 31
0.0
  0
LINE
  5
313E
  8
AM_0
 10
278.49795897171367
 20
551.50141280250318
 30
0.0
 11
304.99792897171392
 21
551.50141280250318
 31
0.0
  0
LINE
  5
313F
  8
AM_0
 10
278.49795897171367
 20
551.50141280250318
 30
0.0
 11
269.49789897171382
 21
551.50141280250318
 31
0.0
  0
ARC
  5
3140
  8
AM_0
 10
272.49789897171388
 20
559.96143280250305
 30
0.0
 40
3.0
 50
90.000003000000945
 51
180.00001000000091
  0
ARC
  5
3141
  8
AM_0
 10
266.51678897171382
 20
560.43695280250301
 30
0.0
 40
3.0
 50
272.0000000000004
 51
355.45443000000142
  0
LINE
  5
3142
  8
AM_0
 10
278.49795897171367
 20
562.96143280250328
 30
0.0
 11
272.49789897171388
 21
562.96143280250328
 31
0.0
  0
ARC
  5
3143
  8
AM_0
 10
301.99795897171367
 20
566.78388280250329
 30
0.0
 40
3.0
 50
272.0000000000004
 51
0.0
  0
ARC
  5
3144
  8
AM_0
 10
309.99795897171367
 20
576.29029280250313
 30
0.0
 40
5.0
 50
91.999998000000545
 51
180.00001000000091
  0
ARC
  5
3145
  8
AM_0
 10
389.99795897171367
 20
550.58667280250324
 30
0.0
 40
3.0
 50
179.9999899999988
 51
270.0
  0
ARC
  5
3146
  8
AM_0
 10
387.99795897171367
 20
569.633732802503
 30
0.0
 40
3.0
 50
0.0
 51
91.999998000000545
  0
LINE
  5
3147
  8
AM_0
 10
381.94265897171391
 20
583.80570280250333
 30
0.0
 11
321.99795897171367
 21
581.71237280250307
 31
0.0
  0
LINE
  5
3148
  8
AM_0
 10
388.92819897171393
 20
591.67963280250285
 30
0.0
 11
396.99795897171367
 21
591.96143280250328
 31
0.0
  0
LINE
  5
3149
  8
AM_0
 10
385.30371897171392
 20
585.26709280250293
 30
0.0
 11
386.99798897171371
 21
586.96140280250324
 31
0.0
  0
ARC
  5
314A
  8
AM_0
 10
381.76815897171372
 20
588.80265280250285
 30
0.0
 40
5.0
 50
272.0000000000004
 51
315.0
  0
ARC
  5
314B
  8
AM_0
 10
388.99798897171371
 20
589.68082280250314
 30
0.0
 40
2.0
 50
91.999998000000545
 51
180.00001000000091
  0
LINE
  5
314C
  8
AM_0
 10
396.99795897171367
 20
584.46143280250317
 30
0.0
 11
400.9979889717136
 21
584.46143280250317
 31
0.0
  0
LINE
  5
314D
  8
AM_0
 10
442.99792897171392
 20
513.46143280250317
 30
0.0
 11
442.99792897171392
 21
485.461432802503
 31
0.0
  0
LINE
  5
314E
  8
AM_0
 10
346.9979289717138
 20
172.75377307939991
 30
0.0
 11
386.99788897171402
 21
172.75377307939991
 31
0.0
  0
LINE
  5
314F
  8
AM_0
 10
346.9979289717138
 20
158.09047507939991
 30
0.0
 11
386.99788897171402
 21
158.09047507939991
 31
0.0
  0
LINE
  5
3150
  8
AM_0
 10
321.99787897171421
 20
145.24803607939981
 30
0.0
 11
386.99788897171402
 21
145.24803607939981
 31
0.0
  0
LINE
  5
3151
  8
AM_0
 10
321.99787897171421
 20
257.60826907939992
 30
0.0
 11
383.94319897171408
 21
257.60826907939992
 31
0.0
  0
LINE
  5
3152
  8
AM_0
 10
364.75183897171422
 20
128.8652370793998
 30
0.0
 11
386.99788897171402
 21
141.70902007939981
 31
0.0
  0
LINE
  5
3153
  8
AM_0
 10
359.4108489717143
 20
294.47114707939971
 30
0.0
 11
386.99791897171411
 21
322.05821707939992
 31
0.0
  0
LINE
  5
3154
  8
AM_0
 10
358.57522897171418
 20
293.63555107939982
 30
0.0
 11
377.9280189717141
 21
275.92937407939991
 31
0.0
  0
LINE
  5
3155
  8
ﾁｭｳｼﾝｾﾝ
 10
256.0949289717139
 20
234.5582490793999
 30
0.0
 11
447.94567897171402
 21
234.5582490793999
 31
0.0
  0
ARC
  5
3156
  8
AM_0
 10
270.4979589717139
 20
265.85823907939982
 30
0.0
 40
3.0
 50
270.0
 51
0.0
  0
LINE
  5
3157
  8
AM_0
 10
232.9979589717139
 20
289.62368107939989
 30
0.0
 11
232.9979589717139
 21
253.50658507939971
 31
0.0
  0
LINE
  5
3158
  8
AM_0
 10
209.99788897171391
 20
180.35822107939961
 30
0.0
 11
209.99788897171391
 21
292.35823807939983
 31
0.0
  0
LINE
  5
3159
  8
AM_0
 10
304.9979589717139
 20
282.18062707939993
 30
0.0
 11
304.9979589717139
 21
132.8832900793997
 31
0.0
  0
LINE
  5
315A
  8
AM_0
 10
278.4978789717141
 20
147.8582490793998
 30
0.0
 11
278.4978789717141
 21
274.85826907939992
 31
0.0
  0
LINE
  5
315B
  8
AM_0
 10
321.99787897171421
 20
292.35827107939969
 30
0.0
 11
321.99787897171421
 21
130.35825007939991
 31
0.0
  0
LINE
  5
315C
  8
0
 10
188.99788897171391
 20
314.35825207939968
 30
0.0
 11
188.99788897171391
 21
158.3582520793999
 31
0.0
1001
GENIUS_GENOREF_13
1005
2DD8
  0
LINE
  5
315D
  8
0
 10
178.99788897171391
 20
156.3582520793999
 30
0.0
 11
178.99788897171391
 21
316.35825207939968
 31
0.0
1001
GENIUS_GENOREF_13
1005
2DD8
  0
LINE
  5
315E
  8
AM_0
 10
242.893158971714
 20
152.9888190793998
 30
0.0
 11
271.56769897171398
 21
151.9874910793998
 31
0.0
  0
LINE
  5
315F
  8
AM_0
 10
237.1025589717141
 20
179.41173307939971
 30
0.0
 11
245.1474189717141
 21
179.13080407939981
 31
0.0
  0
LINE
  5
3160
  8
AM_0
 10
232.9979589717139
 20
262.85823907939999
 30
0.0
 11
278.4978789717141
 21
262.85823907939999
 31
0.0
  0
LINE
  5
3161
  8
AM_0
 10
237.99787897171399
 20
248.5066140793999
 30
0.0
 11
278.4978789717141
 21
248.5066140793999
 31
0.0
  0
LINE
  5
3162
  8
ﾁｭｳｼﾝｾﾝ
 10
268.61836897171401
 20
236.3582520793997
 30
0.0
 11
174.3081189717139
 21
236.3582520793997
 31
0.0
  0
ARC
  5
3163
  8
AM_0
 10
236.99788897171391
 20
176.4135480793999
 30
0.0
 40
3.0
 50
0.0
 51
87.999999999999559
  0
LINE
  5
3164
  8
0
 10
178.99788897171391
 20
156.3582520793999
 30
0.0
 11
186.99788897171371
 21
156.3582520793999
 31
0.0
  0
ARC
  5
3165
  8
0
 10
186.99788897171371
 20
158.3582520793999
 30
0.0
 40
2.0
 50
270.0
 51
0.0
1001
GENIUS_GENOBJ-N-FIL_13
1002
{
1000
OWNER
1000
GEN
1002
}
1001
GENIUS_GENODEF_13
1002
{
1000
HIER
1070
     0
1002
}
1002
{
1000
MANEDIT
1070
     0
1002
}
1002
{
1000
NOSEL
1070
     0
1002
}
1002
{
1000
BEHIND
1070
     0
1002
}
1002
{
1000
OTHER
1070
     0
1002
}
1002
{
1000
REACTOR
1002
}
  0
ARC
  5
3166
  8
AM_0
 10
242.99788897171391
 20
155.9869890793999
 30
0.0
 40
3.0
 50
179.9999899999988
 51
268.00000999999861
  0
LINE
  5
3167
  8
AM_0
 10
239.99788897171391
 20
155.9869890793999
 30
0.0
 11
239.99788897171391
 21
176.4135480793999
 31
0.0
  0
LINE
  5
3168
  8
0
 10
190.9280899783088
 20
179.19232002449709
 30
0.0
 11
209.99788897171391
 21
179.8582520793999
 31
0.0
  0
LINE
  5
3169
  8
AM_0
 10
209.99788897171391
 20
190.3582350793998
 30
0.0
 11
188.99788897171391
 21
190.3582350793998
 31
0.0
  0
LINE
  5
316A
  8
AM_0
 10
209.99788897171391
 20
204.4208100793999
 30
0.0
 11
188.99788897171391
 21
204.4208100793999
 31
0.0
  0
ARC
  5
316B
  8
0
 10
190.99788897171371
 20
177.1935383704589
 30
0.0
 40
2.0
 50
92.000000000000426
 51
180.0
1001
GENIUS_GENOBJ-N-FIL_13
1002
{
1000
OWNER
1000
GEN
1002
}
1001
GENIUS_GENODEF_13
1002
{
1000
HIER
1070
     0
1002
}
1002
{
1000
MANEDIT
1070
     0
1002
}
1002
{
1000
NOSEL
1070
     0
1002
}
1002
{
1000
BEHIND
1070
     0
1002
}
1002
{
1000
OTHER
1070
     0
1002
}
1002
{
1000
REACTOR
1002
}
  0
LINE
  5
316C
  8
AM_0
 10
217.9979589717139
 20
202.42125607939991
 30
0.0
 11
217.9979589717139
 21
192.35825107939971
 31
0.0
  0
LINE
  5
316D
  8
AM_0
 10
209.99788897171391
 20
180.35825107939991
 30
0.0
 11
237.1025589717141
 21
179.41173307939971
 31
0.0
  0
ARC
  5
316E
  8
AM_0
 10
215.99788897171391
 20
192.35825107939971
 30
0.0
 40
2.00000007
 50
270.0
 51
0.0
  0
LINE
  5
316F
  8
AM_0
 10
209.99788897171391
 20
190.35826807939981
 30
0.0
 11
215.99788897171391
 21
190.35826807939981
 31
0.0
  0
ARC
  5
3170
  8
AM_0
 10
215.99788897171391
 20
202.42125607939991
 30
0.0
 40
2.00000007
 50
0.0
 51
90.000003000000945
  0
LINE
  5
3171
  8
AM_0
 10
209.99788897171391
 20
204.4212390793997
 30
0.0
 11
215.99788897171391
 21
204.4212390793997
 31
0.0
  0
ARC
  5
3172
  8
AM_0
 10
237.99787897171399
 20
253.50658507939971
 30
0.0
 40
5.0000001000000003
 50
179.9999899999988
 51
270.0
  0
LINE
  5
3173
  8
AM_0
 10
247.1640789717141
 20
178.25395807939981
 30
0.0
 11
272.61922897171411
 21
152.7987870793998
 31
0.0
  0
LINE
  5
3174
  8
AM_0
 10
273.4979589717139
 20
149.9642220793998
 30
0.0
 11
273.4979589717139
 21
245.5066140793999
 31
0.0
  0
LINE
  5
3175
  8
AM_0
 10
314.99788897171402
 20
242.5074840793998
 30
0.0
 11
314.99788897171402
 21
151.81427407939969
 31
0.0
  0
LINE
  5
3176
  8
AM_0
 10
321.99790897171408
 20
130.35825007939991
 30
0.0
 11
306.9280689717142
 21
130.8844950793997
 31
0.0
  0
LINE
  5
3177
  8
AM_0
 10
306.99787897171421
 20
149.8142730793999
 30
0.0
 11
312.99787897171421
 21
149.8142730793999
 31
0.0
  0
ARC
  5
3178
  8
AM_0
 10
306.99787897171421
 20
132.8832900793997
 30
0.0
 40
2.00000007
 50
179.9999899999988
 51
268.00000999999861
  0
LINE
  5
3179
  8
AM_0
 10
275.4281289717141
 20
147.9654270793998
 30
0.0
 11
278.4978789717141
 21
147.85823407939981
 31
0.0
  0
LINE
  5
317A
  8
AM_0
 10
273.4979589717139
 20
159.85823407939981
 30
0.0
 11
278.4978789717141
 21
159.85823407939981
 31
0.0
  0
LINE
  5
317B
  8
AM_0
 10
273.4979589717139
 20
174.2098740793999
 30
0.0
 11
278.4978789717141
 21
174.2098740793999
 31
0.0
  0
ARC
  5
317C
  8
AM_0
 10
270.4979589717139
 20
150.6774330793998
 30
0.0
 40
3.0
 50
0.0
 51
45.000000999999187
  0
ARC
  5
317D
  8
AM_0
 10
271.49788897171368
 20
149.98871407939981
 30
0.0
 40
2.00000007
 50
0.0
 51
87.999999999999559
  0
ARC
  5
317E
  8
AM_0
 10
275.4978789717141
 20
149.9642220793998
 30
0.0
 40
2.00000007
 50
179.9999899999988
 51
268.00000999999861
  0
LINE
  5
317F
  8
AM_0
 10
278.4978789717141
 20
147.85826407939979
 30
0.0
 11
300.7246989717143
 21
147.0820800793999
 31
0.0
  0
ARC
  5
3180
  8
AM_0
 10
301.99795897171379
 20
143.84096107939979
 30
0.0
 40
3.0
 50
0.0
 51
79.999998000000815
  0
LINE
  5
3181
  8
AM_0
 10
301.14094897171412
 20
147.03833407939979
 30
0.0
 11
302.51887897171378
 21
146.79538507939981
 31
0.0
  0
ARC
  5
3182
  8
AM_0
 10
300.6200889717141
 20
144.0838980793998
 30
0.0
 40
3.0
 50
79.999998000000815
 51
87.999999999999559
  0
ARC
  5
3183
  8
AM_0
 10
306.99787897171421
 20
147.81427507939981
 30
0.0
 40
2.00000007
 50
90.000003000000945
 51
180.00001000000091
  0
LINE
  5
3184
  8
AM_0
 10
278.4978789717141
 20
159.85824907939991
 30
0.0
 11
304.9979589717139
 21
159.85824907939991
 31
0.0
  0
LINE
  5
3185
  8
AM_0
 10
278.4978789717141
 20
174.21031807939991
 30
0.0
 11
304.9979589717139
 21
174.21031807939991
 31
0.0
  0
LINE
  5
3186
  8
AM_0
 10
321.99790897171408
 20
130.35825007939991
 30
0.0
 11
364.75183897171422
 21
128.8652520793998
 31
0.0
  0
ARC
  5
3187
  8
AM_0
 10
346.99957897171402
 20
165.4221390793999
 30
0.0
 40
7.331659199999998
 50
90.000003000000945
 51
270.0
  0
ARC
  5
3188
  8
AM_0
 10
312.99787897171421
 20
151.81427407939969
 30
0.0
 40
2.00000007
 50
270.0
 51
0.0
  0
LINE
  5
3189
  8
AM_0
 10
346.9979289717138
 20
159.27345607939969
 30
0.0
 11
346.9979289717138
 21
171.5934660793998
 31
0.0
  0
LINE
  5
318A
  8
AM_0
 10
305.91334897171402
 20
238.0303410793997
 30
0.0
 11
312.99787897171421
 21
238.0303410793997
 31
0.0
  0
LINE
  5
318B
  8
AM_0
 10
306.99787897171421
 20
244.50747007939981
 30
0.0
 11
312.99787897171421
 21
244.50747007939981
 31
0.0
  0
LINE
  5
318C
  8
AM_0
 10
246.3284589717139
 20
181.23190807939969
 30
0.0
 11
246.3284589717139
 21
245.87401507939961
 31
0.0
  0
ARC
  5
318D
  8
AM_0
 10
245.04274897171399
 20
176.1326190793998
 30
0.0
 40
3.0
 50
45.000000999999187
 51
87.999999999999559
  0
ARC
  5
318E
  8
AM_0
 10
270.4979589717139
 20
245.5066140793999
 30
0.0
 40
3.0
 50
0.0
 51
90.000003000000945
  0
LINE
  5
318F
  8
AM_0
 10
278.4978789717141
 20
248.5062180793997
 30
0.0
 11
304.9979589717139
 21
248.5062180793997
 31
0.0
  0
LINE
  5
3190
  8
AM_0
 10
278.4978789717141
 20
262.85826907939992
 30
0.0
 11
304.9979589717139
 21
262.85826907939992
 31
0.0
  0
ARC
  5
3191
  8
AM_0
 10
306.99787897171421
 20
246.5074830793998
 30
0.0
 40
2.00000007
 50
179.9999899999988
 51
270.0
  0
ARC
  5
3192
  8
AM_0
 10
312.99787897171421
 20
236.0303580793998
 30
0.0
 40
2.00000007
 50
0.0
 51
90.000003000000945
  0
ARC
  5
3193
  8
AM_0
 10
312.99787897171421
 20
242.5074840793998
 30
0.0
 40
2.00000007
 50
0.0
 51
90.000003000000945
  0
LINE
  5
3194
  8
AM_0
 10
236.1026289717141
 20
269.49053107939977
 30
0.0
 11
271.56769897171398
 21
270.72899707939968
 31
0.0
  0
LINE
  5
3195
  8
AM_0
 10
209.99788897171391
 20
268.29569107939972
 30
0.0
 11
188.99788897171391
 21
268.29569107939972
 31
0.0
  0
LINE
  5
3196
  8
AM_0
 10
209.99788897171391
 20
282.35825107940002
 30
0.0
 11
188.99788897171391
 21
282.35825107940002
 31
0.0
  0
LINE
  5
3197
  8
0
 10
190.9280899783088
 20
293.52418413430252
 30
0.0
 11
209.99788897171391
 21
292.85825207939968
 31
0.0
  0
ARC
  5
3198
  8
0
 10
190.99788897171371
 20
295.52296578834068
 30
0.0
 40
2.0
 50
180.0
 51
267.9999999999996
1001
GENIUS_GENOBJ-N-FIL_13
1002
{
1000
OWNER
1000
GEN
1002
}
1001
GENIUS_GENODEF_13
1002
{
1000
HIER
1070
     0
1002
}
1002
{
1000
MANEDIT
1070
     0
1002
}
1002
{
1000
NOSEL
1070
     0
1002
}
1002
{
1000
BEHIND
1070
     0
1002
}
1002
{
1000
OTHER
1070
     0
1002
}
1002
{
1000
REACTOR
1002
}
  0
LINE
  5
3199
  8
AM_0
 10
217.9979589717139
 20
280.35826807939969
 30
0.0
 11
217.9979589717139
 21
270.29525107939992
 31
0.0
  0
ARC
  5
319A
  8
AM_0
 10
215.99788897171391
 20
270.29525107939992
 30
0.0
 40
2.00000007
 50
270.0
 51
0.0
  0
LINE
  5
319B
  8
AM_0
 10
209.99788897171391
 20
268.29525007939981
 30
0.0
 11
215.99788897171391
 21
268.29525007939981
 31
0.0
  0
ARC
  5
319C
  8
AM_0
 10
215.99788897171391
 20
280.35826807939969
 30
0.0
 40
2.00000007
 50
0.0
 51
90.000003000000945
  0
LINE
  5
319D
  8
AM_0
 10
209.99788897171391
 20
282.35823907939982
 30
0.0
 11
215.99788897171391
 21
282.35823907939982
 31
0.0
  0
ARC
  5
319E
  8
AM_0
 10
235.99795897171401
 20
272.48870107939968
 30
0.0
 40
3.0
 50
179.9999899999988
 51
271.99999000000111
  0
LINE
  5
319F
  8
AM_0
 10
209.99788897171391
 20
292.35827107939969
 30
0.0
 11
231.06769897171409
 21
291.62249107939988
 31
0.0
  0
ARC
  5
31A0
  8
AM_0
 10
230.99788897171391
 20
289.62368107939989
 30
0.0
 40
2.00000007
 50
0.0
 51
87.999999999999559
  0
LINE
  5
31A1
  8
0
 10
178.99788897171391
 20
316.35825207939968
 30
0.0
 11
186.99788897171371
 21
316.35825207939968
 31
0.0
  0
ARC
  5
31A2
  8
0
 10
186.99788897171371
 20
314.35825207939968
 30
0.0
 40
2.0
 50
0.0
 51
90.0
1001
GENIUS_GENOBJ-N-FIL_13
1002
{
1000
OWNER
1000
GEN
1002
}
1001
GENIUS_GENODEF_13
1002
{
1000
HIER
1070
     0
1002
}
1002
{
1000
MANEDIT
1070
     0
1002
}
1002
{
1000
NOSEL
1070
     0
1002
}
1002
{
1000
BEHIND
1070
     0
1002
}
1002
{
1000
OTHER
1070
     0
1002
}
1002
{
1000
REACTOR
1002
}
  0
LINE
  5
31A3
  8
AM_0
 10
306.99787897171421
 20
265.69234507939967
 30
0.0
 11
312.99787897171421
 21
265.69234507939967
 31
0.0
  0
LINE
  5
31A4
  8
AM_0
 10
309.82339897171408
 20
287.17757407939979
 30
0.0
 11
310.46851897171427
 21
287.20009807939982
 31
0.0
  0
LINE
  5
31A5
  8
AM_0
 10
275.56771897171382
 20
274.96056307939972
 30
0.0
 11
278.4978789717141
 21
274.85823907939999
 31
0.0
  0
ARC
  5
31A6
  8
AM_0
 10
275.4978789717141
 20
272.96178607939981
 30
0.0
 40
2.00000007
 50
87.999999999999559
 51
180.00001000000091
  0
ARC
  5
31A7
  8
AM_0
 10
271.49788897171368
 20
272.72777707939969
 30
0.0
 40
2.00000007
 50
272.0000000000004
 51
0.0
  0
LINE
  5
31A8
  8
AM_0
 10
273.4979589717139
 20
265.85823907939982
 30
0.0
 11
273.4979589717139
 21
272.96178607939981
 31
0.0
  0
ARC
  5
31A9
  8
AM_0
 10
309.99787897171421
 20
282.18062707939993
 30
0.0
 40
5.0000001000000003
 50
91.999998000000545
 51
180.00001000000091
  0
LINE
  5
31AA
  8
AM_0
 10
278.4978789717141
 20
274.85826907939992
 30
0.0
 11
300.58498897171421
 21
275.6295690793998
 31
0.0
  0
ARC
  5
31AB
  8
AM_0
 10
306.99787897171421
 20
263.69234407939967
 30
0.0
 40
2.00000007
 50
90.000003000000945
 51
180.00001000000091
  0
LINE
  5
31AC
  8
AM_0
 10
301.2787689717141
 20
275.7024780793999
 30
0.0
 11
302.5188189717137
 21
275.9211360793999
 31
0.0
  0
ARC
  5
31AD
  8
AM_0
 10
300.410538971714
 20
280.62651907939988
 30
0.0
 40
5.0000001000000003
 50
272.0000000000004
 51
279.99999999999852
  0
ARC
  5
31AE
  8
AM_0
 10
301.99795897171379
 20
278.87557207939972
 30
0.0
 40
3.0
 50
279.99999999999852
 51
0.0
  0
LINE
  5
31AF
  8
AM_0
 10
321.99790897171408
 20
292.35827107939969
 30
0.0
 11
357.3941889717143
 21
293.59432207939972
 31
0.0
  0
LINE
  5
31B0
  8
AM_0
 10
314.99788897171402
 20
290.18242807939981
 30
0.0
 11
314.99788897171402
 21
267.69234607939978
 31
0.0
  0
ARC
  5
31B1
  8
AM_0
 10
312.99787897171421
 20
267.69234607939978
 30
0.0
 40
2.00000007
 50
270.0
 51
0.0
  0
LINE
  5
31B2
  8
AM_0
 10
321.99790897171408
 20
292.35827107939969
 30
0.0
 11
316.92811897171413
 21
292.1812380793998
 31
0.0
  0
ARC
  5
31B3
  8
AM_0
 10
310.29409897171382
 20
292.19704507939969
 30
0.0
 40
5.0000001000000003
 50
272.0000000000004
 51
343.27365999999921
  0
ARC
  5
31B4
  8
AM_0
 10
316.99795897171379
 20
290.18242807939981
 30
0.0
 40
2.00000007
 50
91.999998000000545
 51
163.27364999999941
  0
ARC
  5
31B5
  8
AM_0
 10
357.28948897171409
 20
296.59250707939981
 30
0.0
 40
3.0
 50
272.0000000000004
 51
315.0
  0
ARC
  5
31B6
  8
AM_0
 10
361.16569897171411
 20
257.60826907939992
 30
0.0
 40
24.832211399999991
 50
349.38167999999962
 51
47.544065999998743
  0
LINE
  5
31B7
  8
AM_0
 10
386.99788897171402
 20
210.64791007939971
 30
0.0
 11
386.99788897171402
 21
285.68349607939967
 31
0.0
  0
LINE
  5
31B8
  8
AM_0
 10
390.99787897171427
 20
164.0582310793998
 30
0.0
 11
390.99787897171427
 21
304.73054707940003
 31
0.0
  0
LINE
  5
31B9
  8
AM_0
 10
396.99787897171427
 20
234.5582490793999
 30
0.0
 11
396.99787897171427
 21
327.05825707939982
 31
0.0
  0
LINE
  5
31BA
  8
AM_0
 10
400.99792897171358
 20
319.55825707939982
 30
0.0
 11
400.99792897171358
 21
149.55824707939991
 31
0.0
  0
LINE
  5
31BB
  8
AM_0
 10
653.60260002619953
 20
261.83080207939992
 30
0.0
 11
678.4903870261993
 21
286.71858907939998
 31
0.0
  0
LINE
  5
31BC
  8
AM_0
 10
590.57217102619961
 20
261.83083207939973
 30
0.0
 11
565.68441402619931
 21
286.71858907939998
 31
0.0
  0
LINE
  5
31BD
  8
AM_0
 10
714.58738002619907
 20
234.5582490793999
 30
0.0
 11
714.58738002619907
 21
264.55824907939967
 31
0.0
  0
LINE
  5
31BE
  8
AM_0
 10
529.58740602619935
 20
234.5582490793999
 30
0.0
 11
529.58740602619935
 21
264.55824907939967
 31
0.0
  0
CIRCLE
  5
31BF
  8
AM_0
 10
622.08738702619962
 20
234.5582490793999
 30
0.0
 40
85.000001999999981
  0
ARC
  5
31C0
  8
AM_0
 10
622.08738702619962
 20
211.35826807939981
 30
0.0
 40
81.000003000000007
 50
24.588775000001409
 51
54.525829999998038
  0
CIRCLE
  5
31C1
  8
AM_0
 10
622.08738702619962
 20
234.5582490793999
 30
0.0
 40
80.000000999999983
  0
CIRCLE
  5
31C2
  8
AM_0
 10
622.08738702619962
 20
234.55827907939991
 30
0.0
 40
29.000001000000001
  0
ARC
  5
31C3
  8
AM_0
 10
622.08738702619962
 20
211.35826807939981
 30
0.0
 40
81.000003000000007
 50
125.47417000000191
 51
155.4112299999997
  0
LINE
  5
31C4
  8
ﾁｭｳｼﾝｾﾝ
 10
622.08738702619962
 20
125.02351807939969
 30
0.0
 11
622.08738702619985
 21
332.923666465873
 31
0.0
  0
LINE
  5
31C5
  8
AM_0
 10
622.08738702619962
 20
142.05824707939991
 30
0.0
 11
652.08738702619962
 21
142.05824707939991
 31
0.0
  0
ARC
  5
31C6
  8
AM_0
 10
622.08738702619962
 20
211.35826807939981
 30
0.0
 40
81.000003000000007
 50
270.0
 51
291.36619999999903
  0
LINE
  5
31C7
  8
ﾁｭｳｼﾝｾﾝ
 10
520.82368602619954
 20
234.5582490793999
 30
0.0
 11
721.91231719744155
 21
234.5582490793999
 31
0.0
  0
LINE
  5
31C8
  8
AM_0
 10
386.99788897171402
 20
144.8156160793998
 30
0.0
 11
386.99788897171402
 21
180.1876110793998
 31
0.0
  0
LINE
  5
31C9
  8
AM_0
 10
396.99787897171427
 20
142.0582320793998
 30
0.0
 11
396.99787897171427
 21
234.5582490793999
 31
0.0
  0
LINE
  5
31CA
  8
AM_0
 10
386.99791897171411
 20
141.7090350793998
 30
0.0
 11
396.99787897171427
 21
142.05824707939991
 31
0.0
  0
ARC
  5
31CB
  8
AM_0
 10
389.99788897171402
 20
144.8156160793998
 30
0.0
 40
3.0
 50
179.9999899999988
 51
271.99999000000111
  0
LINE
  5
31CC
  8
AM_0
 10
396.99787897171427
 20
149.55824707939991
 30
0.0
 11
400.99792897171358
 21
149.55824707939991
 31
0.0
  0
ARC
  5
31CD
  8
AM_0
 10
387.99787897171427
 20
164.0582310793998
 30
0.0
 40
3.0
 50
270.0
 51
0.0
  0
ARC
  5
31CE
  8
AM_0
 10
405.64321897171402
 20
225.32602507939981
 30
0.0
 40
24.832211399999991
 50
169.38167999999959
 51
218.7932100000013
  0
ARC
  5
31CF
  8
AM_0
 10
389.99788897171402
 20
180.1876110793998
 30
0.0
 40
3.0
 50
90.000003000000945
 51
180.00001000000091
  0
ARC
  5
31D0
  8
AM_0
 10
388.62694897171372
 20
211.6479090793998
 30
0.0
 40
3.0
 50
218.7932200000009
 51
270.0
  0
LINE
  5
31D1
  8
AM_0
 10
388.62694897171372
 20
208.64790907939999
 30
0.0
 11
390.99787897171427
 21
208.64790907939999
 31
0.0
  0
LINE
  5
31D2
  8
AM_0
 10
400.99792897171358
 20
220.55826307939981
 30
0.0
 11
442.99792897171358
 21
220.55826307939981
 31
0.0
  0
LINE
  5
31D3
  8
AM_0
 10
400.99792897171358
 20
248.5582650793998
 30
0.0
 11
442.99792897171358
 21
248.5582650793998
 31
0.0
  0
LINE
  5
31D4
  8
AM_0
 10
385.5726789717138
 20
253.0325250793997
 30
0.0
 11
381.23620897171372
 21
229.90175407939981
 31
0.0
  0
LINE
  5
31D5
  8
AM_0
 10
442.99792897171358
 20
251.55825007939981
 30
0.0
 11
442.99792897171358
 21
220.55826307939981
 31
0.0
  0
LINE
  5
31D6
  8
AM_0
 10
410.99788897171391
 20
251.55825007939981
 30
0.0
 11
442.99792897171358
 21
251.55825007939981
 31
0.0
  0
LINE
  5
31D7
  8
AM_0
 10
410.99788897171391
 20
251.55825007939981
 30
0.0
 11
410.99788897171391
 21
248.5582650793998
 31
0.0
  0
LINE
  5
31D8
  8
AM_0
 10
529.58737602619954
 20
204.55823407939971
 30
0.0
 11
531.99288702619936
 21
158.6581620793998
 31
0.0
  0
LINE
  5
31D9
  8
AM_0
 10
592.08738402619917
 20
142.05824707939991
 30
0.0
 11
546.18731502619914
 21
144.46376407939991
 31
0.0
  0
ARC
  5
31DA
  8
AM_0
 10
580.33738602619951
 20
139.0451250793999
 30
0.0
 40
8.0000000999999976
 50
156.73874000000089
 51
323.2612700000002
  0
ARC
  5
31DB
  8
AM_0
 10
546.97234902619925
 20
159.44319607939991
 30
0.0
 40
15.00000029999998
 50
183.00000999999961
 51
267.0000000000008
  0
ARC
  5
31DC
  8
AM_0
 10
546.97234902619925
 20
159.44319607939991
 30
0.0
 40
15.00000029999998
 50
183.00000999999961
 51
267.0000000000008
  0
CIRCLE
  5
31DD
  8
AM_0
 10
546.07342302619963
 20
158.54427007939981
 30
0.0
 40
6.0000002999999991
  0
ARC
  5
31DE
  8
AM_0
 10
622.08738702619962
 20
211.35826807939981
 30
0.0
 40
81.000003000000007
 50
248.6338000000008
 51
270.0
  0
LINE
  5
31DF
  8
AM_0
 10
622.08738702619962
 20
142.05824707939991
 30
0.0
 11
592.08738402619917
 21
142.05824707939991
 31
0.0
  0
ARC
  5
31E0
  8
AM_0
 10
590.75521602619915
 20
131.2689390793997
 30
0.0
 40
5.0000001000000003
 50
68.63379800000007
 51
143.26125999999971
  0
LINE
  5
31E1
  8
AM_0
 10
547.22244102619925
 20
206.35826707939961
 30
0.0
 11
578.08737102619921
 21
206.35826707939961
 31
0.0
  0
ARC
  5
31E2
  8
AM_0
 10
622.08738702619962
 20
211.35826807939981
 30
0.0
 40
76.000001999999981
 50
167.23980000000071
 51
181.39353999999901
  0
LINE
  5
31E3
  8
AM_0
 10
529.58740602619935
 20
234.5582490793999
 30
0.0
 11
529.58740602619935
 21
204.5582490793999
 31
0.0
  0
ARC
  5
31E4
  8
AM_0
 10
622.08738702619962
 20
234.5582490793999
 30
0.0
 40
74.400002999999998
 50
171.8834499999985
 51
184.94541999999871
  0
LINE
  5
31E5
  8
AM_0
 10
583.08738402619917
 20
234.5582490793999
 30
0.0
 11
583.08738402619917
 21
211.35826807939981
 31
0.0
  0
ARC
  5
31E6
  8
AM_0
 10
578.08737102619921
 20
211.35826807939981
 30
0.0
 40
5.0000001000000003
 50
270.0
 51
0.0
  0
ARC
  5
31E7
  8
AM_0
 10
622.08738702619962
 20
234.5582490793999
 30
0.0
 40
14.000001299999999
 50
106.60153999999871
 51
73.398452000001399
  0
ARC
  5
31E8
  8
AM_0
 10
622.08738702619962
 20
234.5582490793999
 30
0.0
 40
39.000011999999998
 50
143.2132099999989
 51
180.00001000000091
  0
ARC
  5
31E9
  8
AM_0
 10
588.45086502619961
 20
259.70949607939968
 30
0.0
 40
3.0
 50
323.21320999999892
 51
45.000000999999187
  0
CIRCLE
  5
31EA
  8
AM_0
 62
     2
 10
622.08738702619962
 20
234.5582490793999
 30
0.0
 40
4.000000199999997
  0
CIRCLE
  5
31EB
  8
AM_0
 10
622.08738702619962
 20
234.5582490793999
 30
0.0
 40
3.0
  0
LINE
  5
31EC
  8
AM_0
 10
618.08737002619955
 20
251.55825007939981
 30
0.0
 11
626.08737102619932
 21
251.55825007939981
 31
0.0
  0
LINE
  5
31ED
  8
AM_0
 10
618.08737002619955
 20
244.5582660793998
 30
0.0
 11
626.08737102619932
 21
244.5582660793998
 31
0.0
  0
LINE
  5
31EE
  8
AM_0
 10
618.08737002619955
 20
244.5582660793998
 30
0.0
 11
618.08737002619955
 21
251.55825007939981
 31
0.0
  0
LINE
  5
31EF
  8
AM_0
 10
626.08737102619932
 20
244.5582660793998
 30
0.0
 11
626.08737102619932
 21
251.55825007939981
 31
0.0
  0
LINE
  5
31F0
  8
AM_0
 10
714.58739802619948
 20
204.5582490793999
 30
0.0
 11
712.18187202619947
 21
158.6581620793998
 31
0.0
  0
ARC
  5
31F1
  8
AM_0
 10
697.20242502619908
 20
159.44319607939991
 30
0.0
 40
15.00000029999998
 50
272.99999999999909
 51
357.00000000000091
  0
ARC
  5
31F2
  8
AM_0
 10
697.20242502619908
 20
159.44319607939991
 30
0.0
 40
15.00000029999998
 50
272.99999999999909
 51
357.00000000000091
  0
ARC
  5
31F3
  8
AM_0
 10
663.83737302619954
 20
139.0451250793999
 30
0.0
 40
8.0000000999999976
 50
216.73874000000009
 51
23.261258000001192
  0
LINE
  5
31F4
  8
AM_0
 10
652.08738702619962
 20
142.05824707939991
 30
0.0
 11
697.98745902619908
 21
144.46376407939991
 31
0.0
  0
ARC
  5
31F5
  8
AM_0
 10
653.41955502619919
 20
131.2689390793997
 30
0.0
 40
5.0000001000000003
 50
36.738737000001201
 51
111.3662099999999
  0
CIRCLE
  5
31F6
  8
AM_0
 10
698.10136602619957
 20
158.54427007939981
 30
0.0
 40
6.0000002999999991
  0
ARC
  5
31F7
  8
AM_0
 10
622.08738702619962
 20
211.35826807939981
 30
0.0
 40
76.000001999999981
 50
358.60644999999948
 51
12.760201999999399
  0
LINE
  5
31F8
  8
AM_0
 10
661.08740202619936
 20
234.5582490793999
 30
0.0
 11
661.08740202619936
 21
211.35826807939981
 31
0.0
  0
LINE
  5
31F9
  8
AM_0
 10
696.95233302619954
 20
206.35826707939961
 30
0.0
 11
666.08738802619951
 21
206.35826707939961
 31
0.0
  0
ARC
  5
31FA
  8
AM_0
 10
666.08738802619951
 20
211.35826807939981
 30
0.0
 40
5.0000001000000003
 50
179.9999899999988
 51
270.0
  0
ARC
  5
31FB
  8
AM_0
 10
622.08738702619962
 20
234.5582490793999
 30
0.0
 40
39.000011999999998
 50
0.0
 51
36.786790999999447
  0
ARC
  5
31FC
  8
AM_0
 10
655.72390902619964
 20
259.70949607939968
 30
0.0
 40
3.0
 50
135.0
 51
216.78679000000079
  0
ARC
  5
31FD
  8
AM_0
 10
622.08738702619962
 20
234.5582490793999
 30
0.0
 40
74.400002999999998
 50
355.05458000000118
 51
8.1165493999996752
  0
LINE
  5
31FE
  8
AM_0
 10
714.58738002619907
 20
234.5582490793999
 30
0.0
 11
714.58738002619907
 21
204.5582490793999
 31
0.0
  0
LINE
  5
31FF
  8
AM_0
 10
622.08738702619962
 20
327.05825707939982
 30
0.0
 11
652.08738702619962
 21
327.05825707939982
 31
0.0
  0
ARC
  5
3200
  8
AM_0
 10
622.08738702619962
 20
211.35826807939981
 30
0.0
 40
81.000003000000007
 50
58.860945000000022
 51
86.245803000000492
  0
ARC
  5
3201
  8
AM_0
 10
622.08738702619962
 20
234.5582490793999
 30
0.0
 40
39.000011999999998
 50
53.213208000002012
 51
126.7867899999999
  0
ARC
  5
3202
  8
AM_0
 10
387.99787897171427
 20
304.73054707940003
 30
0.0
 40
3.0
 50
0.0
 51
91.999998000000545
  0
LINE
  5
3203
  8
AM_0
 10
386.99788897171402
 20
285.68349607939967
 30
0.0
 11
386.99788897171402
 21
324.7776570793996
 31
0.0
  0
ARC
  5
3204
  8
AM_0
 10
389.99788897171402
 20
285.68349607939967
 30
0.0
 40
3.0
 50
179.9999899999988
 51
270.0
  0
LINE
  5
3205
  8
AM_0
 10
377.9280189717141
 20
275.92937407939991
 30
0.0
 11
377.9280189717141
 21
275.92937407939991
 31
0.0
  0
LINE
  5
3206
  8
AM_0
 10
388.92811897171401
 20
326.77646707939982
 30
0.0
 11
396.99784897171412
 21
327.05825707939982
 31
0.0
  0
ARC
  5
3207
  8
AM_0
 10
388.9979289717138
 20
324.7776570793996
 30
0.0
 40
2.00000007
 50
91.999998000000545
 51
180.00001000000091
  0
LINE
  5
3208
  8
AM_0
 10
396.99787897171427
 20
319.55825707939982
 30
0.0
 11
400.99792897171358
 21
319.55825707939982
 31
0.0
  0
LINE
  5
3209
  8
AM_0
 10
592.08736902619967
 20
327.05825707939982
 30
0.0
 11
546.18731502619914
 21
324.65273707940003
 31
0.0
  0
LINE
  5
320A
  8
AM_0
 10
594.81481902619953
 20
266.0734470793999
 30
0.0
 11
569.92706202619945
 21
290.96120407939981
 31
0.0
  0
LINE
  5
320B
  8
AM_0
 10
529.58740602619935
 20
264.55824907939967
 30
0.0
 11
531.99291702619928
 21
310.45829707939981
 31
0.0
  0
CIRCLE
  5
320C
  8
AM_0
 10
546.07342302619963
 20
310.5722370793996
 30
0.0
 40
6.0000002999999991
  0
ARC
  5
320D
  8
AM_0
 10
563.56307802619949
 20
284.5972830793998
 30
0.0
 40
3.0
 50
45.000000999999187
 51
139.46914000000129
  0
ARC
  5
320E
  8
AM_0
 10
572.04836802619934
 20
293.08257307939982
 30
0.0
 40
3.0
 50
130.5308600000009
 51
225.0
  0
ARC
  5
320F
  8
AM_0
 10
546.97234902619925
 20
309.67328707939993
 30
0.0
 40
15.00000029999998
 50
92.99999899999834
 51
176.99999000000011
  0
ARC
  5
3210
  8
AM_0
 10
546.97234902619925
 20
309.67328707939993
 30
0.0
 40
15.00000029999998
 50
92.99999899999834
 51
176.99999000000011
  0
ARC
  5
3211
  8
AM_0
 10
627.58738602619951
 20
305.74610707939991
 30
0.0
 40
3.0
 50
85.582085999998924
 51
180.00001000000091
  0
ARC
  5
3212
  8
AM_0
 10
616.58740002619925
 20
305.74610707939991
 30
0.0
 40
3.0
 50
0.0
 51
94.41791900000014
  0
ARC
  5
3213
  8
AM_0
 10
596.93615502619923
 20
268.19478607939982
 30
0.0
 40
3.0
 50
225.0
 51
306.78678999999988
  0
ARC
  5
3214
  8
AM_0
 10
627.58738602619951
 20
295.17800707939972
 30
0.0
 40
3.0
 50
180.00001000000091
 51
266.24580000000071
  0
LINE
  5
3215
  8
AM_0
 10
619.58740002619925
 20
295.17800707939972
 30
0.0
 11
619.58740002619925
 21
305.74610707939991
 31
0.0
  0
LINE
  5
3216
  8
AM_0
 10
624.58738602619951
 20
295.17800707939972
 30
0.0
 11
624.58738602619951
 21
305.74610707939991
 31
0.0
  0
ARC
  5
3217
  8
AM_0
 10
616.58740002619925
 20
295.17800707939972
 30
0.0
 40
3.0
 50
273.75419999999912
 51
0.0
  0
ARC
  5
3218
  8
AM_0
 10
622.08738702619962
 20
211.35826807939981
 30
0.0
 40
81.000003000000007
 50
93.754195000000877
 51
121.1390599999998
  0
LINE
  5
3219
  8
AM_0
 10
622.08738702619962
 20
327.05825707939982
 30
0.0
 11
592.08738402619917
 21
327.05825707939982
 31
0.0
  0
ARC
  5
321A
  8
AM_0
 10
697.20242502619908
 20
309.67328707939993
 30
0.0
 40
15.00000029999998
 50
3.0000000999988461
 51
86.999999000000216
  0
ARC
  5
321B
  8
AM_0
 10
697.20242502619908
 20
309.67328707939993
 30
0.0
 40
15.00000029999998
 50
3.0000000999988461
 51
86.999999000000216
  0
LINE
  5
321C
  8
ﾁｭｳｼﾝｾﾝ1
 10
554.55869261257033
 20
302.08695849303001
 30
0.0
 11
537.58812943983025
 21
319.05752166577031
 31
0.0
  0
CIRCLE
  5
321D
  8
AM_0
 10
698.10136602619957
 20
310.5722370793996
 30
0.0
 40
6.0000002999999991
  0
ARC
  5
321E
  8
ﾁｭｳｼﾝｾﾝ1
 10
622.08738702620008
 20
234.5582490793999
 30
0.0
 40
107.5000109999999
 50
128.60086365615871
 51
141.3991295600627
  0
LINE
  5
321F
  8
AM_0
 10
649.35995502619915
 20
266.0734470793999
 30
0.0
 11
674.24774202619938
 21
290.96123707939989
 31
0.0
  0
ARC
  5
3220
  8
AM_0
 10
647.23863102619953
 20
268.19478607939982
 30
0.0
 40
3.0
 50
233.21321
 51
315.0
  0
ARC
  5
3221
  8
AM_0
 10
672.12642102619952
 20
293.08257307939982
 30
0.0
 40
3.0
 50
315.0
 51
49.469137000000707
  0
ARC
  5
3222
  8
AM_0
 10
680.61169602619918
 20
284.5972830793998
 30
0.0
 40
3.0
 50
40.530865000001221
 51
135.0
  0
LINE
  5
3223
  8
AM_0
 10
652.08740202619936
 20
327.05825707939982
 30
0.0
 11
697.98747402619961
 21
324.65270707939982
 31
0.0
  0
LINE
  5
3224
  8
AM_0
 10
714.58738002619907
 20
264.55824907939967
 30
0.0
 11
712.18186302619961
 21
310.45829707939981
 31
0.0
  0
LINE
  5
3226
  8
0
 10
178.9979289717138
 20
419.46145530250323
 30
0.0
 11
178.9979289717138
 21
579.46145530250328
 31
0.0
1001
GENIUS_GENOREF_13
1005
2F4B
  0
LINE
  5
3227
  8
0
 10
188.9979289717138
 20
577.46145530250305
 30
0.0
 11
188.9979289717138
 21
421.46145530250323
 31
0.0
1001
GENIUS_GENOREF_13
1005
2F4B
  0
ARC
  5
3228
  8
0
 10
186.9979289717138
 20
421.46145530250323
 30
0.0
 40
2.0
 50
270.0
 51
0.0
1001
GENIUS_GENOBJ-N-FIL_13
1002
{
1000
OWNER
1000
GEN
1002
}
1001
GENIUS_GENODEF_13
1002
{
1000
HIER
1070
     0
1002
}
1002
{
1000
MANEDIT
1070
     0
1002
}
1002
{
1000
NOSEL
1070
     0
1002
}
1002
{
1000
BEHIND
1070
     0
1002
}
1002
{
1000
OTHER
1070
     0
1002
}
1002
{
1000
REACTOR
1002
}
  0
LINE
  5
3229
  8
0
 10
178.9979289717138
 20
419.46145530250323
 30
0.0
 11
186.9979289717138
 21
419.46145530250323
 31
0.0
  0
LINE
  5
322A
  8
AM_0
 10
209.9979289717138
 20
453.46143830250321
 30
0.0
 11
188.9979289717138
 21
453.46143830250321
 31
0.0
  0
LINE
  5
322B
  8
0
 10
190.9281299783085
 20
442.29552324760022
 30
0.0
 11
209.9979289717138
 21
442.96145530250311
 31
0.0
  0
ARC
  5
322C
  8
0
 10
190.9979289717138
 20
440.29674159356227
 30
0.0
 40
2.0
 50
92.000000000000426
 51
180.0
1001
GENIUS_GENOBJ-N-FIL_13
1002
{
1000
OWNER
1000
GEN
1002
}
1001
GENIUS_GENODEF_13
1002
{
1000
HIER
1070
     0
1002
}
1002
{
1000
MANEDIT
1070
     0
1002
}
1002
{
1000
NOSEL
1070
     0
1002
}
1002
{
1000
BEHIND
1070
     0
1002
}
1002
{
1000
OTHER
1070
     0
1002
}
1002
{
1000
REACTOR
1002
}
  0
LINE
  5
322D
  8
AM_0
 10
209.9979289717138
 20
467.52401330250319
 30
0.0
 11
188.9979289717138
 21
467.52401330250319
 31
0.0
  0
LINE
  5
322E
  8
0
 10
190.9281299783085
 20
556.62738735740595
 30
0.0
 11
209.9979289717138
 21
555.96145530250305
 31
0.0
  0
LINE
  5
322F
  8
AM_0
 10
209.9979289717138
 20
545.46145430250306
 30
0.0
 11
188.9979289717138
 21
545.46145430250306
 31
0.0
  0
LINE
  5
3230
  8
AM_0
 10
209.9979289717138
 20
531.39889430250321
 30
0.0
 11
188.9979289717138
 21
531.39889430250321
 31
0.0
  0
ARC
  5
3231
  8
0
 10
190.9979289717138
 20
558.62616901144395
 30
0.0
 40
2.0
 50
180.0
 51
267.9999999999996
1001
GENIUS_GENOBJ-N-FIL_13
1002
{
1000
OWNER
1000
GEN
1002
}
1001
GENIUS_GENODEF_13
1002
{
1000
HIER
1070
     0
1002
}
1002
{
1000
MANEDIT
1070
     0
1002
}
1002
{
1000
NOSEL
1070
     0
1002
}
1002
{
1000
BEHIND
1070
     0
1002
}
1002
{
1000
OTHER
1070
     0
1002
}
1002
{
1000
REACTOR
1002
}
  0
LINE
  5
3232
  8
0
 10
178.9979289717138
 20
579.46145530250328
 30
0.0
 11
186.9979289717138
 21
579.46145530250328
 31
0.0
  0
ARC
  5
3233
  8
0
 10
186.9979289717138
 20
577.46145530250305
 30
0.0
 40
2.0
 50
0.0
 51
90.0
1001
GENIUS_GENOBJ-N-FIL_13
1002
{
1000
OWNER
1000
GEN
1002
}
1001
GENIUS_GENODEF_13
1002
{
1000
HIER
1070
     0
1002
}
1002
{
1000
MANEDIT
1070
     0
1002
}
1002
{
1000
NOSEL
1070
     0
1002
}
1002
{
1000
BEHIND
1070
     0
1002
}
1002
{
1000
OTHER
1070
     0
1002
}
1002
{
1000
REACTOR
1002
}
  0
LINE
  5
3235
  8
ﾁｭｳｼﾝｾﾝ1
 10
689.61608143982892
 20
302.08695849302973
 30
0.0
 11
706.58664461256876
 21
319.05752166577008
 31
0.0
  0
ARC
  5
3236
  8
ﾁｭｳｼﾝｾﾝ1
 10
622.08738702619928
 20
234.5582490793999
 30
0.0
 40
107.5000109999999
 50
38.600870439937189
 51
51.399136343841057
  0
ARC
  5
3237
  8
ﾁｭｳｼﾝｾﾝ1
 10
622.08738702619928
 20
234.5582490793999
 30
0.0
 40
107.5000109999999
 50
308.60086365615882
 51
321.39912956006282
  0
LINE
  5
3238
  8
ﾁｭｳｼﾝｾﾝ1
 10
689.61608143982892
 20
167.02953966576979
 30
0.0
 11
706.58664461256876
 21
150.0589764930296
 31
0.0
  0
LINE
  5
3239
  8
ﾁｭｳｼﾝｾﾝ1
 10
554.55869261257033
 20
167.0295396657697
 30
0.0
 11
537.58812943983025
 21
150.0589764930296
 31
0.0
  0
ARC
  5
323A
  8
ﾁｭｳｼﾝｾﾝ1
 10
622.08738702620008
 20
234.5582490793999
 30
0.0
 40
107.5000109999999
 50
218.6008704399373
 51
231.39913634384109
  0
TEXT
  5
3425
  8
AM_0
 10
521.87128272717814
 20
521.55178187630554
 30
0.0
 40
10.0
  1
VX01-240AF~VX01-600AF
  0
ENDSEC
  0
EOF
