  0
SECTION
  2
HEADER
  9
$ACADVER
  1
AC1009
  9
$INSBASE
 10
0.0
 20
0.0
 30
0.0
  9
$EXTMIN
 10
159.38008334951019
 20
110.785018211403
 30
-0.000000000000013
  9
$EXTMAX
 10
869.02386675137529
 20
682.30990106361151
 30
0.0000000000000023
  9
$LIMMIN
 10
0.0
 20
0.0
  9
$LIMMAX
 10
853.5
 20
555.00000000000011
  9
$ORTHOMODE
 70
     0
  9
$REGENMODE
 70
     1
  9
$FILLMODE
 70
     1
  9
$QTEXTMODE
 70
     0
  9
$MIRRTEXT
 70
     1
  9
$DRAGMODE
 70
     2
  9
$LTSCALE
 40
3.0
  9
$OSMODE
 70
   551
  9
$ATTMODE
 70
     1
  9
$TEXTSIZE
 40
2.5
  9
$TRACEWID
 40
1.0
  9
$TEXTSTYLE
  7
STANDARD
  9
$CLAYER
  8
AM_0
  9
$CELTYPE
  6
BYLAYER
  9
$CECOLOR
 62
   256
  9
$DIMSCALE
 40
1.0
  9
$DIMASZ
 40
2.5
  9
$DIMEXO
 40
1.0
  9
$DIMDLI
 40
8.0
  9
$DIMRND
 40
0.0
  9
$DIMDLE
 40
0.0
  9
$DIMEXE
 40
0.6
  9
$DIMTP
 40
0.1
  9
$DIMTM
 40
0.1
  9
$DIMTXT
 40
2.5
  9
$DIMCEN
 40
0.0
  9
$DIMTSZ
 40
0.0
  9
$DIMTOL
 70
     0
  9
$DIMLIM
 70
     0
  9
$DIMTIH
 70
     0
  9
$DIMTOH
 70
     0
  9
$DIMSE1
 70
     0
  9
$DIMSE2
 70
     0
  9
$DIMTAD
 70
     1
  9
$DIMZIN
 70
     8
  9
$DIMBLK
  1

  9
$DIMASO
 70
     1
  9
$DIMSHO
 70
     1
  9
$DIMPOST
  1

  9
$DIMAPOST
  1
"
  9
$DIMALT
 70
     0
  9
$DIMALTD
 70
     2
  9
$DIMALTF
 40
0.0393701
  9
$DIMLFAC
 40
1.0
  9
$DIMTOFL
 70
     1
  9
$DIMTVP
 40
0.0
  9
$DIMTIX
 70
     0
  9
$DIMSOXD
 70
     0
  9
$DIMSAH
 70
     0
  9
$DIMBLK1
  1

  9
$DIMBLK2
  1

  9
$DIMSTYLE
  2
AM_ISO
  9
$DIMCLRD
 70
   256
  9
$DIMCLRE
 70
   256
  9
$DIMCLRT
 70
     4
  9
$DIMTFAC
 40
0.71
  9
$DIMGAP
 40
0.8
  9
$LUNITS
 70
     2
  9
$LUPREC
 70
     2
  9
$SKETCHINC
 40
1.0
  9
$FILLETRAD
 40
15.0
  9
$AUNITS
 70
     0
  9
$AUPREC
 70
     0
  9
$MENU
  1
.
  9
$ELEVATION
 40
0.0
  9
$PELEVATION
 40
0.0
  9
$THICKNESS
 40
0.0
  9
$LIMCHECK
 70
     0
  9
$BLIPMODE
 70
     0
  9
$CHAMFERA
 40
6.0
  9
$CHAMFERB
 40
3.0
  9
$SKPOLY
 70
     0
  9
$TDCREATE
 40
2452065.6720352201
  9
$TDUPDATE
 40
2458541.5349080549
  9
$TDINDWG
 40
0.1924444329
  9
$TDUSRTIMER
 40
0.1924442361
  9
$USRTIMER
 70
     1
  9
$ANGBASE
 50
0.0
  9
$ANGDIR
 70
     0
  9
$PDMODE
 70
     0
  9
$PDSIZE
 40
0.0
  9
$PLINEWID
 40
0.0
  9
$COORDS
 70
     1
  9
$SPLFRAME
 70
     0
  9
$SPLINETYPE
 70
     6
  9
$SPLINESEGS
 70
     8
  9
$ATTDIA
 70
     1
  9
$ATTREQ
 70
     1
  9
$HANDLING
 70
     1
  9
$HANDSEED
  5
3503
  9
$SURFTAB1
 70
     6
  9
$SURFTAB2
 70
     6
  9
$SURFTYPE
 70
     6
  9
$SURFU
 70
     6
  9
$SURFV
 70
     6
  9
$UCSNAME
  2

  9
$UCSORG
 10
0.0
 20
0.0
 30
0.0
  9
$UCSXDIR
 10
1.0
 20
0.0
 30
0.0
  9
$UCSYDIR
 10
0.0
 20
1.0
 30
0.0
  9
$PUCSNAME
  2

  9
$PUCSORG
 10
0.0
 20
0.0
 30
0.0
  9
$PUCSXDIR
 10
1.0
 20
0.0
 30
0.0
  9
$PUCSYDIR
 10
0.0
 20
1.0
 30
0.0
  9
$USERI1
 70
     0
  9
$USERI2
 70
     0
  9
$USERI3
 70
     0
  9
$USERI4
 70
     0
  9
$USERI5
 70
     0
  9
$USERR1
 40
0.0
  9
$USERR2
 40
0.0
  9
$USERR3
 40
0.0
  9
$USERR4
 40
0.0
  9
$USERR5
 40
0.0
  9
$WORLDVIEW
 70
     1
  9
$SHADEDGE
 70
     3
  9
$SHADEDIF
 70
    70
  9
$TILEMODE
 70
     1
  9
$MAXACTVP
 70
    64
  9
$PLIMCHECK
 70
     0
  9
$PEXTMIN
 10
1.0000000000000000E+020
 20
1.0000000000000000E+020
 30
1.0000000000000000E+020
  9
$PEXTMAX
 10
-1.0000000000000000E+020
 20
-1.0000000000000000E+020
 30
-1.0000000000000000E+020
  9
$PLIMMIN
 10
0.0
 20
0.0
  9
$PLIMMAX
 10
420.0
 20
297.0
  9
$UNITMODE
 70
     0
  9
$VISRETAIN
 70
     1
  9
$PLINEGEN
 70
     0
  9
$PSLTSCALE
 70
     1
  0
ENDSEC
  0
SECTION
  2
TABLES
  0
TABLE
  2
VPORT
 70
     1
  0
VPORT
  2
*ACTIVE
 70
     0
 10
0.0
 20
0.0
 11
1.0
 21
1.0
 12
514.20197505044268
 22
396.54745963750719
 13
0.0
 23
0.0
 14
7.5
 24
7.5
 15
30.0
 25
30.0
 16
0.0
 26
0.0
 36
1.0
 17
0.0
 27
0.0
 37
0.0
 40
575.44839463380254
 41
1.7571592210767459
 42
50.0
 43
0.0
 44
0.0
 50
0.0
 51
0.0
 71
     0
 72
   100
 73
     1
 74
     3
 75
     0
 76
     0
 77
     0
 78
     0
  0
ENDTAB
  0
TABLE
  2
LTYPE
 70
    26
  0
LTYPE
  2
CONTINUOUS
 70
     0
  3
Solid line
 72
    65
 73
     0
 40
0.0
  0
LTYPE
  2
AM_ISO02W050
 70
     0
  3
__ __ __ __ __ __ __ __ __ __ __ __ __ __ __
 72
    65
 73
     2
 40
7.5
 49
6.0
 49
-1.5
  0
LTYPE
  2
AM_ISO08W050
 70
     0
  3
____ . ____ . ____ . ____ . ____ . ____ . ____
 72
    65
 73
     4
 40
18.0
 49
12.0
 49
-1.5
 49
3.0
 49
-1.5
  0
LTYPE
  2
AM_ISO09W050
 70
     0
  3
_____ . . _____ . . _____ . . ____ .. ____
 72
    65
 73
     6
 40
22.5
 49
12.0
 49
-1.5
 49
3.0
 49
-1.5
 49
3.0
 49
-1.5
  0
LTYPE
  2
AMCONSTR
 70
     0
  3
_______________________
 72
    65
 73
     2
 40
9999.0
 49
9999.0
 49
0.0
  0
LTYPE
  2
AM_ISO08W050X2
 70
     0
  3
__ . __ . __ . __ . __ . __
 72
    65
 73
     4
 40
9.0
 49
6.0
 49
-0.75
 49
1.5
 49
-0.75
  0
LTYPE
  2
AM_ISO02W050X2
 70
     0
  3
 _ _ _ _ _ _ _ _ _ _ _ _
 72
    65
 73
     2
 40
3.75
 49
3.0
 49
-0.75
  0
LTYPE
  2
AMZIGZAG
 70
     0
  3
/\/-/\/-/\/-/\/-/\/-/\/
 72
    65
 73
     2
 40
11.000099999999991
 49
0.0001
 49
-11.0
  0
LTYPE
  2
ACISOWELD
 70
     0
  3
_ _ _ _ _
 72
    65
 73
     2
 40
2.0
 49
2.0
 49
-1.0
  0
LTYPE
  2
ACISOTGB
 70
     0
  3
__ . . __ . .
 72
    65
 73
     6
 40
9.0
 49
4.0
 49
-1.0
 49
1.0
 49
-1.0
 49
1.0
 49
-1.0
  0
LTYPE
  2
ACISOTGL
 70
     0
  3
_ _ _ _ _
 72
    65
 73
     2
 40
3.0
 49
2.0
 49
-1.0
  0
LTYPE
  2
CENTER
 70
     0
  3
__ . __
 72
    65
 73
     4
 40
7.0
 49
4.0
 49
-1.0
 49
1.0
 49
-1.0
  0
LTYPE
  2
PHANTOM2
 70
     0
  3
Phantom (.5x) ___ _ _ ___ _ _ ___ _ _ ___ _ _
 72
    65
 73
     6
 40
31.75
 49
15.875
 49
-3.174999999999998
 49
3.174999999999998
 49
-3.174999999999998
 49
3.174999999999998
 49
-3.174999999999998
  0
LTYPE
  2
ACANSTGBM
 70
     0
  3
__ . . __ . .
 72
    65
 73
     6
 40
9.0
 49
4.0
 49
-1.0
 49
1.0
 49
-1.0
 49
1.0
 49
-1.0
  0
LTYPE
  2
ACANSTGLM
 70
     0
  3
_ _ _ _ _
 72
    65
 73
     2
 40
3.0
 49
2.0
 49
-1.0
  0
LTYPE
  2
GEN7
 70
     0
  3
____ . ____ . ____ . ____ . ____ . ____ . ____
 72
    65
 73
     4
 40
14.25
 49
9.75
 49
-1.5
 49
1.5
 49
-1.5
  0
LTYPE
  2
GEN7A
 70
     0
  3
__ . __ . __
 72
    65
 73
     4
 40
7.375
 49
4.75
 49
-0.875
 49
0.875
 49
-0.875
  0
LTYPE
  2
ACJISTGB
 70
     0
  3
__ . . __ . .
 72
    65
 73
     6
 40
9.0
 49
4.0
 49
-1.0
 49
1.0
 49
-1.0
 49
1.0
 49
-1.0
  0
LTYPE
  2
ACJISTGL
 70
     0
  3
_ _ _ _ _
 72
    65
 73
     2
 40
3.0
 49
2.0
 49
-1.0
  0
LTYPE
  2
HIDDEN
 70
     0
  3
Hidden __ __ __ __ __ __ __ __ __ __ __ __ __ _
 72
    65
 73
     2
 40
0.375
 49
0.25
 49
-0.125
  0
LTYPE
  2
CENTER2
 70
     0
  3
Center (.5x) ___ _ ___ _ ___ _ ___ _ ___ _ ___
 72
    65
 73
     4
 40
1.125
 49
0.75
 49
-0.125
 49
0.125
 49
-0.125
  0
LTYPE
  2
HIDDEN2
 70
     0
  3
Hidden (.5x) _ _ _ _ _ _ _ _ _ _ _ _ _ _ _ _ _
 72
    65
 73
     2
 40
0.1875
 49
0.125
 49
-0.0625
  0
LTYPE
  2
AMZIGZAG2
 70
     0
  3
/\/-/\/-/\/-/\/-/\/-/\/
 72
    65
 73
     2
 40
0.4401
 49
0.0001
 49
-0.4400000000000002
  0
LTYPE
  2
ACANSTGB
 70
     0
  3
__ . . __ . .
 72
    65
 73
     6
 40
0.35433070866
 49
0.15748031496
 49
-0.03937007874
 49
0.03937007874
 49
-0.03937007874
 49
0.03937007874
 49
-0.03937007874
  0
LTYPE
  2
ACANSTGL
 70
     0
  3
_ _ _ _ _
 72
    65
 73
     2
 40
0.11811023622
 49
0.07874015748
 49
-0.03937007874
  0
ENDTAB
  0
TABLE
  2
LAYER
 70
     5
  0
LAYER
  2
0
 70
     0
 62
     7
  6
CONTINUOUS
  0
LAYER
  2
AM_0
 70
     0
 62
     7
  6
CONTINUOUS
  0
LAYER
  2
DEFPOINTS
 70
     0
 62
     7
  6
CONTINUOUS
  0
LAYER
  2
ﾁｭｳｼﾝｾﾝ
 70
     0
 62
     1
  6
GEN7
  0
LAYER
  2
ﾁｭｳｼﾝｾﾝ1
 70
     0
 62
     1
  6
GEN7A
  0
ENDTAB
  0
TABLE
  2
STYLE
 70
     9
  0
STYLE
  2
STANDARD
 70
     0
 40
0.0
 41
0.8299999999999999
 50
0.0
 71
     0
 42
2.5
  3
txt.shx
  4
bigfont.shx
  0
STYLE
  2
ANNOTATIVE
 70
     0
 40
0.0
 41
1.0
 50
0.0
 71
     0
 42
0.2
  3
txt
  4

  0
STYLE
  2

 70
     1
 40
0.0
 41
1.0
 50
0.0
 71
     0
 42
2.5
  3
ltypeshp.shx
  4

  0
STYLE
  2
ACISOTS
 70
     0
 40
1.0
 41
1.0
 50
0.0
 71
     0
 42
2.5
  3
isocp.shx
  4
extfont.shx
  0
STYLE
  2
ACISOGDT
 70
     0
 40
0.0
 41
1.0
 50
0.0
 71
     0
 42
2.5
  3
amgdt.shx
  4

  0
STYLE
  2
ACANSTS
 70
     0
 40
1.0
 41
1.0
 50
0.0
 71
     0
 42
2.5
  3
romans.shx
  4
bigfont.shx
  0
STYLE
  2
ACANSGDT
 70
     0
 40
0.0
 41
1.0
 50
0.0
 71
     0
 42
2.5
  3
amgdt.shx
  4

  0
STYLE
  2
ACJISTS
 70
     0
 40
1.0
 41
1.0
 50
0.0
 71
     0
 42
2.5
  3
isocp.shx
  4
bigfont.shx
  0
STYLE
  2
ACJISGDT
 70
     0
 40
0.0
 41
1.0
 50
0.0
 71
     0
 42
2.5
  3
amgdt.shx
  4

  0
ENDTAB
  0
TABLE
  2
VIEW
 70
     6
  0
VIEW
  2
AM_VIEW1
 70
     0
 40
277.49999999999989
 10
249.64779005524849
 20
416.24999999999989
 41
499.2955801104971
 11
0.0
 21
0.0
 31
1.0
 12
0.0
 22
0.0
 32
0.0
 42
50.0
 43
0.0
 44
0.0
 50
0.0
 71
     0
  0
VIEW
  2
AM_VIEW2
 70
     0
 40
277.49999999999989
 10
603.85220994475117
 20
416.24999999999989
 41
499.2955801104971
 11
0.0
 21
0.0
 31
1.0
 12
0.0
 22
0.0
 32
0.0
 42
50.0
 43
0.0
 44
0.0
 50
0.0
 71
     0
  0
VIEW
  2
AM_VIEW3
 70
     0
 40
277.49999999999989
 10
249.64779005524849
 20
138.7499999999998
 41
499.2955801104971
 11
0.0
 21
0.0
 31
1.0
 12
0.0
 22
0.0
 32
0.0
 42
50.0
 43
0.0
 44
0.0
 50
0.0
 71
     0
  0
VIEW
  2
AM_VIEW4
 70
     0
 40
277.49999999999989
 10
603.85220994475117
 20
138.7499999999998
 41
499.2955801104971
 11
0.0
 21
0.0
 31
1.0
 12
0.0
 22
0.0
 32
0.0
 42
50.0
 43
0.0
 44
0.0
 50
0.0
 71
     0
  0
VIEW
  2
AM_VIEW5
 70
     0
 40
277.5
 10
426.75
 20
277.49999999999989
 41
499.2955801104971
 11
0.0
 21
0.0
 31
1.0
 12
0.0
 22
0.0
 32
0.0
 42
50.0
 43
0.0
 44
0.0
 50
0.0
 71
     0
  0
VIEW
  2
AM_VIEW6
 70
     0
 40
554.99445000000014
 10
426.75
 20
277.49999999999989
 41
998.5811743093924
 11
0.0
 21
0.0
 31
1.0
 12
0.0
 22
0.0
 32
0.0
 42
50.0
 43
0.0
 44
0.0
 50
0.0
 71
     0
  0
ENDTAB
  0
TABLE
  2
UCS
 70
     0
  0
ENDTAB
  0
TABLE
  2
APPID
 70
    95
  0
APPID
  2
ACAD
 70
     0
  0
APPID
  2
ACADANNOTATIVE
 70
     0
  0
APPID
  2
MCAD_NO_VIS
 70
     0
  0
APPID
  2
ACAD_TEMP_GRAPHIC
 70
     0
  0
APPID
  2
ACATTRIBSERVICES
 70
     0
  0
APPID
  2
GENIUS_GENREC_14
 70
     0
  0
APPID
  2
GENIUS_GENOBJ-N-REC_13
 70
     0
  0
APPID
  2
GENIUS_GENODEF_13
 70
     0
  0
APPID
  2
GENIUS_GENOLIS_13
 70
     0
  0
APPID
  2
GENIUS_GENOBJ-N-TIT_13
 70
     0
  0
APPID
  2
GENIUS_GENOENT_13
 70
     0
  0
APPID
  2
GENIUS_GENTITLE_13
 70
     0
  0
APPID
  2
GENIUS_GENOREF_13
 70
     0
  0
APPID
  2
GENIUS_GENSCREG_15
 70
     0
  0
APPID
  2
GENIUS_GENOBJ-N-SDF_13
 70
     0
  0
APPID
  2
GENIUS_GENFIL_13
 70
     0
  0
APPID
  2
GENIUS_GENOBJ-N-CHA_13
 70
     0
  0
APPID
  2
GENIUS_GENDTOL_13
 70
     0
  0
APPID
  2
GENIUS_GENOBJ-N-FIL_13
 70
     0
  0
APPID
  2
AD_DRAW
 70
     0
  0
APPID
  2
DESIGNERASSEMBLIES
 70
     0
  0
APPID
  2
ASURF_PCURVE_APPNAME
 70
     0
  0
APPID
  2
GENIUS_GE3SECT_13
 70
     0
  0
APPID
  2
GENIUS_GENCFG_13
 70
     0
  0
APPID
  2
GENIUS_GE3CFG0_13
 70
     0
  0
APPID
  2
GENIUS_GENCFG0_13
 70
     0
  0
APPID
  2
GENIUS_GENCFG1_13
 70
     0
  0
APPID
  2
GENIUS_GENCFG2_13
 70
     0
  0
APPID
  2
GENIUS_GENCFG3_13
 70
     0
  0
APPID
  2
GENIUS_GENCFG4_13
 70
     0
  0
APPID
  2
GENIUS_GEVCFG0_13
 70
     0
  0
APPID
  2
GENIUS_GENHINW_13
 70
     0
  0
APPID
  2
GENIUS_FIRSTVISTXT_14
 70
     0
  0
APPID
  2
GENIUS_GENOBJ-N-LEADER_13
 70
     0
  0
APPID
  2
GEV_VCCNULL_SWITCH_OFF
 70
     0
  0
APPID
  2
GENIUS_GEFCFG0_13
 70
     0
  0
APPID
  2
GENIUS_GENZVEED_13
 70
     0
  0
APPID
  2
GENIUS_GENSCREG_13
 70
     0
  0
APPID
  2
GENIUS_DUMCFG0_13
 70
     0
  0
APPID
  2
GEVID936201362
 70
     0
  0
APPID
  2
GEVDC
 70
     0
  0
APPID
  2
GEVCON
 70
     0
  0
APPID
  2
VCC
 70
     0
  0
APPID
  2
GEVPT
 70
     0
  0
APPID
  2
GEVIT
 70
     0
  0
APPID
  2
GENBH
 70
     0
  0
APPID
  2
GEVMK
 70
     0
  0
APPID
  2
GENIUS_GENBH_13
 70
     0
  0
APPID
  2
GENIUS_GENOBJ-NBEHI-BHF_13
 70
     0
  0
APPID
  2
GENIUS_GENOBJ-NBEHI-BHB_13
 70
     0
  0
APPID
  2
GENIUS_GENOBJ-F-DESC_13
 70
     0
  0
APPID
  2
GENIUS_GEFDESC_14
 70
     0
  0
APPID
  2
GENIUS_GENOBJ-F-PART_13
 70
     0
  0
APPID
  2
GENIUS_GEFSTDP_13
 70
     0
  0
APPID
  2
GENIUS_GEFPARTINS_13
 70
     0
  0
APPID
  2
GENIUS_GENTRA_14
 70
     0
  0
APPID
  2
GENIUS_GENINF13_13
 70
     0
  0
APPID
  2
GENIUS_GENOBJ-N-INFOPT_13
 70
     0
  0
APPID
  2
GENIUS_GENOBJ-N-RSSYM_13
 70
     0
  0
APPID
  2
GENIUS_GENSYMENT_13
 70
     0
  0
APPID
  2
GENIUS_GENSCSYM_13
 70
     0
  0
APPID
  2
GENIUS_GEFINFNAM_13
 70
     0
  0
APPID
  2
GENIUS_GENOBJ-N-CEN_13
 70
     0
  0
APPID
  2
GENIUS_GENOBJ-N-CRS_13
 70
     0
  0
APPID
  2
GENIUS_GENOBJ-N-CRC_13
 70
     0
  0
APPID
  2
GENIUS_GENCRC_14
 70
     0
  0
APPID
  2
GEVID942827039
 70
     0
  0
APPID
  2
GEVID942827040
 70
     0
  0
APPID
  2
GEVID942827041
 70
     0
  0
APPID
  2
GENIUS_GENOBJ-F-SCPASSM_13
 70
     0
  0
APPID
  2
GENIUS_GENDIMSH_14
 70
     0
  0
APPID
  2
GEVID942827042
 70
     0
  0
APPID
  2
GEVID946020473
 70
     0
  0
APPID
  2
GEVID946020474
 70
     0
  0
APPID
  2
GEVID946020475
 70
     0
  0
APPID
  2
GENIUS_GENOBJ-N-HTC_13
 70
     0
  0
APPID
  2
GENIUS_GENHATCH_13
 70
     0
  0
APPID
  2
GEVID948854295
 70
     0
  0
APPID
  2
GEVID939402019
 70
     0
  0
APPID
  2
GEVID952919491
 70
     0
  0
APPID
  2
GEVID952919492
 70
     0
  0
APPID
  2
GENIUS_GEFWELD_13
 70
     0
  0
APPID
  2
GENIUS_GENOBJ-F-WELS_13
 70
     0
  0
APPID
  2
GEVID952919493
 70
     0
  0
APPID
  2
GENIUS_GENOBJ-N-RSBK_13
 70
     0
  0
APPID
  2
GENIUS_GENOBJ-N-LIB_13
 70
     0
  0
APPID
  2
GENIUS_GENSCALE_13
 70
     0
  0
APPID
  2
GEVID986376691
 70
     0
  0
APPID
  2
DCO15
 70
     0
  0
APPID
  2
ACAD_DSTYLE_DIMBREAK
 70
     0
  0
APPID
  2
ACAD_DSTYLE_DIMJAG
 70
     0
  0
APPID
  2
ACAD_NAV_VCDISPLAY
 70
     0
  0
APPID
  2
ACADANNOPO
 70
     0
  0
APPID
  2
ACAD_EXEMPT_FROM_CAD_STANDARDS
 70
     0
  0
APPID
  2
ACAD_MLEADERVER
 70
     0
  0
ENDTAB
  0
TABLE
  2
DIMSTYLE
 70
    22
  0
DIMSTYLE
  2
STANDARD
 70
     0
  3

  4

  5

  6

  7

 40
1.0
 41
0.18
 42
0.0625
 43
0.38
 44
0.18
 45
0.0
 46
0.0
 47
0.0
 48
0.0
140
0.18
141
0.09
142
0.0
143
25.399999999999999
144
1.0
145
0.0
146
1.0
147
0.09
 71
     0
 72
     0
 73
     1
 74
     1
 75
     0
 76
     0
 77
     0
 78
     0
170
     0
171
     2
172
     0
173
     0
174
     0
175
     0
176
     0
177
     0
178
     0
  0
DIMSTYLE
  2
ANNOTATIVE
 70
     0
  3

  4

  5

  6

  7

 40
1.0
 41
0.18
 42
0.0625
 43
0.38
 44
0.18
 45
0.0
 46
0.0
 47
0.0
 48
0.0
140
0.18
141
0.09
142
0.0
143
25.399999999999999
144
1.0
145
0.0
146
1.0
147
0.09
 71
     0
 72
     0
 73
     1
 74
     1
 75
     0
 76
     0
 77
     0
 78
     0
170
     0
171
     2
172
     0
173
     0
174
     0
175
     0
176
     0
177
     0
178
     0
  0
DIMSTYLE
  2
AM_ISO
 70
     0
  3

  4
"
  5

  6

  7

 40
1.0
 41
2.5
 42
1.0
 43
8.0
 44
0.6
 45
0.0
 46
0.0
 47
0.1
 48
0.1
140
2.5
141
0.0
142
0.0
143
0.0393701
144
1.0
145
0.0
146
0.71
147
0.8
 71
     0
 72
     0
 73
     0
 74
     0
 75
     0
 76
     0
 77
     1
 78
     8
170
     0
171
     2
172
     1
173
     0
174
     0
175
     0
176
   256
177
   256
178
     4
  0
DIMSTYLE
  2
AM_ISO$3
 70
     0
  3

  4
"
  5

  6

  7

 40
1.0
 41
2.5
 42
1.0
 43
8.0
 44
0.6
 45
0.0
 46
0.0
 47
0.1
 48
0.1
140
2.5
141
0.0
142
0.0
143
0.0393701
144
1.0
145
0.0
146
0.71
147
0.8
 71
     0
 72
     0
 73
     0
 74
     1
 75
     0
 76
     0
 77
     1
 78
     8
170
     0
171
     2
172
     0
173
     0
174
     0
175
     0
176
   256
177
   256
178
     4
  0
DIMSTYLE
  2
AM_ISO$4
 70
     0
  3

  4
"
  5

  6

  7

 40
1.0
 41
2.5
 42
1.0
 43
8.0
 44
0.6
 45
0.0
 46
0.0
 47
0.1
 48
0.1
140
2.5
141
0.0
142
0.0
143
0.0393701
144
1.0
145
0.0
146
0.71
147
0.8
 71
     0
 72
     0
 73
     0
 74
     1
 75
     0
 76
     0
 77
     1
 78
     8
170
     0
171
     2
172
     0
173
     0
174
     0
175
     0
176
   256
177
   256
178
     4
  0
DIMSTYLE
  2
AM_ISO$6
 70
     0
  3

  4
"
  5

  6

  7

 40
1.0
 41
2.5
 42
1.0
 43
8.0
 44
0.6
 45
0.0
 46
0.0
 47
0.1
 48
0.1
140
2.5
141
0.0
142
0.0
143
0.0393701
144
1.0
145
0.0
146
0.71
147
0.8
 71
     0
 72
     0
 73
     0
 74
     0
 75
     0
 76
     0
 77
     0
 78
     8
170
     0
171
     2
172
     1
173
     0
174
     0
175
     0
176
   256
177
   256
178
     4
  0
DIMSTYLE
  2
AM_ISO$7
 70
     0
  3

  4
"
  5

  6

  7

 40
1.0
 41
2.5
 42
1.0
 43
8.0
 44
0.6
 45
0.0
 46
0.0
 47
0.1
 48
0.1
140
2.5
141
0.0
142
0.0
143
0.0393701
144
1.0
145
0.0
146
0.71
147
0.8
 71
     0
 72
     0
 73
     0
 74
     0
 75
     0
 76
     0
 77
     1
 78
     8
170
     0
171
     2
172
     1
173
     0
174
     0
175
     0
176
   256
177
   256
178
     4
  0
DIMSTYLE
  2
AM_ISO$SF
 70
     0
  3

  4
"
  5

  6

  7

 40
1.0
 41
2.5
 42
1.0
 43
10.0
 44
1.0
 45
0.0
 46
0.0
 47
0.1
 48
0.1
140
3.5
141
0.0
142
0.0
143
0.0393701
144
1.0
145
0.0
146
0.71
147
1.5
 71
     0
 72
     0
 73
     0
 74
     0
 75
     1
 76
     1
 77
     1
 78
     8
170
     0
171
     2
172
     1
173
     0
174
     0
175
     0
176
   256
177
   256
178
     2
  0
DIMSTYLE
  2
AM_ISO$SH
 70
     0
  3

  4
"
  5

  6

  7

 40
1.0
 41
2.5
 42
1.0
 43
10.0
 44
1.0
 45
0.0
 46
0.0
 47
0.1
 48
0.1
140
3.5
141
0.0
142
0.0
143
0.0393701
144
2.0
145
0.0
146
0.71
147
1.5
 71
     0
 72
     0
 73
     0
 74
     0
 75
     1
 76
     1
 77
     1
 78
     8
170
     0
171
     2
172
     1
173
     1
174
     0
175
     0
176
   256
177
   256
178
     2
  0
DIMSTYLE
  2
AM_JIS
 70
     0
  3

  4
"
  5

  6

  7

 40
1.0
 41
2.5
 42
1.0
 43
7.0
 44
1.0
 45
0.0
 46
0.0
 47
0.1
 48
0.1000000001
140
2.5
141
0.0
142
0.0
143
0.0393701
144
1.0
145
0.0
146
0.71
147
1.0
 71
     0
 72
     0
 73
     0
 74
     0
 75
     0
 76
     0
 77
     3
 78
     8
170
     0
171
     2
172
     1
173
     0
174
     0
175
     0
176
   256
177
   256
178
     4
  0
DIMSTYLE
  2
AM_JIS$3
 70
     0
  3

  4
"
  5

  6

  7

 40
1.0
 41
2.5
 42
1.0
 43
7.0
 44
1.0
 45
0.0
 46
0.0
 47
0.1
 48
0.1000000001
140
2.5
141
0.0
142
0.0
143
0.0393701
144
1.0
145
0.0
146
0.71
147
1.0
 71
     0
 72
     0
 73
     0
 74
     1
 75
     0
 76
     0
 77
     3
 78
     8
170
     0
171
     2
172
     0
173
     0
174
     0
175
     0
176
   256
177
   256
178
     4
  0
DIMSTYLE
  2
AM_JIS$4
 70
     0
  3

  4
"
  5

  6

  7

 40
1.0
 41
2.5
 42
1.0
 43
7.0
 44
1.0
 45
0.0
 46
0.0
 47
0.1
 48
0.1000000001
140
2.5
141
0.0
142
0.0
143
0.0393701
144
1.0
145
0.0
146
0.71
147
1.0
 71
     0
 72
     0
 73
     0
 74
     0
 75
     0
 76
     0
 77
     3
 78
     8
170
     0
171
     2
172
     0
173
     0
174
     0
175
     0
176
   256
177
   256
178
     4
  0
DIMSTYLE
  2
AM_JIS$6
 70
     0
  3

  4
"
  5

  6

  7

 40
1.0
 41
2.5
 42
1.0
 43
7.0
 44
1.0
 45
0.0
 46
0.0
 47
0.1
 48
0.1000000001
140
2.5
141
0.0
142
0.0
143
0.0393701
144
1.0
145
0.0
146
0.71
147
1.0
 71
     0
 72
     0
 73
     0
 74
     0
 75
     0
 76
     0
 77
     0
 78
     8
170
     0
171
     2
172
     1
173
     0
174
     0
175
     0
176
   256
177
   256
178
     4
  0
DIMSTYLE
  2
AM_JIS$7
 70
     0
  3

  4
"
  5

  6

  7

 40
1.0
 41
2.5
 42
1.0
 43
7.0
 44
1.0
 45
0.0
 46
0.0
 47
0.1
 48
0.1000000001
140
2.5
141
0.0
142
0.0
143
0.0393701
144
1.0
145
0.0
146
0.71
147
1.0
 71
     0
 72
     0
 73
     0
 74
     0
 75
     0
 76
     0
 77
     3
 78
     8
170
     0
171
     2
172
     1
173
     0
174
     0
175
     0
176
   256
177
   256
178
     4
  0
DIMSTYLE
  2
AM_JIS$SF
 70
     0
  3

  4
"
  5

  6

  7

 40
1.0
 41
2.5
 42
1.0
 43
10.0
 44
1.0
 45
0.0
 46
0.0
 47
0.1
 48
0.1
140
3.5
141
0.0
142
0.0
143
0.0393701
144
1.0
145
0.0
146
0.71
147
1.5
 71
     0
 72
     0
 73
     0
 74
     0
 75
     1
 76
     1
 77
     3
 78
     8
170
     0
171
     2
172
     1
173
     0
174
     0
175
     0
176
   256
177
   256
178
     4
  0
DIMSTYLE
  2
AM_JIS$SH
 70
     0
  3

  4
"
  5

  6

  7

 40
1.0
 41
2.5
 42
1.0
 43
10.0
 44
1.0
 45
0.0
 46
0.0
 47
0.1
 48
0.1
140
3.5
141
0.0
142
0.0
143
0.0393701
144
1.0
145
0.0
146
0.71
147
1.5
 71
     0
 72
     0
 73
     0
 74
     0
 75
     1
 76
     0
 77
     3
 78
     8
170
     0
171
     2
172
     1
173
     1
174
     0
175
     0
176
   256
177
   256
178
     4
  0
DIMSTYLE
  2
AM_ANSI
 70
     0
  3

  4
mm
  5

  6

  7

 40
1.0
 41
0.1
 42
0.05
 43
0.5
 44
0.1
 45
0.0
 46
0.0
 47
0.1
 48
0.1
140
0.12
141
0.0
142
0.0
143
25.399999999999999
144
1.0
145
0.0
146
0.71
147
0.06
 71
     0
 72
     0
 73
     1
 74
     1
 75
     0
 76
     0
 77
     0
 78
     7
170
     0
171
     2
172
     0
173
     0
174
     0
175
     0
176
   256
177
   256
178
     2
  0
DIMSTYLE
  2
AM_ANSI$3
 70
     0
  3

  4
mm
  5

  6

  7

 40
1.0
 41
0.1
 42
0.05
 43
0.5
 44
0.1
 45
0.0
 46
0.0
 47
0.1
 48
0.1
140
0.12
141
0.0
142
0.0
143
25.399999999999999
144
1.0
145
0.0
146
0.71
147
0.06
 71
     0
 72
     0
 73
     1
 74
     1
 75
     0
 76
     0
 77
     0
 78
     7
170
     0
171
     2
172
     0
173
     0
174
     0
175
     0
176
   256
177
   256
178
     2
  0
DIMSTYLE
  2
AM_ANSI$4
 70
     0
  3

  4
mm
  5

  6

  7

 40
1.0
 41
0.1
 42
0.05
 43
0.5
 44
0.1
 45
0.0
 46
0.0
 47
0.1
 48
0.1
140
0.12
141
0.0
142
0.0
143
25.399999999999999
144
1.0
145
0.0
146
0.71
147
0.06
 71
     0
 72
     0
 73
     1
 74
     1
 75
     0
 76
     0
 77
     0
 78
     7
170
     0
171
     2
172
     0
173
     0
174
     0
175
     0
176
   256
177
   256
178
     2
  0
DIMSTYLE
  2
AM_ANSI$7
 70
     0
  3

  4
mm
  5

  6

  7

 40
1.0
 41
0.1
 42
0.05
 43
0.5
 44
0.1
 45
0.0
 46
0.0
 47
0.1
 48
0.1
140
0.24
141
0.0
142
0.0
143
25.399999999999999
144
1.0
145
0.0
146
0.71
147
0.06
 71
     0
 72
     0
 73
     1
 74
     1
 75
     0
 76
     0
 77
     0
 78
     7
170
     0
171
     2
172
     0
173
     0
174
     0
175
     0
176
   256
177
   256
178
     2
  0
DIMSTYLE
  2
AM_ANSI$SF
 70
     0
  3

  4
mm
  5

  6

  7

 40
1.0
 41
0.1
 42
0.05
 43
0.5
 44
0.1
 45
0.0
 46
0.0
 47
0.1
 48
0.1
140
0.12
141
0.0
142
0.0
143
25.399999999999999
144
1.0
145
0.0
146
0.71
147
0.06
 71
     0
 72
     0
 73
     1
 74
     1
 75
     1
 76
     1
 77
     0
 78
     7
170
     0
171
     2
172
     0
173
     0
174
     0
175
     0
176
   256
177
   256
178
     2
  0
DIMSTYLE
  2
AM_ANSI$SH
 70
     0
  3

  4
mm
  5

  6

  7

 40
1.0
 41
0.1
 42
0.05
 43
0.5
 44
0.1
 45
0.0
 46
0.0
 47
0.1
 48
0.1
140
0.12
141
0.0
142
0.0
143
25.399999999999999
144
1.0
145
0.0
146
0.71
147
0.06
 71
     0
 72
     0
 73
     1
 74
     1
 75
     1
 76
     1
 77
     0
 78
     7
170
     0
171
     2
172
     0
173
     1
174
     0
175
     0
176
   256
177
   256
178
     2
  0
ENDTAB
  0
ENDSEC
  0
SECTION
  2
BLOCKS
  0
BLOCK
  8
0
  2
$MODEL_SPACE
 70
     0
 10
0.0
 20
0.0
 30
0.0
  3
$MODEL_SPACE
  1

  0
ENDBLK
  5
3368
  8
0
  0
BLOCK
 67
     1
  8
0
  2
$PAPER_SPACE
 70
     0
 10
0.0
 20
0.0
 30
0.0
  3
$PAPER_SPACE
  1

  0
ENDBLK
  5
3364
 67
     1
  8
0
  0
BLOCK
  8
0
  2
GENAXEH
 70
     0
 10
0.0
 20
0.0
 30
0.0
  3
GENAXEH
  1

  0
LINE
  5
3108
  8
0
 10
-1.0
 20
0.0
 30
0.0
 11
1.0
 21
0.0
 31
0.0
  0
ENDBLK
  5
3109
  8
0
  0
BLOCK
  8
0
  2
_OPEN30
 70
     0
 10
0.0
 20
0.0
 30
0.0
  3
_OPEN30
  1

  0
LINE
  5
310C
  8
0
 62
     0
 10
-1.0
 20
0.26794919
 30
0.0
 11
0.0
 21
0.0
 31
0.0
  0
LINE
  5
310D
  8
0
 62
     0
 10
0.0
 20
0.0
 30
0.0
 11
-1.0
 21
-0.26794919
 31
0.0
  0
LINE
  5
310E
  8
0
 62
     0
 10
0.0
 20
0.0
 30
0.0
 11
-1.0
 21
0.0
 31
0.0
  0
ENDBLK
  5
310F
  8
0
  0
BLOCK
  8
0
  2
_NONE
 70
     0
 10
0.0
 20
0.0
 30
0.0
  3
_NONE
  1

  0
ENDBLK
  5
3112
  8
0
  0
BLOCK
  8
0
  2
*U5
 70
     1
 10
0.0
 20
0.0
 30
0.0
  3
*U5
  1

  0
TEXT
  5
3115
  8
AM_0
 62
     4
 10
166.56172876906481
 20
204.79750337466081
 30
0.0
 40
7.5
  1
\U+2205
 50
90.0
 41
0.8299999999999999
  0
TEXT
  5
3116
  8
AM_0
 62
     4
 10
166.56172876906481
 20
211.02250337466069
 30
0.0
 40
7.5
  1
160
 50
90.0
 41
0.8299999999999999
  0
ENDBLK
  5
3117
  8
0
  0
BLOCK
  8
0
  2
*U6
 70
     1
 10
0.0
 20
0.0
 30
0.0
  3
*U6
  1

  0
TEXT
  5
311A
  8
AM_0
 62
     4
 10
184.789335337777
 20
198.78000337466071
 30
0.0
 40
7.5
  1
\U+2205
 50
90.0
 41
0.8299999999999999
  0
TEXT
  5
311B
  8
AM_0
 62
     4
 10
184.789335337777
 20
205.0050033746605
 30
0.0
 40
7.5
  1
110 
 50
90.0
 41
0.8299999999999999
  0
TEXT
  5
311C
  8
AM_0
 62
     4
 10
184.789335337777
 20
222.22750337466061
 30
0.0
 40
6.0
  1
G7
 50
90.0
 41
0.8299999999999999
  0
ENDBLK
  5
311D
  8
0
  0
BLOCK
  8
0
  2
*U7
 70
     1
 10
0.0
 20
0.0
 30
0.0
  3
*U7
  1

  0
TEXT
  5
3120
  8
AM_0
 62
     4
 10
497.96690988713681
 20
187.22395588979671
 30
0.0
 40
7.5
  1
\U+2205
 50
90.0
 41
0.8299999999999999
  0
TEXT
  5
3121
  8
AM_0
 62
     4
 10
497.96690988713681
 20
193.44895588979671
 30
0.0
 40
7.5
  1
210
 50
90.0
 41
0.8299999999999999
  0
TEXT
  5
3122
  8
AM_0
 62
     4
 10
497.96690988713681
 20
209.01145588979671
 30
0.0
 40
6.0
  1
h7
 50
90.0
 41
0.8299999999999999
  0
ENDBLK
  5
3123
  8
0
  0
BLOCK
  8
0
  2
*U8
 70
     1
 10
0.0
 20
0.0
 30
0.0
  3
*U8
  1

  0
TEXT
  5
3126
  8
AM_0
 62
     4
 10
533.95516069978555
 20
257.91625437466081
 30
0.0
 40
7.5
  1
\U+2205
 50
90.0
 41
0.8299999999999999
  0
TEXT
  5
3127
  8
AM_0
 62
     4
 10
533.95516069978555
 20
264.14125437466072
 30
0.0
 40
7.5
  1
32
 50
90.0
 41
0.8299999999999999
  0
TEXT
  5
3128
  8
AM_0
 62
     4
 10
533.95516069978555
 20
276.59125437466082
 30
0.0
 40
6.0
  1
h6
 50
90.0
 41
0.8299999999999999
  0
ENDBLK
  5
3129
  8
0
  0
BLOCK
  8
0
  2
*U9
 70
     1
 10
0.0
 20
0.0
 30
0.0
  3
*U9
  1

  0
TEXT
  5
312C
  8
AM_0
 62
     4
 10
667.67026707961452
 20
418.79041655598758
 30
0.0
 40
6.75
  1
o
 41
0.8299999999999999
  0
TEXT
  5
312D
  8
AM_0
 62
     4
 10
674.33990993675718
 20
418.79041655598758
 30
0.0
 40
6.75
  1
 
 41
0.8299999999999999
  0
TEXT
  5
312E
  8
AM_0
 62
     4
 10
677.70140993675739
 20
418.79041655598758
 30
0.0
 40
7.5
  1
235
 41
0.8299999999999999
  0
ENDBLK
  5
312F
  8
0
  0
BLOCK
  8
0
  2
*U10
 70
     1
 10
0.0
 20
0.0
 30
0.0
  3
*U10
  1

  0
TEXT
  5
3132
  8
AM_0
 62
     4
 10
498.79629141365052
 20
234.08742404920909
 30
0.0
 40
7.5
  1
\U+2205
 50
90.0
 41
0.8299999999999999
  0
TEXT
  5
3133
  8
AM_0
 62
     4
 10
498.79629141365052
 20
240.3124240492092
 30
0.0
 40
7.5
  1
32
 50
90.0
 41
0.8299999999999999
  0
TEXT
  5
3134
  8
AM_0
 62
     4
 10
498.79629141365052
 20
252.7624240492091
 30
0.0
 40
6.0
  1
h6
 50
90.0
 41
0.8299999999999999
  0
ENDBLK
  5
3135
  8
0
  0
BLOCK
  8
0
  2
*U11
 70
     1
 10
0.0
 20
0.0
 30
0.0
  3
*U11
  1

  0
TEXT
  5
3138
  8
AM_0
 62
     4
 10
462.80804060100161
 20
163.39512556434511
 30
0.0
 40
7.5
  1
\U+2205
 50
90.0
 41
0.8299999999999999
  0
TEXT
  5
3139
  8
AM_0
 62
     4
 10
462.80804060100161
 20
169.6201255643451
 30
0.0
 40
7.5
  1
210
 50
90.0
 41
0.8299999999999999
  0
TEXT
  5
313A
  8
AM_0
 62
     4
 10
462.80804060100161
 20
185.1826255643451
 30
0.0
 40
6.0
  1
h7
 50
90.0
 41
0.8299999999999999
  0
ENDBLK
  5
313B
  8
0
  0
BLOCK
  8
0
  2
*U12
 70
     1
 10
0.0
 20
0.0
 30
0.0
  3
*U12
  1

  0
TEXT
  5
313E
  8
AM_0
 62
     4
 10
632.51139779347943
 20
394.961586230536
 30
0.0
 40
6.75
  1
o
 41
0.8299999999999999
  0
TEXT
  5
313F
  8
AM_0
 62
     4
 10
639.18104065062244
 20
394.961586230536
 30
0.0
 40
6.75
  1
 
 41
0.8299999999999999
  0
TEXT
  5
3140
  8
AM_0
 62
     4
 10
642.5425406506223
 20
394.961586230536
 30
0.0
 40
7.5
  1
235
 41
0.8299999999999999
  0
ENDBLK
  5
3141
  8
0
  0
BLOCK
  8
0
  2
*U13
 70
     1
 10
0.0
 20
0.0
 30
0.0
  3
*U13
  1

  0
TEXT
  5
3144
  8
AM_0
 62
     4
 10
131.4028594829297
 20
180.96867304920909
 30
0.0
 40
7.5
  1
\U+2205
 50
90.0
 41
0.8299999999999999
  0
TEXT
  5
3145
  8
AM_0
 62
     4
 10
131.4028594829297
 20
187.19367304920911
 30
0.0
 40
7.5
  1
160
 50
90.0
 41
0.8299999999999999
  0
ENDBLK
  5
3146
  8
0
  0
BLOCK
  8
0
  2
*U14
 70
     1
 10
0.0
 20
0.0
 30
0.0
  3
*U14
  1

  0
TEXT
  5
3149
  8
AM_0
 62
     4
 10
149.630466051642
 20
174.9511730492091
 30
0.0
 40
7.5
  1
\U+2205
 50
90.0
 41
0.8299999999999999
  0
TEXT
  5
314A
  8
AM_0
 62
     4
 10
149.630466051642
 20
181.17617304920901
 30
0.0
 40
7.5
  1
110 
 50
90.0
 41
0.8299999999999999
  0
TEXT
  5
314B
  8
AM_0
 62
     4
 10
149.630466051642
 20
198.39867304920909
 30
0.0
 40
6.0
  1
G7
 50
90.0
 41
0.8299999999999999
  0
ENDBLK
  5
314C
  8
0
  0
BLOCK
  8
0
  2
_ACMFILLEDHALF
 70
     0
 10
0.0
 20
0.0
 30
0.0
  3
_ACMFILLEDHALF
  1

  0
TRACE
  5
3471
  8
AM_0
 62
     0
 10
-0.8
 20
0.0
 30
0.0
 11
-1.0
 21
0.166666666
 31
0.0
 12
0.0
 22
0.0
 32
0.0
 13
0.0
 23
0.0
 33
0.0
  0
LINE
  5
3472
  8
AM_0
 62
     0
 10
-1.0
 20
0.0
 30
0.0
 11
-0.8
 21
0.0
 31
0.0
  0
ENDBLK
  5
3470
  8
0
  0
ENDSEC
  0
SECTION
  2
ENTITIES
  0
LINE
  5
314E
  8
AM_0
 10
436.17227285495829
 20
559.78681326476919
 30
0.0
 11
481.17230285495828
 21
559.78681326476919
 31
0.0
  0
LINE
  5
314F
  8
AM_0
 10
436.17227285495829
 20
569.78681326476885
 30
0.0
 11
481.17230285495828
 21
569.78681326476885
 31
0.0
  0
LINE
  5
3150
  8
AM_0
 10
481.17230285495828
 20
580.78684326476923
 30
0.0
 11
423.17227285495829
 21
580.78684326476923
 31
0.0
  0
LINE
  5
3151
  8
AM_0
 10
481.17230285495828
 20
548.78684326476923
 30
0.0
 11
423.17227285495829
 21
548.78684326476923
 31
0.0
  0
LINE
  5
3152
  8
ﾁｭｳｼﾝｾﾝ
 10
159.4076478549581
 20
564.78681326476897
 30
0.0
 11
489.08511285495831
 21
564.78681326476897
 31
0.0
  0
LINE
  5
3153
  8
AM_0
 10
200.1722428549584
 20
596.74845326476918
 30
0.0
 11
245.99121285495821
 21
596.74845326476918
 31
0.0
  0
LINE
  5
3154
  8
AM_0
 10
200.1722428549584
 20
610.78714326476927
 30
0.0
 11
250.4613028549584
 21
610.78714326476927
 31
0.0
  0
LINE
  5
3155
  8
AM_0
 10
256.79584285495832
 20
622.76419326476935
 30
0.0
 11
200.1722428549584
 21
620.78684326476923
 31
0.0
  0
LINE
  5
3156
  8
AM_0
 10
200.1722428549584
 20
508.78681326476919
 30
0.0
 11
256.79578285495842
 21
506.80945326476922
 31
0.0
  0
LINE
  5
3157
  8
AM_0
 10
200.1722428549584
 20
518.78650326476918
 30
0.0
 11
250.4613028549584
 21
518.78650326476918
 31
0.0
  0
LINE
  5
3158
  8
AM_0
 10
200.1722428549584
 20
532.82514326476905
 30
0.0
 11
245.99121285495821
 21
532.82514326476905
 31
0.0
  0
LINE
  5
3159
  8
AM_0
 10
200.1722428549584
 20
508.28679826476912
 30
0.0
 11
200.1722428549584
 21
621.28679826476923
 31
0.0
  0
POLYLINE
  5
315A
  8
AM_0
 66
     1
 10
0.0
 20
0.0
 30
0.0
  0
VERTEX
  5
315B
  8
AM_0
 10
396.83838285495841
 20
667.45291326476934
 30
0.0
 42
0.079826744
  0
VERTEX
  5
315C
  8
AM_0
 10
370.9965528549584
 20
600.54647326476925
 30
0.0
 42
0.10414854
  0
VERTEX
  5
315D
  8
AM_0
 10
370.99662285495828
 20
529.02677326476908
 30
0.0
 42
0.079826277
  0
VERTEX
  5
315E
  8
AM_0
 10
396.83838285495841
 20
462.1206732647691
 30
0.0
  0
SEQEND
  5
315F
  8
AM_0
  0
ARC
  5
3160
  8
AM_0
 10
436.17227285495829
 20
564.78681326476897
 30
0.0
 40
5.0
 50
90.000003000000945
 51
270.0
  0
LINE
  5
3161
  8
AM_0
 10
436.17227285495829
 20
569.78681326476885
 30
0.0
 11
436.17227285495829
 21
559.78681326476919
 31
0.0
  0
LINE
  5
3162
  8
AM_0
 10
423.17227285495829
 20
459.78678326476921
 30
0.0
 11
423.17227285495829
 21
669.78684326476923
 31
0.0
  0
LINE
  5
3163
  8
AM_0
 10
419.17227285495829
 20
447.28681326476919
 30
0.0
 11
419.17227285495829
 21
682.28684326476923
 31
0.0
  0
LINE
  5
3164
  8
AM_0
 10
411.17227285495829
 20
474.18708326476889
 30
0.0
 11
411.17227285495829
 21
655.38657326476914
 31
0.0
  0
LINE
  5
3165
  8
AM_0
 10
404.17227285495829
 20
450.70768326476889
 30
0.0
 11
404.17227285495829
 21
678.86594326476893
 31
0.0
  0
LINE
  5
3166
  8
AM_0
 10
230.1722428549584
 20
554.78681326476919
 30
0.0
 11
230.1722428549584
 21
574.78681326476931
 31
0.0
  0
LINE
  5
3167
  8
AM_0
 10
259.67224285495843
 20
504.28681326476919
 30
0.0
 11
259.67224285495843
 21
625.28678326476927
 31
0.0
  0
LINE
  5
3168
  8
AM_0
 10
268.67224285495843
 20
501.28681326476919
 30
0.0
 11
268.67224285495843
 21
628.28678326476916
 31
0.0
  0
LINE
  5
3169
  8
AM_0
 10
268.67224285495843
 20
628.28678326476916
 30
0.0
 11
268.67224285495843
 21
501.28675326476917
 31
0.0
  0
LINE
  5
316A
  8
AM_0
 10
296.17224285495843
 20
467.56742326476922
 30
0.0
 11
296.17224285495843
 21
662.00620326476928
 31
0.0
  0
LINE
  5
316B
  8
AM_0
 10
281.17224285495843
 20
492.85788326476921
 30
0.0
 11
281.17224285495843
 21
636.71573326476914
 31
0.0
  0
LINE
  5
316C
  8
AM_0
 10
306.17224285495843
 20
465.28681326476902
 30
0.0
 11
306.17224285495843
 21
664.28678326476916
 31
0.0
  0
LINE
  5
316D
  8
AM_0
 10
306.17230285495828
 20
465.28681326476902
 30
0.0
 11
394.87003285495842
 21
462.18943326476892
 31
0.0
  0
LINE
  5
316E
  8
AM_0
 10
298.10242285495832
 20
465.56861326476923
 30
0.0
 11
306.17224285495843
 21
465.28681326476902
 31
0.0
  0
ARC
  5
316F
  8
AM_0
 10
298.17224285495843
 20
467.56742326476922
 30
0.0
 40
2.0
 50
179.9999899999988
 51
268.00000999999861
  0
LINE
  5
3170
  8
AM_0
 10
268.6723028549585
 20
501.28675326476917
 30
0.0
 11
276.34674285495839
 21
501.01880326476908
 31
0.0
  0
LINE
  5
3171
  8
AM_0
 10
268.67224285495843
 20
512.74680326476914
 30
0.0
 11
281.17224285495843
 21
512.74680326476914
 31
0.0
  0
LINE
  5
3172
  8
AM_0
 10
268.67224285495843
 20
527.63681326476922
 30
0.0
 11
281.17224285495843
 21
527.63681326476922
 31
0.0
  0
POLYLINE
  5
3173
  8
AM_0
 66
     1
 10
0.0
 20
0.0
 30
0.0
  0
VERTEX
  5
3174
  8
AM_0
 10
257.60357285495832
 20
511.4061832647688
 30
0.0
  0
VERTEX
  5
3175
  8
AM_0
 10
252.0601428549584
 20
519.24839326476922
 30
0.0
 42
-1.0
  0
SEQEND
  5
3176
  8
AM_0
  0
ARC
  5
3177
  8
AM_0
 10
250.4613028549584
 20
521.78650326476918
 30
0.0
 40
3.0
 50
270.0
 51
31.46020299999924
  0
ARC
  5
3178
  8
AM_0
 10
249.6722428549584
 20
505.3157132647691
 30
0.0
 40
10.0
 50
0.0
 51
37.523535999997527
  0
ARC
  5
3179
  8
AM_0
 10
256.69104285495843
 20
503.81131326476918
 30
0.0
 40
3.0
 50
4.545488300001014
 51
87.999999999999503
  0
LINE
  5
317A
  8
AM_0
 10
268.67224285495843
 20
501.28681326476919
 30
0.0
 11
262.67224285495843
 21
501.28681326476919
 31
0.0
  0
ARC
  5
317B
  8
AM_0
 10
262.67224285495843
 20
504.28681326476919
 30
0.0
 40
3.0
 50
180.00001000000091
 51
270.0
  0
LINE
  5
317C
  8
AM_0
 10
268.67224285495843
 20
512.74680326476914
 30
0.0
 11
259.67224285495843
 21
512.74680326476914
 31
0.0
  0
POLYLINE
  5
317D
  8
AM_0
 66
     1
 10
0.0
 20
0.0
 30
0.0
  0
VERTEX
  5
317E
  8
AM_0
 10
244.54915285495841
 20
532.82434326476925
 30
0.0
  0
VERTEX
  5
317F
  8
AM_0
 10
238.2616028549584
 20
551.78628326476917
 30
0.0
 42
-1.0
  0
SEQEND
  5
3180
  8
AM_0
  0
LINE
  5
3181
  8
AM_0
 10
233.1722428549584
 20
551.78681326476908
 30
0.0
 11
256.67224285495848
 21
551.78681326476908
 31
0.0
  0
ARC
  5
3182
  8
AM_0
 10
233.1722428549584
 20
554.78681326476919
 30
0.0
 40
3.0
 50
180.00001000000091
 51
270.0
  0
POLYLINE
  5
3183
  8
AM_0
 66
     1
 10
0.0
 20
0.0
 30
0.0
  0
VERTEX
  5
3184
  8
AM_0
 10
253.02035285495819
 20
523.35222326476924
 30
0.0
 42
-0.0050917014
  0
VERTEX
  5
3185
  8
AM_0
 10
251.87243285495839
 20
525.27187326476906
 30
0.0
 42
-0.0052112711
  0
VERTEX
  5
3186
  8
AM_0
 10
250.7642928549584
 20
527.21476326476909
 30
0.0
 42
-0.0053447966
  0
VERTEX
  5
3187
  8
AM_0
 10
249.69741285495849
 20
529.18061326476914
 30
0.0
 42
-0.0054924736
  0
VERTEX
  5
3188
  8
AM_0
 10
248.67337285495819
 20
531.16913326476924
 30
0.0
  0
SEQEND
  5
3189
  8
AM_0
  0
ARC
  5
318A
  8
AM_0
 10
245.99121285495821
 20
529.82514326476905
 30
0.0
 40
3.0
 50
26.61499800000183
 51
90.000003000000945
  0
LINE
  5
318B
  8
AM_0
 10
268.67224285495843
 20
527.63889326476919
 30
0.0
 11
259.67224285495843
 21
527.63889326476919
 31
0.0
  0
ARC
  5
318C
  8
AM_0
 10
256.67224285495848
 20
548.78681326476885
 30
0.0
 40
3.0
 50
0.0
 51
90.000003000000945
  0
LINE
  5
318D
  8
AM_0
 10
282.63672285495829
 20
489.32236326476919
 30
0.0
 11
295.2935828549584
 21
476.66550326476892
 31
0.0
  0
ARC
  5
318E
  8
AM_0
 10
286.17224285495848
 20
492.85788326476921
 30
0.0
 40
5.0
 50
179.9999899999988
 51
225.0
  0
ARC
  5
318F
  8
AM_0
 10
293.17224285495843
 20
474.54416326476922
 30
0.0
 40
3.0
 50
0.0
 51
44.999998000001611
  0
ARC
  5
3190
  8
AM_0
 10
276.17224285495843
 20
496.02185326476922
 30
0.0
 40
5.0
 50
0.0
 51
87.999999999999503
  0
ARC
  5
3191
  8
AM_0
 10
408.17227285495829
 20
474.18708326476889
 30
0.0
 40
3.0
 50
267.99999999999932
 51
0.0
  0
LINE
  5
3192
  8
AM_0
 10
407.06757285495831
 20
447.70951326476921
 30
0.0
 11
419.17227285495829
 21
447.28681326476919
 31
0.0
  0
LINE
  5
3193
  8
AM_0
 10
398.23105285495842
 20
460.72800326476909
 30
0.0
 11
404.17227285495829
 21
454.78678326476921
 31
0.0
  0
ARC
  5
3194
  8
AM_0
 10
407.17227285495829
 20
450.70768326476889
 30
0.0
 40
3.0
 50
179.9999899999988
 51
268.00000999999861
  0
ARC
  5
3195
  8
AM_0
 10
394.69553285495829
 20
457.1924532647692
 30
0.0
 40
5.0
 50
45.000000999996892
 51
87.999999999999503
  0
LINE
  5
3196
  8
AM_0
 10
419.17227285495829
 20
459.78678326476921
 30
0.0
 11
423.17227285495829
 21
459.78678326476921
 31
0.0
  0
LINE
  5
3197
  8
AM_0
 10
407.8877328549583
 20
471.19519326476922
 30
0.0
 11
408.06757285495831
 21
471.18891326476921
 31
0.0
  0
LINE
  5
3198
  8
AM_0
 10
407.17227285495829
 20
508.87607326476922
 30
0.0
 11
411.17227285495829
 21
508.87607326476922
 31
0.0
  0
ARC
  5
3199
  8
AM_0
 10
407.17227285495829
 20
505.87607326476922
 30
0.0
 40
3.0
 50
90.000003000000945
 51
180.00001000000091
  0
LINE
  5
319A
  8
AM_0
 10
306.17230285495828
 20
664.28678326476916
 30
0.0
 11
394.87003285495842
 21
667.38419326476924
 31
0.0
  0
ARC
  5
319B
  8
AM_0
 10
298.17224285495843
 20
662.00620326476928
 30
0.0
 40
2.0
 50
91.999998000000545
 51
180.00001000000091
  0
LINE
  5
319C
  8
AM_0
 10
268.67224285495843
 20
628.28684326476923
 30
0.0
 11
276.34674285495839
 21
628.5547832647693
 31
0.0
  0
LINE
  5
319D
  8
AM_0
 10
268.67224285495843
 20
601.93680326476886
 30
0.0
 11
281.17224285495843
 21
601.93680326476886
 31
0.0
  0
LINE
  5
319E
  8
AM_0
 10
268.67224285495843
 20
616.82682326476925
 30
0.0
 11
281.17224285495843
 21
616.82682326476925
 31
0.0
  0
POLYLINE
  5
319F
  8
AM_0
 66
     1
 10
0.0
 20
0.0
 30
0.0
  0
VERTEX
  5
31A0
  8
AM_0
 10
257.60357285495832
 20
618.16741326476915
 30
0.0
  0
VERTEX
  5
31A1
  8
AM_0
 10
252.0601428549584
 20
610.32519326476915
 30
0.0
 42
-1.0
  0
SEQEND
  5
31A2
  8
AM_0
  0
POLYLINE
  5
31A3
  8
AM_0
 66
     1
 10
0.0
 20
0.0
 30
0.0
  0
VERTEX
  5
31A4
  8
AM_0
 10
244.54915285495841
 20
596.74925326476932
 30
0.0
  0
VERTEX
  5
31A5
  8
AM_0
 10
238.2616028549584
 20
577.78733326476913
 30
0.0
 42
-1.0
  0
SEQEND
  5
31A6
  8
AM_0
  0
LINE
  5
31A7
  8
AM_0
 10
233.1722428549584
 20
577.78681326476885
 30
0.0
 11
256.67224285495848
 21
577.78681326476885
 31
0.0
  0
ARC
  5
31A8
  8
AM_0
 10
233.1722428549584
 20
574.78681326476931
 30
0.0
 40
3.0
 50
90.000003000000945
 51
180.00001000000091
  0
ARC
  5
31A9
  8
AM_0
 10
256.67224285495848
 20
580.78678326476916
 30
0.0
 40
3.0
 50
270.0
 51
0.0
  0
POLYLINE
  5
31AA
  8
AM_0
 66
     1
 10
0.0
 20
0.0
 30
0.0
  0
VERTEX
  5
31AB
  8
AM_0
 10
253.02035285495819
 20
606.22137326476934
 30
0.0
 42
0.0050916976
  0
VERTEX
  5
31AC
  8
AM_0
 10
251.87243285495839
 20
604.30172326476918
 30
0.0
 42
0.005211269
  0
VERTEX
  5
31AD
  8
AM_0
 10
250.7642928549584
 20
602.35883326476915
 30
0.0
 42
0.005344796
  0
VERTEX
  5
31AE
  8
AM_0
 10
249.69741285495849
 20
600.3929832647691
 30
0.0
 42
0.0054924746
  0
VERTEX
  5
31AF
  8
AM_0
 10
248.67337285495819
 20
598.40447326476885
 30
0.0
  0
SEQEND
  5
31B0
  8
AM_0
  0
ARC
  5
31B1
  8
AM_0
 10
245.99121285495821
 20
599.7484532647693
 30
0.0
 40
3.0
 50
270.0
 51
333.38500000000118
  0
ARC
  5
31B2
  8
AM_0
 10
250.4613028549584
 20
607.78714326476916
 30
0.0
 40
3.0
 50
328.53980000000098
 51
90.000003000000945
  0
LINE
  5
31B3
  8
AM_0
 10
268.67224285495843
 20
601.93473326476931
 30
0.0
 11
259.67224285495843
 21
601.93473326476931
 31
0.0
  0
ARC
  5
31B4
  8
AM_0
 10
262.67224285495843
 20
625.28678326476927
 30
0.0
 40
3.0
 50
90.000003000000945
 51
180.00001000000091
  0
LINE
  5
31B5
  8
AM_0
 10
268.67224285495843
 20
616.82682326476925
 30
0.0
 11
259.67224285495843
 21
616.82682326476925
 31
0.0
  0
ARC
  5
31B6
  8
AM_0
 10
249.6722428549584
 20
624.25791326476917
 30
0.0
 40
10.0
 50
322.47645999999781
 51
0.0
  0
ARC
  5
31B7
  8
AM_0
 10
256.69104285495843
 20
625.76230326476912
 30
0.0
 40
3.0
 50
272.0000000000004
 51
355.45443000000142
  0
LINE
  5
31B8
  8
AM_0
 10
268.67224285495843
 20
628.28678326476916
 30
0.0
 11
262.67224285495843
 21
628.28678326476916
 31
0.0
  0
ARC
  5
31B9
  8
AM_0
 10
286.17224285495848
 20
636.71573326476914
 30
0.0
 40
5.0
 50
135.0
 51
180.00001000000091
  0
ARC
  5
31BA
  8
AM_0
 10
276.17224285495843
 20
633.55179326476923
 30
0.0
 40
5.0
 50
272.0000000000004
 51
0.0
  0
LINE
  5
31BB
  8
AM_0
 10
282.63672285495829
 20
640.25125326476916
 30
0.0
 11
295.2935828549584
 21
652.90812326476919
 31
0.0
  0
ARC
  5
31BC
  8
AM_0
 10
293.17224285495843
 20
655.02945326476924
 30
0.0
 40
3.0
 50
315.0
 51
0.0
  0
LINE
  5
31BD
  8
AM_0
 10
298.1024828549584
 20
664.00498326476895
 30
0.0
 11
306.17224285495843
 21
664.28678326476916
 31
0.0
  0
LINE
  5
31BE
  8
AM_0
 10
407.17227285495829
 20
620.69754326476914
 30
0.0
 11
411.17227285495829
 21
620.69754326476914
 31
0.0
  0
ARC
  5
31BF
  8
AM_0
 10
407.17227285495829
 20
623.69754326476914
 30
0.0
 40
3.0
 50
179.9999899999988
 51
270.0
  0
ARC
  5
31C0
  8
AM_0
 10
408.17227285495829
 20
655.38657326476914
 30
0.0
 40
3.0
 50
0.0
 51
91.999998000000545
  0
LINE
  5
31C1
  8
AM_0
 10
407.8877328549583
 20
658.37839326476933
 30
0.0
 11
408.06757285495831
 21
658.38468326476914
 31
0.0
  0
LINE
  5
31C2
  8
AM_0
 10
407.0676028549583
 20
681.86411326476934
 30
0.0
 11
419.17227285495829
 21
682.28678326476916
 31
0.0
  0
LINE
  5
31C3
  8
AM_0
 10
398.2310828549584
 20
668.8456232647693
 30
0.0
 11
404.17227285495829
 21
674.78684326476923
 31
0.0
  0
ARC
  5
31C4
  8
AM_0
 10
394.69553285495829
 20
672.38114326476932
 30
0.0
 40
5.0
 50
272.0000000000004
 51
315.0
  0
ARC
  5
31C5
  8
AM_0
 10
407.17227285495829
 20
678.86594326476893
 30
0.0
 40
3.0
 50
91.999998000000545
 51
180.00001000000091
  0
LINE
  5
31C6
  8
AM_0
 10
419.17227285495829
 20
669.78684326476923
 30
0.0
 11
423.17227285495829
 21
669.78684326476923
 31
0.0
  0
LINE
  5
31C7
  8
AM_0
 10
481.17230285495828
 20
548.78684326476923
 30
0.0
 11
481.17230285495828
 21
580.78684326476923
 31
0.0
  0
ARC
  5
31C8
  8
AM_0
 10
371.17229285495802
 20
295.02935604920918
 30
0.0
 40
21.000000600000011
 50
354.07597999999939
 51
80.875524999996657
  0
LINE
  5
31C9
  8
AM_0
 10
392.06018285495799
 20
292.861946049209
 30
0.0
 11
387.63944285495842
 21
250.25807604920911
 31
0.0
  0
LINE
  5
31CA
  8
AM_0
 10
368.68280285495803
 20
318.33539604920912
 30
0.0
 11
404.1722928549579
 21
353.82494604920907
 31
0.0
  0
LINE
  5
31CB
  8
AM_0
 10
391.40924285495828
 20
114.0929090492091
 30
0.0
 11
412.17230285495828
 21
126.0804740492091
 31
0.0
  0
LINE
  5
31CC
  8
ﾁｭｳｼﾝｾﾝ
 10
484.29062285495792
 20
243.82490904920911
 30
0.0
 11
241.17059285495799
 21
243.82490904920911
 31
0.0
  0
LINE
  5
31CD
  8
AM_0
 10
296.17229285495802
 20
135.4071350492091
 30
0.0
 11
402.4358028549583
 21
135.4071350492091
 31
0.0
  0
LINE
  5
31CE
  8
AM_0
 10
296.17229285495802
 20
155.4446720492092
 30
0.0
 11
402.4358028549583
 21
155.4446720492092
 31
0.0
  0
ARC
  5
31CF
  8
AM_0
 10
427.4257728549581
 20
246.12968904920911
 30
0.0
 40
40.000001999999981
 50
174.0759799999995
 51
234.45533999999751
  0
LINE
  5
31D0
  8
AM_0
 10
259.67231285495831
 20
155.59506204920899
 30
0.0
 11
259.67231285495831
 21
277.03451604920912
 31
0.0
  0
LINE
  5
31D1
  8
AM_0
 10
268.67231285495831
 20
151.82490504920901
 30
0.0
 11
268.67231285495831
 21
279.82490604920901
 31
0.0
  0
LINE
  5
31D2
  8
AM_0
 10
281.17229285495802
 20
143.89598004920899
 30
0.0
 11
281.17229285495802
 21
287.75387604920923
 31
0.0
  0
LINE
  5
31D3
  8
AM_0
 10
296.17229285495802
 20
118.6055000492091
 30
0.0
 11
296.17229285495802
 21
313.0443260492093
 31
0.0
  0
LINE
  5
31D4
  8
AM_0
 10
306.17231285495831
 20
116.3249210492091
 30
0.0
 11
306.17231285495831
 21
315.3248960492092
 31
0.0
  0
LINE
  5
31D5
  8
0
 10
179.17229285495799
 20
268.82492304920902
 30
0.0
 11
179.17229285495799
 21
112.8249230492091
 31
0.0
1001
GENIUS_GENOREF_13
1005
2E22
  0
LINE
  5
31D6
  8
0
 10
169.17229285495799
 20
110.8249230492091
 30
0.0
 11
169.17229285495799
 21
270.82492304920902
 31
0.0
1001
GENIUS_GENOREF_13
1005
2E22
  0
LINE
  5
31D7
  8
AM_0
 10
238.41362285495811
 20
250.00438404920911
 30
0.0
 11
258.79364285495808
 21
270.38435904920902
 31
0.0
  0
LINE
  5
31D8
  8
AM_0
 10
230.17229285495799
 20
271.19615604920909
 30
0.0
 11
230.17229285495799
 21
251.2695800492092
 31
0.0
  0
ARC
  5
31D9
  8
AM_0
 10
251.90576285495811
 20
231.82492404920899
 30
0.0
 40
5.0000001000000003
 50
315.0
 51
90.00000299999769
  0
LINE
  5
31DA
  8
AM_0
 10
249.913822854958
 20
222.76192104920909
 30
0.0
 11
259.67231285495831
 21
203.32492404920919
 31
0.0
  0
LINE
  5
31DB
  8
AM_0
 10
225.17231285495831
 20
198.76490904920911
 30
0.0
 11
259.67231285495831
 21
198.76490904920911
 31
0.0
  0
ARC
  5
31DC
  8
AM_0
 10
257.6723028549581
 20
155.59506204920899
 30
0.0
 40
2.00000007
 50
0.0
 51
88.000000000002899
  0
LINE
  5
31DD
  8
AM_0
 10
222.35540285495799
 20
139.75050504920901
 30
0.0
 11
259.52723285495802
 21
152.09102004920919
 31
0.0
  0
LINE
  5
31DE
  8
AM_0
 10
200.17229285495799
 20
134.32492104920911
 30
0.0
 11
200.17229285495799
 21
247.32491004920919
 31
0.0
  0
LINE
  5
31DF
  8
AM_0
 10
220.17230285495799
 20
138.886079049209
 30
0.0
 11
220.17230285495799
 21
193.7649110492091
 31
0.0
  0
LINE
  5
31E0
  8
AM_0
 10
200.17229285495799
 20
144.8249060492092
 30
0.0
 11
179.17229285495799
 21
144.8249060492092
 31
0.0
  0
LINE
  5
31E1
  8
AM_0
 10
200.17229285495799
 20
158.8874810492091
 30
0.0
 11
179.17229285495799
 21
158.8874810492091
 31
0.0
  0
LINE
  5
31E2
  8
0
 10
181.1024938615528
 20
133.65899099430641
 30
0.0
 11
200.17229285495799
 21
134.3249230492091
 31
0.0
  0
LINE
  5
31E3
  8
0
 10
169.17229285495799
 20
110.8249230492091
 30
0.0
 11
177.17229285495799
 21
110.8249230492091
 31
0.0
  0
ARC
  5
31E4
  8
0
 10
177.17229285495799
 20
112.8249230492091
 30
0.0
 40
2.0
 50
270.0
 51
0.0
1001
GENIUS_GENOBJ-N-FIL_13
1002
{
1000
OWNER
1000
GEN
1002
}
1001
GENIUS_GENODEF_13
1002
{
1000
HIER
1070
     0
1002
}
1002
{
1000
MANEDIT
1070
     0
1002
}
1002
{
1000
NOSEL
1070
     0
1002
}
1002
{
1000
BEHIND
1070
     0
1002
}
1002
{
1000
OTHER
1070
     0
1002
}
1002
{
1000
REACTOR
1002
}
  0
ARC
  5
31E5
  8
0
 10
181.17229285495799
 20
131.66020934026821
 30
0.0
 40
2.0
 50
91.999999999997087
 51
180.0
1001
GENIUS_GENOBJ-N-FIL_13
1002
{
1000
OWNER
1000
GEN
1002
}
1001
GENIUS_GENODEF_13
1002
{
1000
HIER
1070
     0
1002
}
1002
{
1000
MANEDIT
1070
     0
1002
}
1002
{
1000
NOSEL
1070
     0
1002
}
1002
{
1000
BEHIND
1070
     0
1002
}
1002
{
1000
OTHER
1070
     0
1002
}
1002
{
1000
REACTOR
1002
}
  0
LINE
  5
31E6
  8
AM_0
 10
224.31188285495799
 20
158.761247049209
 30
0.0
 11
257.74211285495801
 21
157.593842049209
 31
0.0
  0
LINE
  5
31E7
  8
AM_0
 10
200.17229285495799
 20
134.32490604920909
 30
0.0
 11
216.31187285495801
 21
134.88851904920901
 31
0.0
  0
LINE
  5
31E8
  8
AM_0
 10
200.17229285495799
 20
144.82492104920911
 30
0.0
 11
220.17230285495799
 21
144.82492104920911
 31
0.0
  0
ARC
  5
31E9
  8
AM_0
 10
216.17231285495831
 20
138.886079049209
 30
0.0
 40
4.000000199999997
 50
271.99999999999687
 51
0.0
  0
ARC
  5
31EA
  8
AM_0
 10
223.615732854958
 20
135.95425404920911
 30
0.0
 40
4.000000199999997
 50
108.3654199999978
 51
158.501450000002
  0
LINE
  5
31EB
  8
AM_0
 10
200.17229285495799
 20
158.8879100492091
 30
0.0
 11
220.17230285495799
 21
158.8879100492091
 31
0.0
  0
ARC
  5
31EC
  8
AM_0
 10
224.17229285495799
 20
154.7636870492091
 30
0.0
 40
4.000000199999997
 50
88.000000000002899
 51
180.00001000000091
  0
LINE
  5
31ED
  8
AM_0
 10
200.17229285495799
 20
236.82492204920911
 30
0.0
 11
179.17229285495799
 21
236.82492204920911
 31
0.0
  0
LINE
  5
31EE
  8
0
 10
181.1024938615528
 20
247.9908551041118
 30
0.0
 11
200.17229285495799
 21
247.3249230492091
 31
0.0
  0
LINE
  5
31EF
  8
AM_0
 10
200.17229285495799
 20
222.762362049209
 30
0.0
 11
179.17229285495799
 21
222.762362049209
 31
0.0
  0
LINE
  5
31F0
  8
ﾁｭｳｼﾝｾﾝ
 10
254.0204328549581
 20
190.8249230492091
 30
0.0
 11
159.4076478549581
 21
190.8249230492091
 31
0.0
  0
ARC
  5
31F1
  8
0
 10
181.17229285495799
 20
249.98963675815
 30
0.0
 40
2.0
 50
180.0
 51
268.0000000000029
1001
GENIUS_GENOBJ-N-FIL_13
1002
{
1000
OWNER
1000
GEN
1002
}
1001
GENIUS_GENODEF_13
1002
{
1000
HIER
1070
     0
1002
}
1002
{
1000
MANEDIT
1070
     0
1002
}
1002
{
1000
NOSEL
1070
     0
1002
}
1002
{
1000
BEHIND
1070
     0
1002
}
1002
{
1000
OTHER
1070
     0
1002
}
1002
{
1000
REACTOR
1002
}
  0
ARC
  5
31F2
  8
AM_0
 10
225.17231285495831
 20
193.7649110492091
 30
0.0
 40
5.0000001000000003
 50
90.00000299999769
 51
180.00001000000091
  0
POINT
  5
31F3
  8
AM_0
 10
200.17229285495799
 20
190.8249230492091
 30
0.0
  0
LINE
  5
31F4
  8
AM_0
 10
200.17229285495799
 20
247.32491004920919
 30
0.0
 11
227.2769628549579
 21
248.27144304920901
 31
0.0
  0
LINE
  5
31F5
  8
AM_0
 10
200.17229285495799
 20
222.76193604920911
 30
0.0
 11
249.913822854958
 21
222.76193604920911
 31
0.0
  0
LINE
  5
31F6
  8
AM_0
 10
200.17229285495799
 20
236.82491004920919
 30
0.0
 11
251.90576285495811
 21
236.82491004920919
 31
0.0
  0
LINE
  5
31F7
  8
AM_0
 10
249.913822854958
 20
222.76192104920909
 30
0.0
 11
255.44129285495799
 21
228.28937004920911
 31
0.0
  0
LINE
  5
31F8
  8
AM_0
 10
237.0209328549582
 20
248.44206504920911
 30
0.0
 11
242.853382854958
 21
236.82491004920919
 31
0.0
  0
LINE
  5
31F9
  8
AM_0
 10
227.2769628549579
 20
248.27144304920901
 30
0.0
 11
235.052602854958
 21
248.54295804920909
 31
0.0
  0
ARC
  5
31FA
  8
AM_0
 10
227.17229285495799
 20
251.2695800492092
 30
0.0
 40
3.0
 50
271.99999999999687
 51
0.0
  0
ARC
  5
31FB
  8
AM_0
 10
234.87812285495809
 20
253.53990504920901
 30
0.0
 40
5.0000001000000003
 50
271.99999999999687
 51
315.0
  0
LINE
  5
31FC
  8
AM_0
 10
306.17231285495831
 20
116.3249210492091
 30
0.0
 11
391.4092128549579
 21
114.0929090492091
 31
0.0
  0
LINE
  5
31FD
  8
AM_0
 10
298.10246285495828
 20
116.6067200492091
 30
0.0
 11
306.17231285495831
 21
116.3249210492091
 31
0.0
  0
ARC
  5
31FE
  8
AM_0
 10
298.1723028549581
 20
118.6055000492091
 30
0.0
 40
2.00000007
 50
179.9999899999988
 51
268.00000999999861
  0
LINE
  5
31FF
  8
AM_0
 10
282.636772854958
 20
140.36045904920911
 30
0.0
 11
295.29365285495828
 21
127.7036120492091
 31
0.0
  0
ARC
  5
3200
  8
AM_0
 10
286.17230285495799
 20
143.89598004920899
 30
0.0
 40
5.0000001000000003
 50
179.9999899999988
 51
225.0
  0
LINE
  5
3201
  8
AM_0
 10
268.67231285495831
 20
152.32492104920919
 30
0.0
 11
276.34679285495821
 21
152.05691604920901
 31
0.0
  0
LINE
  5
3202
  8
AM_0
 10
268.67231285495831
 20
164.32492104920911
 30
0.0
 11
281.17229285495802
 21
164.32492104920911
 31
0.0
  0
LINE
  5
3203
  8
AM_0
 10
262.5676128549581
 20
152.03808804920911
 30
0.0
 11
268.67231285495831
 21
151.82490504920901
 31
0.0
  0
ARC
  5
3204
  8
AM_0
 10
262.67231285495831
 20
155.03625504920899
 30
0.0
 40
3.0
 50
179.9999899999988
 51
268.00000999999861
  0
ARC
  5
3205
  8
AM_0
 10
260.78753285495827
 20
148.29476904920909
 30
0.0
 40
4.000000199999997
 50
74.380296000000413
 51
108.3654199999978
  0
LINE
  5
3206
  8
AM_0
 10
259.67231285495831
 20
155.03625504920899
 30
0.0
 11
259.67231285495831
 21
155.59506204920899
 31
0.0
  0
LINE
  5
3207
  8
AM_0
 10
259.67231285495831
 20
164.32492104920911
 30
0.0
 11
268.67231285495831
 21
164.32492104920911
 31
0.0
  0
ARC
  5
3208
  8
AM_0
 10
276.17231285495808
 20
147.059969049209
 30
0.0
 40
5.0000001000000003
 50
0.0
 51
88.000000000002899
  0
ARC
  5
3209
  8
AM_0
 10
293.17229285495802
 20
125.5822760492091
 30
0.0
 40
3.0
 50
0.0
 51
45.00000100000149
  0
LINE
  5
320A
  8
AM_0
 10
268.67231285495831
 20
178.67700204920911
 30
0.0
 11
281.17229285495802
 21
178.67700204920911
 31
0.0
  0
LINE
  5
320B
  8
AM_0
 10
259.67231285495831
 20
178.67656104920911
 30
0.0
 11
268.67231285495831
 21
178.67656104920911
 31
0.0
  0
LINE
  5
320C
  8
AM_0
 10
268.67231285495831
 20
252.97285704920901
 30
0.0
 11
281.17229285495802
 21
252.97285704920901
 31
0.0
  0
LINE
  5
320D
  8
AM_0
 10
259.67231285495831
 20
252.97325604920911
 30
0.0
 11
268.67231285495831
 21
252.97325604920911
 31
0.0
  0
LINE
  5
320E
  8
AM_0
 10
306.17231285495831
 20
246.01024104920899
 30
0.0
 11
306.1739028549581
 21
246.01024104920899
 31
0.0
  0
ARC
  5
320F
  8
AM_0
 10
256.84100285495828
 20
278.02631604920902
 30
0.0
 40
3.0
 50
271.99999999999687
 51
346.38107000000139
  0
LINE
  5
3210
  8
0
 10
169.17229285495799
 20
270.82492304920902
 30
0.0
 11
177.17229285495799
 21
270.82492304920902
 31
0.0
  0
ARC
  5
3211
  8
0
 10
177.17229285495799
 20
268.82492304920902
 30
0.0
 40
2.0
 50
0.0
 51
90.0
1001
GENIUS_GENOBJ-N-FIL_13
1002
{
1000
OWNER
1000
GEN
1002
}
1001
GENIUS_GENODEF_13
1002
{
1000
HIER
1070
     0
1002
}
1002
{
1000
MANEDIT
1070
     0
1002
}
1002
{
1000
NOSEL
1070
     0
1002
}
1002
{
1000
BEHIND
1070
     0
1002
}
1002
{
1000
OTHER
1070
     0
1002
}
1002
{
1000
REACTOR
1002
}
  0
LINE
  5
3212
  8
AM_0
 10
233.0676228549581
 20
274.19432604920911
 30
0.0
 11
256.94573285495812
 21
275.02815804920908
 31
0.0
  0
ARC
  5
3213
  8
AM_0
 10
233.17229285495799
 20
271.19615604920909
 30
0.0
 40
3.0
 50
91.999998000000545
 51
180.00001000000091
  0
LINE
  5
3214
  8
AM_0
 10
306.17231285495831
 20
315.32495604920922
 30
0.0
 11
365.27816285495828
 21
316.87268604920928
 31
0.0
  0
LINE
  5
3215
  8
AM_0
 10
296.17229285495802
 20
295.02935604920918
 30
0.0
 11
391.16576285495819
 21
295.02935604920918
 31
0.0
  0
LINE
  5
3216
  8
AM_0
 10
282.636772854958
 20
291.28937604920912
 30
0.0
 11
295.29365285495828
 21
303.94625604920918
 31
0.0
  0
LINE
  5
3217
  8
AM_0
 10
268.67231285495831
 20
267.32491104920922
 30
0.0
 11
281.17229285495802
 21
267.32491104920922
 31
0.0
  0
LINE
  5
3218
  8
AM_0
 10
259.67231285495831
 20
267.32491104920922
 30
0.0
 11
268.67231285495831
 21
267.32491104920922
 31
0.0
  0
ARC
  5
3219
  8
AM_0
 10
256.67231285495831
 20
272.50569504920912
 30
0.0
 40
3.0
 50
315.0
 51
0.0
  0
LINE
  5
321A
  8
AM_0
 10
268.67231285495831
 20
279.32492604920918
 30
0.0
 11
276.34679285495821
 21
279.5929460492091
 31
0.0
  0
LINE
  5
321B
  8
AM_0
 10
262.5676128549581
 20
279.61175604920919
 30
0.0
 11
268.67231285495831
 21
279.82490604920901
 31
0.0
  0
ARC
  5
321C
  8
AM_0
 10
262.67231285495831
 20
276.61358604920912
 30
0.0
 40
3.0
 50
91.999998000000545
 51
166.3810700000015
  0
ARC
  5
321D
  8
AM_0
 10
276.17231285495808
 20
284.58986604920898
 30
0.0
 40
5.0000001000000003
 50
271.99999999999687
 51
0.0
  0
ARC
  5
321E
  8
AM_0
 10
286.17230285495799
 20
287.75387604920923
 30
0.0
 40
5.0000001000000003
 50
135.0
 51
180.00001000000091
  0
ARC
  5
321F
  8
AM_0
 10
293.17229285495802
 20
306.0675560492092
 30
0.0
 40
3.0
 50
315.0
 51
0.0
  0
LINE
  5
3220
  8
AM_0
 10
298.10246285495828
 20
315.04310604920909
 30
0.0
 11
306.17231285495831
 21
315.3248960492092
 31
0.0
  0
ARC
  5
3221
  8
AM_0
 10
298.1723028549581
 20
313.0443260492093
 30
0.0
 40
2.00000007
 50
91.999998000000545
 51
180.00001000000091
  0
ARC
  5
3222
  8
AM_0
 10
365.14727285495832
 20
321.87092604920912
 30
0.0
 40
5.0000001000000003
 50
271.50000000000261
 51
315.0
  0
LINE
  5
3223
  8
AM_0
 10
367.27226285495829
 20
316.92488604920908
 30
0.0
 11
374.50247285495777
 21
315.76364604920929
 31
0.0
  0
ARC
  5
3224
  8
AM_0
 10
713.91026056190935
 20
243.82490904920911
 30
0.0
 40
16.000000499999999
 50
108.2099599999986
 51
71.790051999998809
  0
ARC
  5
3225
  8
AM_0
 10
713.91026056190935
 20
243.82490904920911
 30
0.0
 40
16.000000499999999
 50
108.2099599999986
 51
71.790051999998809
  0
ARC
  5
3226
  8
AM_0
 10
713.91026056190935
 20
243.82490904920911
 30
0.0
 40
89.000003999999961
 50
166.12423000000109
 51
179.5717700000001
  0
ARC
  5
3227
  8
AM_0
 10
713.91026056190935
 20
243.82490904920911
 30
0.0
 40
48.0
 50
144.77684000000161
 51
180.00001000000091
  0
CIRCLE
  5
3228
  8
AM_0
 10
713.91026056190935
 20
243.82490904920911
 30
0.0
 40
29.000001000000001
  0
ARC
  5
3229
  8
AM_0
 10
713.91026056190935
 20
243.82490904920911
 30
0.0
 40
89.000003999999961
 50
0.4282278599984297
 51
13.87576399999806
  0
ARC
  5
322A
  8
AM_0
 10
713.91026056190935
 20
243.82490904920911
 30
0.0
 40
48.0
 50
0.0
 51
35.223151999999843
  0
CIRCLE
  5
322B
  8
AM_0
 10
713.91026056190935
 20
243.82490904920911
 30
0.0
 40
99.000003000000021
  0
CIRCLE
  5
322C
  8
AM_0
 10
713.91026056190935
 20
243.82490904920911
 30
0.0
 40
105.00000299999979
  0
LINE
  5
322D
  8
AM_0
 10
596.41025956190936
 20
243.82490904920911
 30
0.0
 11
596.41025956190936
 21
273.82490904920923
 31
0.0
  0
LINE
  5
322E
  8
AM_0
 10
831.41025856190981
 20
243.82490904920911
 30
0.0
 11
831.41025856190981
 21
273.82490904920923
 31
0.0
  0
LINE
  5
322F
  8
ﾁｭｳｼﾝｾﾝ
 10
713.91026056190935
 20
111.0541820492091
 30
0.0
 11
713.91026056190935
 21
366.92231604920892
 31
0.0
  0
LINE
  5
3230
  8
AM_0
 10
411.17231285495819
 20
243.82490904920911
 30
0.0
 11
411.17231285495819
 21
334.4246360492092
 31
0.0
  0
LINE
  5
3231
  8
AM_0
 10
419.17229285495779
 20
243.82490904920911
 30
0.0
 11
419.17229285495779
 21
361.32494604920919
 31
0.0
  0
LINE
  5
3232
  8
AM_0
 10
404.1722928549579
 20
215.06067204920919
 30
0.0
 11
404.1722928549579
 21
302.73566604920921
 31
0.0
  0
LINE
  5
3233
  8
AM_0
 10
423.17231285495831
 20
138.82492104920919
 30
0.0
 11
423.17231285495831
 21
348.8249360492091
 31
0.0
  0
LINE
  5
3234
  8
AM_0
 10
481.17230285495828
 20
227.82494004920909
 30
0.0
 11
481.17230285495828
 21
262.82490804920911
 31
0.0
  0
LINE
  5
3235
  8
ﾁｭｳｼﾝｾﾝ
 10
591.24260956190949
 20
243.82490904920911
 30
0.0
 11
835.71998956190964
 21
243.82490904920911
 31
0.0
  0
ARC
  5
3236
  8
AM_0
 10
713.91026056190935
 20
215.8249370492091
 30
0.0
 40
99.500004000000004
 50
242.88566000000239
 51
297.11435000000108
  0
ARC
  5
3237
  8
AM_0
 10
713.91026056190935
 20
190.8249230492091
 30
0.0
 40
80.0
 50
232.56528897981951
 51
307.43471298048121
  0
LINE
  5
3238
  8
AM_0
 10
713.91026056190935
 20
126.324920049209
 30
0.0
 11
743.91026356190991
 21
126.324920049209
 31
0.0
  0
LINE
  5
3239
  8
ﾁｭｳｼﾝｾﾝ
 10
657.41918628119379
 20
190.8249230492091
 30
0.0
 11
772.95565470500935
 21
190.8249230492091
 31
0.0
  0
LINE
  5
323A
  8
AM_0
 10
411.17231285495819
 20
152.45693904920901
 30
0.0
 11
411.17231285495819
 21
243.82490904920911
 31
0.0
  0
LINE
  5
323B
  8
AM_0
 10
419.17229285495779
 20
126.324920049209
 30
0.0
 11
419.17229285495779
 21
243.82490904920911
 31
0.0
  0
LINE
  5
323C
  8
AM_0
 10
404.1722928549579
 20
128.90770104920901
 30
0.0
 11
404.1722928549579
 21
179.13565104920909
 31
0.0
  0
LINE
  5
323D
  8
AM_0
 10
407.27702285495792
 20
125.90953104920899
 30
0.0
 11
419.17229285495779
 21
126.324920049209
 31
0.0
  0
ARC
  5
323E
  8
AM_0
 10
407.1722928549579
 20
128.90770104920901
 30
0.0
 40
3.0
 50
179.9999899999988
 51
271.99999000000139
  0
LINE
  5
323F
  8
AM_0
 10
419.17229285495779
 20
138.82492104920919
 30
0.0
 11
423.17231285495831
 21
138.82492104920919
 31
0.0
  0
LINE
  5
3240
  8
AM_0
 10
406.45685285495819
 20
149.395220049209
 30
0.0
 11
408.27701285495789
 21
149.45877204920899
 31
0.0
  0
ARC
  5
3241
  8
AM_0
 10
408.17231285495802
 20
152.45693904920901
 30
0.0
 40
3.0
 50
271.99999999999687
 51
0.0
  0
LINE
  5
3242
  8
AM_0
 10
481.17230285495828
 20
227.82494004920909
 30
0.0
 11
423.17231285495831
 21
227.82494004920909
 31
0.0
  0
LINE
  5
3243
  8
AM_0
 10
407.1722928549579
 20
182.13565104920909
 30
0.0
 11
411.17231285495819
 21
182.13565104920909
 31
0.0
  0
ARC
  5
3244
  8
AM_0
 10
407.1722928549579
 20
179.13565104920909
 30
0.0
 40
3.0
 50
90.00000299999769
 51
180.00001000000091
  0
LINE
  5
3245
  8
AM_0
 10
407.1722928549579
 20
212.0606720492091
 30
0.0
 11
411.17231285495819
 21
212.0606720492091
 31
0.0
  0
ARC
  5
3246
  8
AM_0
 10
407.1722928549579
 20
215.06067204920919
 30
0.0
 40
3.0
 50
179.9999899999988
 51
270.0
  0
LINE
  5
3247
  8
AM_0
 10
596.41022956190955
 20
213.82492404920919
 30
0.0
 11
599.82506956190969
 21
148.66565004920901
 31
0.0
  0
LINE
  5
3248
  8
AM_0
 10
683.91024556190939
 20
126.324920049209
 30
0.0
 11
618.75095656190956
 21
129.73977804920921
 31
0.0
  0
LINE
  5
3249
  8
ﾁｭｳｼﾝｾﾝ1
 10
629.41099488242935
 20
159.3256733697288
 30
0.0
 11
607.49068424138977
 21
137.40536272868911
 31
0.0
  0
ARC
  5
324A
  8
ﾁｭｳｼﾝｾﾝ1
 10
713.91026056190935
 20
243.82490904920911
 30
0.0
 40
135.00000299999991
 50
218.4179730246461
 51
231.5820197728226
  0
ARC
  5
324B
  8
AM_0
 10
619.79771056190975
 20
149.71237104920911
 30
0.0
 40
20.000000700000001
 50
183.00000999999961
 51
267.0000000000008
  0
CIRCLE
  5
324C
  8
AM_0
 10
618.45084856190965
 20
148.36550904920909
 30
0.0
 40
7.5000002999999982
  0
LINE
  5
324D
  8
AM_0
 10
713.91026056190935
 20
126.324920049209
 30
0.0
 11
683.91024556190939
 21
126.324920049209
 31
0.0
  0
LINE
  5
324E
  8
AM_0
 10
660.91024456190962
 20
200.8249370492091
 30
0.0
 11
627.93351256190965
 21
200.8249370492091
 31
0.0
  0
ARC
  5
324F
  8
AM_0
 10
627.93351256190965
 20
205.8249230492091
 30
0.0
 40
5.0000001000000003
 50
203.8444700000006
 51
270.0
  0
ARC
  5
3250
  8
AM_0
 10
713.91026056190935
 20
215.8249370492091
 30
0.0
 40
93.500003999999976
 50
162.1467900000001
 51
183.00788
  0
LINE
  5
3251
  8
AM_0
 10
596.41025956190936
 20
243.82490904920911
 30
0.0
 11
596.41025956190936
 21
213.82492404920919
 31
0.0
  0
LINE
  5
3252
  8
AM_0
 10
665.91024556190951
 20
243.82490904920911
 30
0.0
 11
665.91024556190951
 21
205.8249230492091
 31
0.0
  0
ARC
  5
3253
  8
AM_0
 10
660.91024456190962
 20
205.8249230492091
 30
0.0
 40
5.0000001000000003
 50
270.0
 51
0.0
  0
CIRCLE
  5
3254
  8
AM_0
 62
     2
 10
713.91026056190935
 20
243.82490904920911
 30
0.0
 40
4.000000199999997
  0
CIRCLE
  5
3255
  8
AM_0
 10
713.91026056190935
 20
243.82490904920911
 30
0.0
 40
2.75000007
  0
CIRCLE
  5
3256
  8
AM_0
 10
713.91026056190935
 20
243.82490904920911
 30
0.0
 40
2.75000007
  0
LINE
  5
3257
  8
AM_0
 10
831.41025856190981
 20
213.82492404920919
 30
0.0
 11
827.99540056190983
 21
148.66563504920919
 31
0.0
  0
LINE
  5
3258
  8
AM_0
 10
743.91024856190961
 20
126.324920049209
 30
0.0
 11
809.06952856191015
 21
129.73977804920921
 31
0.0
  0
ARC
  5
3259
  8
AM_0
 10
808.02281356190906
 20
149.71237104920911
 30
0.0
 40
20.000000700000001
 50
272.99999999999909
 51
357.00000000000091
  0
CIRCLE
  5
325A
  8
AM_0
 10
809.36966956190975
 20
148.36550904920909
 30
0.0
 40
7.5000002999999982
  0
LINE
  5
325B
  8
AM_0
 10
766.9102645619098
 20
200.8249370492091
 30
0.0
 11
799.88699356190966
 21
200.8249370492091
 31
0.0
  0
LINE
  5
325C
  8
AM_0
 10
761.91026356190991
 20
243.82490904920911
 30
0.0
 11
761.91026356190991
 21
205.8249230492091
 31
0.0
  0
ARC
  5
325D
  8
AM_0
 10
766.9102645619098
 20
205.8249230492091
 30
0.0
 40
5.0000001000000003
 50
179.9999899999988
 51
270.0
  0
ARC
  5
325E
  8
AM_0
 10
799.88699356190966
 20
205.8249230492091
 30
0.0
 40
5.0000001000000003
 50
270.0
 51
336.1555299999992
  0
ARC
  5
325F
  8
AM_0
 10
713.91026056190935
 20
215.8249370492091
 30
0.0
 40
93.500003999999976
 50
356.99211999999977
 51
17.85321299999984
  0
LINE
  5
3260
  8
AM_0
 10
831.41025856190981
 20
243.82490904920911
 30
0.0
 11
831.41025856190981
 21
213.82492404920919
 31
0.0
  0
ARC
  5
3261
  8
AM_0
 10
713.91026056190935
 20
243.82490904920911
 30
0.0
 40
48.0
 50
54.776849999997779
 51
125.2231400000008
  0
ARC
  5
3262
  8
AM_0
 10
713.91026056190935
 20
215.8249370492091
 30
0.0
 40
99.500004000000004
 50
58.838493999997567
 51
86.644180000003075
  0
LINE
  5
3263
  8
AM_0
 10
713.91026056190935
 20
361.32494604920919
 30
0.0
 11
743.91026356190991
 21
361.32494604920919
 31
0.0
  0
LINE
  5
3264
  8
AM_0
 10
404.1722928549579
 20
302.73566604920921
 30
0.0
 11
404.1722928549579
 21
357.90404604920911
 31
0.0
  0
LINE
  5
3265
  8
AM_0
 10
481.17230285495828
 20
262.82490804920911
 30
0.0
 11
436.1722728549579
 21
262.82490804920911
 31
0.0
  0
LINE
  5
3266
  8
AM_0
 10
481.17230285495828
 20
259.82490804920911
 30
0.0
 11
423.17231285495831
 21
259.82490804920911
 31
0.0
  0
LINE
  5
3267
  8
AM_0
 10
436.1722728549579
 20
259.82490804920911
 30
0.0
 11
436.1722728549579
 21
262.82490804920911
 31
0.0
  0
LINE
  5
3268
  8
AM_0
 10
407.1722928549579
 20
299.73566604920921
 30
0.0
 11
411.17231285495819
 21
299.73566604920921
 31
0.0
  0
ARC
  5
3269
  8
AM_0
 10
407.1722928549579
 20
302.73566604920921
 30
0.0
 40
3.0
 50
179.9999899999988
 51
270.0
  0
ARC
  5
326A
  8
AM_0
 10
408.17231285495802
 20
334.4246360492092
 30
0.0
 40
3.0
 50
0.0
 51
91.999998000000545
  0
LINE
  5
326B
  8
AM_0
 10
407.88776285495771
 20
337.41656604920911
 30
0.0
 11
408.06761285495821
 21
337.42283604920908
 31
0.0
  0
LINE
  5
326C
  8
AM_0
 10
407.0676228549579
 20
360.9022160492089
 30
0.0
 11
419.17229285495779
 21
361.32491604920921
 31
0.0
  0
ARC
  5
326D
  8
AM_0
 10
407.1722928549579
 20
357.90404604920911
 30
0.0
 40
3.0
 50
91.999998000000545
 51
180.00001000000091
  0
LINE
  5
326E
  8
AM_0
 10
419.17229285495779
 20
348.8249360492091
 30
0.0
 11
423.17231285495831
 21
348.8249360492091
 31
0.0
  0
CIRCLE
  5
326F
  8
AM_0
 10
618.45084856190965
 20
339.28436604920921
 30
0.0
 40
7.5000002999999982
  0
ARC
  5
3270
  8
AM_0
 10
619.79771056190975
 20
337.93748604920921
 30
0.0
 40
20.000000700000001
 50
92.999999000001679
 51
176.99999000000011
  0
LINE
  5
3271
  8
AM_0
 10
674.14945756190991
 20
277.9288460492092
 30
0.0
 11
644.9191705619096
 21
307.15916604920892
 31
0.0
  0
LINE
  5
3272
  8
AM_0
 10
679.80631756190951
 20
283.58570604920908
 30
0.0
 11
650.57601556190923
 21
312.81602604920897
 31
0.0
  0
LINE
  5
3273
  8
AM_0
 10
596.41025956190936
 20
273.82490904920923
 30
0.0
 11
599.82509956190961
 21
338.98421604920912
 31
0.0
  0
ARC
  5
3274
  8
AM_0
 10
713.91026056190935
 20
215.8249370492091
 30
0.0
 40
99.500004000000004
 50
125.863690000004
 51
150.26975999999931
  0
ARC
  5
3275
  8
AM_0
 10
654.11152456190962
 20
316.35158604920912
 30
0.0
 40
5.0000001000000003
 50
129.50581999999901
 51
225.0
  0
ARC
  5
3276
  8
AM_0
 10
641.38361656190955
 20
303.6236360492091
 30
0.0
 40
5.0000001000000003
 50
45.00000100000149
 51
140.49417999999881
  0
ARC
  5
3277
  8
AM_0
 10
670.6139185619096
 20
274.39333104920911
 30
0.0
 40
5.0000001000000003
 50
324.77685000000031
 51
45.00000100000149
  0
ARC
  5
3278
  8
AM_0
 10
683.34184156190986
 20
287.12126604920923
 30
0.0
 40
5.0000001000000003
 50
225.0
 51
305.22315000000219
  0
LINE
  5
3279
  8
AM_0
 10
708.91024756190961
 20
254.82494004920909
 30
0.0
 11
718.91024656190984
 21
254.82494004920909
 31
0.0
  0
LINE
  5
327A
  8
AM_0
 10
708.91024756190961
 20
262.82490804920911
 30
0.0
 11
718.91024656190984
 21
262.82490804920911
 31
0.0
  0
LINE
  5
327B
  8
AM_0
 10
708.91024756190961
 20
254.82494004920909
 30
0.0
 11
708.91024756190961
 21
262.82490804920911
 31
0.0
  0
LINE
  5
327C
  8
AM_0
 10
718.91024656190984
 20
254.82494004920909
 30
0.0
 11
718.91024656190984
 21
262.82490804920911
 31
0.0
  0
LINE
  5
327D
  8
AM_0
 10
716.91026056190935
 20
324.33965604920911
 30
0.0
 11
716.91026056190935
 21
318.14915604920918
 31
0.0
  0
LINE
  5
327E
  8
AM_0
 10
710.91026056190958
 20
324.33965604920911
 30
0.0
 11
710.91026056190958
 21
318.14915604920918
 31
0.0
  0
ARC
  5
327F
  8
AM_0
 10
707.91024556190951
 20
318.14915604920918
 30
0.0
 40
3.0
 50
273.35581999999681
 51
0.0
  0
ARC
  5
3280
  8
AM_0
 10
713.91026056190935
 20
215.8249370492091
 30
0.0
 40
99.500004000000004
 50
93.355817999997413
 51
121.1614999999983
  0
ARC
  5
3281
  8
AM_0
 10
719.91026056190958
 20
318.14915604920918
 30
0.0
 40
3.0
 50
179.9999899999988
 51
266.64419000000049
  0
ARC
  5
3282
  8
AM_0
 10
707.91024556190951
 20
324.33965604920911
 30
0.0
 40
3.0
 50
0.0
 51
90.00000299999769
  0
ARC
  5
3283
  8
AM_0
 10
719.91026056190958
 20
324.33965604920911
 30
0.0
 40
3.0
 50
90.00000299999769
 51
180.00001000000091
  0
LINE
  5
3284
  8
AM_0
 10
683.91024556190939
 20
361.32491604920921
 30
0.0
 11
618.75098656190937
 21
357.91004604920909
 31
0.0
  0
LINE
  5
3285
  8
AM_0
 10
713.91026056190935
 20
361.32494604920919
 30
0.0
 11
683.91024556190939
 21
361.32494604920919
 31
0.0
  0
CIRCLE
  5
3286
  8
AM_0
 10
809.36966956190975
 20
339.28436604920921
 30
0.0
 40
7.5000002999999982
  0
ARC
  5
3287
  8
ﾁｭｳｼﾝｾﾝ1
 10
713.91026056190935
 20
243.82490904920911
 30
0.0
 40
135.00000299999991
 50
38.417991962836631
 51
51.58203684727998
  0
LINE
  5
3288
  8
ﾁｭｳｼﾝｾﾝ1
 10
798.40951354370725
 20
328.32421142636463
 30
0.0
 11
820.32981702358904
 21
350.24452922857108
 31
0.0
  0
ARC
  5
3289
  8
AM_0
 10
808.02281356190906
 20
337.93748604920921
 30
0.0
 40
20.000000700000001
 50
3.0000000999988461
 51
86.99999899999699
  0
ARC
  5
328A
  8
AM_0
 10
713.91026056190935
 20
215.8249370492091
 30
0.0
 40
99.500004000000004
 50
29.730243000001629
 51
54.136312000000359
  0
LINE
  5
328B
  8
AM_0
 10
753.67105156190974
 20
277.92887604920912
 30
0.0
 11
782.90135956190954
 21
307.15916604920892
 31
0.0
  0
LINE
  5
328C
  8
AM_0
 10
748.01419156190991
 20
283.58570604920908
 30
0.0
 11
777.24450856190947
 21
312.81602604920897
 31
0.0
  0
ARC
  5
328D
  8
AM_0
 10
757.20658756190983
 20
274.39333104920911
 30
0.0
 40
5.0000001000000003
 50
135.0
 51
215.22314999999929
  0
ARC
  5
328E
  8
AM_0
 10
744.4786675619099
 20
287.12126604920923
 30
0.0
 40
5.0000001000000003
 50
234.776859999999
 51
315.0
  0
ARC
  5
328F
  8
AM_0
 10
773.70898456190923
 20
316.35158604920912
 30
0.0
 40
5.0000001000000003
 50
315.0
 51
50.49418200000094
  0
ARC
  5
3290
  8
AM_0
 10
786.43688956190965
 20
303.6236360492091
 30
0.0
 40
5.0000001000000003
 50
39.505817999999088
 51
135.0
  0
LINE
  5
3291
  8
AM_0
 10
831.41024956190995
 20
273.82493904920898
 30
0.0
 11
827.99540056190983
 21
338.98421604920912
 31
0.0
  0
LINE
  5
3292
  8
AM_0
 10
743.91024856190961
 20
361.32491604920921
 30
0.0
 11
809.06952856191015
 21
357.91004604920909
 31
0.0
  0
LINE
  5
3294
  8
0
 10
169.17224285495831
 20
484.78681326476919
 30
0.0
 11
169.17224285495831
 21
644.78681326476885
 31
0.0
1001
GENIUS_GENOREF_13
1005
2F9B
  0
LINE
  5
3295
  8
0
 10
179.17224285495851
 20
642.78681326476919
 30
0.0
 11
179.17224285495851
 21
486.78681326476919
 31
0.0
1001
GENIUS_GENOREF_13
1005
2F9B
  0
LINE
  5
3296
  8
0
 10
169.17224285495831
 20
484.78681326476919
 30
0.0
 11
177.1722428549584
 21
484.78681326476919
 31
0.0
  0
ARC
  5
3297
  8
0
 10
177.1722428549584
 20
486.78681326476919
 30
0.0
 40
2.0
 50
270.0
 51
0.0
1001
GENIUS_GENOBJ-N-FIL_13
1002
{
1000
OWNER
1000
GEN
1002
}
1001
GENIUS_GENODEF_13
1002
{
1000
HIER
1070
     0
1002
}
1002
{
1000
MANEDIT
1070
     0
1002
}
1002
{
1000
NOSEL
1070
     0
1002
}
1002
{
1000
BEHIND
1070
     0
1002
}
1002
{
1000
OTHER
1070
     0
1002
}
1002
{
1000
REACTOR
1002
}
  0
LINE
  5
3298
  8
0
 10
181.10244386155321
 20
507.62088120986652
 30
0.0
 11
200.1722428549584
 21
508.28681326476919
 31
0.0
  0
LINE
  5
3299
  8
AM_0
 10
200.1722428549584
 20
532.84937126476905
 30
0.0
 11
179.17224285495851
 21
532.84937126476905
 31
0.0
  0
LINE
  5
329A
  8
AM_0
 10
200.1722428549584
 20
518.78679626476924
 30
0.0
 11
179.17224285495851
 21
518.78679626476924
 31
0.0
  0
ARC
  5
329B
  8
0
 10
181.1722428549584
 20
505.6220995558283
 30
0.0
 40
2.0
 50
91.999999999997087
 51
180.0
1001
GENIUS_GENOBJ-N-FIL_13
1002
{
1000
OWNER
1000
GEN
1002
}
1001
GENIUS_GENODEF_13
1002
{
1000
HIER
1070
     0
1002
}
1002
{
1000
MANEDIT
1070
     0
1002
}
1002
{
1000
NOSEL
1070
     0
1002
}
1002
{
1000
BEHIND
1070
     0
1002
}
1002
{
1000
OTHER
1070
     0
1002
}
1002
{
1000
REACTOR
1002
}
  0
LINE
  5
329C
  8
AM_0
 10
200.1722428549584
 20
596.72425226476923
 30
0.0
 11
179.17224285495851
 21
596.72425226476923
 31
0.0
  0
LINE
  5
329D
  8
0
 10
181.10244386155321
 20
621.95274531967175
 30
0.0
 11
200.1722428549584
 21
621.28681326476931
 31
0.0
  0
LINE
  5
329E
  8
AM_0
 10
200.1722428549584
 20
610.78681226476897
 30
0.0
 11
179.17224285495851
 21
610.78681226476897
 31
0.0
  0
ARC
  5
329F
  8
0
 10
181.1722428549584
 20
623.95152697371009
 30
0.0
 40
2.0
 50
180.0
 51
268.0000000000029
1001
GENIUS_GENOBJ-N-FIL_13
1002
{
1000
OWNER
1000
GEN
1002
}
1001
GENIUS_GENODEF_13
1002
{
1000
HIER
1070
     0
1002
}
1002
{
1000
MANEDIT
1070
     0
1002
}
1002
{
1000
NOSEL
1070
     0
1002
}
1002
{
1000
BEHIND
1070
     0
1002
}
1002
{
1000
OTHER
1070
     0
1002
}
1002
{
1000
REACTOR
1002
}
  0
LINE
  5
32A0
  8
0
 10
169.17224285495831
 20
644.78681326476885
 30
0.0
 11
177.1722428549584
 21
644.78681326476885
 31
0.0
  0
ARC
  5
32A1
  8
0
 10
177.1722428549584
 20
642.78681326476919
 30
0.0
 40
2.0
 50
0.0
 51
90.0
1001
GENIUS_GENOBJ-N-FIL_13
1002
{
1000
OWNER
1000
GEN
1002
}
1001
GENIUS_GENODEF_13
1002
{
1000
HIER
1070
     0
1002
}
1002
{
1000
MANEDIT
1070
     0
1002
}
1002
{
1000
NOSEL
1070
     0
1002
}
1002
{
1000
BEHIND
1070
     0
1002
}
1002
{
1000
OTHER
1070
     0
1002
}
1002
{
1000
REACTOR
1002
}
  0
ARC
  5
32A3
  8
ﾁｭｳｼﾝｾﾝ1
 10
713.91026056190935
 20
243.82490904920911
 30
0.0
 40
135.00000299999991
 50
128.41796315272001
 51
141.58200803716321
  0
LINE
  5
32A4
  8
ﾁｭｳｼﾝｾﾝ1
 10
629.4110075801118
 20
328.32421142636463
 30
0.0
 11
607.49070410022978
 21
350.24452922857108
 31
0.0
  0
ARC
  5
32A5
  8
ﾁｭｳｼﾝｾﾝ1
 10
713.91026056190935
 20
243.82490904920911
 30
0.0
 40
135.00000299999991
 50
308.41798022717722
 51
321.58202697535381
  0
LINE
  5
32A6
  8
ﾁｭｳｼﾝｾﾝ1
 10
798.40952624138947
 20
159.3256733697288
 30
0.0
 11
820.32983688242916
 21
137.40536272868911
 31
0.0
  0
TEXT
  5
3496
  8
AM_0
 10
571.46538236451943
 20
598.01101457912773
 30
0.0
 40
15.0
  1
VX01-800AF~VX01-K20AF
  0
ENDSEC
  0
EOF
