  0
SECTION
  2
HEADER
  9
$ACADVER
  1
AC1009
  9
$INSBASE
 10
0.0
 20
0.0
 30
0.0
  9
$EXTMIN
 10
233.54821240313839
 20
157.4572005721941
 30
-0.0000000000112498
  9
$EXTMAX
 10
671.71971307930005
 20
543.20320257242224
 30
0.0000000000002956
  9
$LIMMIN
 10
0.0
 20
0.0
  9
$LIMMAX
 10
853.5
 20
555.00000000000011
  9
$ORTHOMODE
 70
     0
  9
$REGENMODE
 70
     1
  9
$FILLMODE
 70
     1
  9
$QTEXTMODE
 70
     0
  9
$MIRRTEXT
 70
     1
  9
$DRAGMODE
 70
     2
  9
$LTSCALE
 40
3.0
  9
$OSMODE
 70
   551
  9
$ATTMODE
 70
     1
  9
$TEXTSIZE
 40
2.5
  9
$TRACEWID
 40
1.0
  9
$TEXTSTYLE
  7
STANDARD
  9
$CLAYER
  8
AM_0
  9
$CELTYPE
  6
BYLAYER
  9
$CECOLOR
 62
   256
  9
$DIMSCALE
 40
1.0
  9
$DIMASZ
 40
0.1
  9
$DIMEXO
 40
0.05
  9
$DIMDLI
 40
0.5
  9
$DIMRND
 40
0.0
  9
$DIMDLE
 40
0.0
  9
$DIMEXE
 40
0.1
  9
$DIMTP
 40
0.1
  9
$DIMTM
 40
0.1
  9
$DIMTXT
 40
0.12
  9
$DIMCEN
 40
0.0
  9
$DIMTSZ
 40
0.0
  9
$DIMTOL
 70
     0
  9
$DIMLIM
 70
     0
  9
$DIMTIH
 70
     1
  9
$DIMTOH
 70
     1
  9
$DIMSE1
 70
     0
  9
$DIMSE2
 70
     0
  9
$DIMTAD
 70
     0
  9
$DIMZIN
 70
     8
  9
$DIMBLK
  1

  9
$DIMASO
 70
     1
  9
$DIMSHO
 70
     1
  9
$DIMPOST
  1

  9
$DIMAPOST
  1
mm
  9
$DIMALT
 70
     0
  9
$DIMALTD
 70
     2
  9
$DIMALTF
 40
25.399999999999999
  9
$DIMLFAC
 40
1.0
  9
$DIMTOFL
 70
     0
  9
$DIMTVP
 40
0.0
  9
$DIMTIX
 70
     0
  9
$DIMSOXD
 70
     0
  9
$DIMSAH
 70
     0
  9
$DIMBLK1
  1

  9
$DIMBLK2
  1

  9
$DIMSTYLE
  2
AM_ANSI
  9
$DIMCLRD
 70
   256
  9
$DIMCLRE
 70
   256
  9
$DIMCLRT
 70
     2
  9
$DIMTFAC
 40
0.71
  9
$DIMGAP
 40
0.06
  9
$LUNITS
 70
     2
  9
$LUPREC
 70
     2
  9
$SKETCHINC
 40
1.0
  9
$FILLETRAD
 40
15.0
  9
$AUNITS
 70
     0
  9
$AUPREC
 70
     0
  9
$MENU
  1
.
  9
$ELEVATION
 40
0.0
  9
$PELEVATION
 40
0.0
  9
$THICKNESS
 40
0.0
  9
$LIMCHECK
 70
     0
  9
$BLIPMODE
 70
     0
  9
$CHAMFERA
 40
6.0
  9
$CHAMFERB
 40
3.0
  9
$SKPOLY
 70
     0
  9
$TDCREATE
 40
2452065.7146578361
  9
$TDUPDATE
 40
2458541.5352406022
  9
$TDINDWG
 40
0.0935265278
  9
$TDUSRTIMER
 40
0.0935259491
  9
$USRTIMER
 70
     1
  9
$ANGBASE
 50
0.0
  9
$ANGDIR
 70
     0
  9
$PDMODE
 70
     0
  9
$PDSIZE
 40
0.0
  9
$PLINEWID
 40
0.0
  9
$COORDS
 70
     1
  9
$SPLFRAME
 70
     0
  9
$SPLINETYPE
 70
     6
  9
$SPLINESEGS
 70
     8
  9
$ATTDIA
 70
     1
  9
$ATTREQ
 70
     1
  9
$HANDLING
 70
     1
  9
$HANDSEED
  5
3904
  9
$SURFTAB1
 70
     6
  9
$SURFTAB2
 70
     6
  9
$SURFTYPE
 70
     6
  9
$SURFU
 70
     6
  9
$SURFV
 70
     6
  9
$UCSNAME
  2

  9
$UCSORG
 10
0.0
 20
0.0
 30
0.0
  9
$UCSXDIR
 10
1.0
 20
0.0
 30
0.0
  9
$UCSYDIR
 10
0.0
 20
1.0
 30
0.0
  9
$PUCSNAME
  2

  9
$PUCSORG
 10
0.0
 20
0.0
 30
0.0
  9
$PUCSXDIR
 10
1.0
 20
0.0
 30
0.0
  9
$PUCSYDIR
 10
0.0
 20
1.0
 30
0.0
  9
$USERI1
 70
     0
  9
$USERI2
 70
     0
  9
$USERI3
 70
     0
  9
$USERI4
 70
     0
  9
$USERI5
 70
     0
  9
$USERR1
 40
0.0
  9
$USERR2
 40
0.0
  9
$USERR3
 40
0.0
  9
$USERR4
 40
0.0
  9
$USERR5
 40
0.0
  9
$WORLDVIEW
 70
     1
  9
$SHADEDGE
 70
     3
  9
$SHADEDIF
 70
    70
  9
$TILEMODE
 70
     1
  9
$MAXACTVP
 70
    64
  9
$PLIMCHECK
 70
     0
  9
$PEXTMIN
 10
1.0000000000000000E+020
 20
1.0000000000000000E+020
 30
1.0000000000000000E+020
  9
$PEXTMAX
 10
-1.0000000000000000E+020
 20
-1.0000000000000000E+020
 30
-1.0000000000000000E+020
  9
$PLIMMIN
 10
0.0
 20
0.0
  9
$PLIMMAX
 10
420.0
 20
297.0
  9
$UNITMODE
 70
     0
  9
$VISRETAIN
 70
     1
  9
$PLINEGEN
 70
     0
  9
$PSLTSCALE
 70
     1
  0
ENDSEC
  0
SECTION
  2
TABLES
  0
TABLE
  2
VPORT
 70
     1
  0
VPORT
  2
*ACTIVE
 70
     0
 10
0.0
 20
0.0
 11
1.0
 21
1.0
 12
452.63396274121919
 22
350.33020157230823
 13
0.0
 23
0.0
 14
7.5
 24
7.5
 15
30.0
 25
30.0
 16
0.0
 26
0.0
 36
1.0
 17
0.0
 27
0.0
 37
0.0
 40
388.3941438903899
 41
1.7571592210767459
 42
50.0
 43
0.0
 44
0.0
 50
0.0
 51
0.0
 71
     0
 72
   100
 73
     1
 74
     3
 75
     0
 76
     0
 77
     0
 78
     0
  0
ENDTAB
  0
TABLE
  2
LTYPE
 70
    26
  0
LTYPE
  2
CONTINUOUS
 70
     0
  3
Solid line
 72
    65
 73
     0
 40
0.0
  0
LTYPE
  2
AM_ISO02W050
 70
     0
  3
__ __ __ __ __ __ __ __ __ __ __ __ __ __ __
 72
    65
 73
     2
 40
7.5
 49
6.0
 49
-1.5
  0
LTYPE
  2
AM_ISO08W050
 70
     0
  3
____ . ____ . ____ . ____ . ____ . ____ . ____
 72
    65
 73
     4
 40
18.0
 49
12.0
 49
-1.5
 49
3.0
 49
-1.5
  0
LTYPE
  2
AM_ISO09W050
 70
     0
  3
_____ . . _____ . . _____ . . ____ .. ____
 72
    65
 73
     6
 40
22.5
 49
12.0
 49
-1.5
 49
3.0
 49
-1.5
 49
3.0
 49
-1.5
  0
LTYPE
  2
AMCONSTR
 70
     0
  3
_______________________
 72
    65
 73
     2
 40
9999.0
 49
9999.0
 49
0.0
  0
LTYPE
  2
AM_ISO08W050X2
 70
     0
  3
__ . __ . __ . __ . __ . __
 72
    65
 73
     4
 40
9.0
 49
6.0
 49
-0.75
 49
1.5
 49
-0.75
  0
LTYPE
  2
AM_ISO02W050X2
 70
     0
  3
 _ _ _ _ _ _ _ _ _ _ _ _
 72
    65
 73
     2
 40
3.75
 49
3.0
 49
-0.75
  0
LTYPE
  2
AMZIGZAG
 70
     0
  3
/\/-/\/-/\/-/\/-/\/-/\/
 72
    65
 73
     2
 40
11.000099999999991
 49
0.0001
 49
-11.0
  0
LTYPE
  2
ACISOWELD
 70
     0
  3
_ _ _ _ _
 72
    65
 73
     2
 40
2.0
 49
2.0
 49
-1.0
  0
LTYPE
  2
ACISOTGB
 70
     0
  3
__ . . __ . .
 72
    65
 73
     6
 40
9.0
 49
4.0
 49
-1.0
 49
1.0
 49
-1.0
 49
1.0
 49
-1.0
  0
LTYPE
  2
ACISOTGL
 70
     0
  3
_ _ _ _ _
 72
    65
 73
     2
 40
3.0
 49
2.0
 49
-1.0
  0
LTYPE
  2
CENTER
 70
     0
  3
__ . __
 72
    65
 73
     4
 40
7.0
 49
4.0
 49
-1.0
 49
1.0
 49
-1.0
  0
LTYPE
  2
PHANTOM2
 70
     0
  3
Phantom (.5x) ___ _ _ ___ _ _ ___ _ _ ___ _ _
 72
    65
 73
     6
 40
31.75
 49
15.875
 49
-3.174999999999998
 49
3.174999999999998
 49
-3.174999999999998
 49
3.174999999999998
 49
-3.174999999999998
  0
LTYPE
  2
ACANSTGBM
 70
     0
  3
__ . . __ . .
 72
    65
 73
     6
 40
9.0
 49
4.0
 49
-1.0
 49
1.0
 49
-1.0
 49
1.0
 49
-1.0
  0
LTYPE
  2
ACANSTGLM
 70
     0
  3
_ _ _ _ _
 72
    65
 73
     2
 40
3.0
 49
2.0
 49
-1.0
  0
LTYPE
  2
GEN7
 70
     0
  3
____ . ____ . ____ . ____ . ____ . ____ . ____
 72
    65
 73
     4
 40
14.25
 49
9.75
 49
-1.5
 49
1.5
 49
-1.5
  0
LTYPE
  2
GEN7A
 70
     0
  3
__ . __ . __
 72
    65
 73
     4
 40
7.375
 49
4.75
 49
-0.875
 49
0.875
 49
-0.875
  0
LTYPE
  2
ACJISTGB
 70
     0
  3
__ . . __ . .
 72
    65
 73
     6
 40
9.0
 49
4.0
 49
-1.0
 49
1.0
 49
-1.0
 49
1.0
 49
-1.0
  0
LTYPE
  2
ACJISTGL
 70
     0
  3
_ _ _ _ _
 72
    65
 73
     2
 40
3.0
 49
2.0
 49
-1.0
  0
LTYPE
  2
HIDDEN
 70
     0
  3
Hidden __ __ __ __ __ __ __ __ __ __ __ __ __ _
 72
    65
 73
     2
 40
0.375
 49
0.25
 49
-0.125
  0
LTYPE
  2
CENTER2
 70
     0
  3
Center (.5x) ___ _ ___ _ ___ _ ___ _ ___ _ ___
 72
    65
 73
     4
 40
1.125
 49
0.75
 49
-0.125
 49
0.125
 49
-0.125
  0
LTYPE
  2
HIDDEN2
 70
     0
  3
Hidden (.5x) _ _ _ _ _ _ _ _ _ _ _ _ _ _ _ _ _
 72
    65
 73
     2
 40
0.1875
 49
0.125
 49
-0.0625
  0
LTYPE
  2
AMZIGZAG2
 70
     0
  3
/\/-/\/-/\/-/\/-/\/-/\/
 72
    65
 73
     2
 40
0.4401
 49
0.0001
 49
-0.4400000000000003
  0
LTYPE
  2
ACANSTGB
 70
     0
  3
__ . . __ . .
 72
    65
 73
     6
 40
0.35433070866
 49
0.15748031496
 49
-0.03937007874
 49
0.03937007874
 49
-0.03937007874
 49
0.03937007874
 49
-0.03937007874
  0
LTYPE
  2
ACANSTGL
 70
     0
  3
_ _ _ _ _
 72
    65
 73
     2
 40
0.11811023622
 49
0.07874015748
 49
-0.03937007874
  0
ENDTAB
  0
TABLE
  2
LAYER
 70
     6
  0
LAYER
  2
0
 70
     0
 62
     7
  6
CONTINUOUS
  0
LAYER
  2
AM_0
 70
     0
 62
     7
  6
CONTINUOUS
  0
LAYER
  2
AM_5
 70
     0
 62
     2
  6
CONTINUOUS
  0
LAYER
  2
DEFPOINTS
 70
     0
 62
     7
  6
CONTINUOUS
  0
LAYER
  2
ﾁｭｳｼﾝｾﾝ
 70
     0
 62
     1
  6
GEN7
  0
LAYER
  2
ﾁｭｳｼﾝｾﾝ1
 70
     0
 62
     1
  6
GEN7A
  0
ENDTAB
  0
TABLE
  2
STYLE
 70
     9
  0
STYLE
  2
STANDARD
 70
     0
 40
0.0
 41
0.8299999999999999
 50
0.0
 71
     0
 42
2.5
  3
txt.shx
  4
bigfont.shx
  0
STYLE
  2
ANNOTATIVE
 70
     0
 40
0.0
 41
1.0
 50
0.0
 71
     0
 42
0.2
  3
txt
  4

  0
STYLE
  2

 70
     1
 40
0.0
 41
1.0
 50
0.0
 71
     0
 42
2.5
  3
ltypeshp.shx
  4

  0
STYLE
  2
ACISOTS
 70
     0
 40
1.0
 41
1.0
 50
0.0
 71
     0
 42
2.5
  3
isocp.shx
  4
extfont.shx
  0
STYLE
  2
ACISOGDT
 70
     0
 40
0.0
 41
1.0
 50
0.0
 71
     0
 42
2.5
  3
amgdt.shx
  4

  0
STYLE
  2
ACANSTS
 70
     0
 40
1.0
 41
1.0
 50
0.0
 71
     0
 42
2.5
  3
romans.shx
  4
bigfont.shx
  0
STYLE
  2
ACANSGDT
 70
     0
 40
0.0
 41
1.0
 50
0.0
 71
     0
 42
2.5
  3
amgdt.shx
  4

  0
STYLE
  2
ACJISTS
 70
     0
 40
1.0
 41
1.0
 50
0.0
 71
     0
 42
2.5
  3
isocp.shx
  4
bigfont.shx
  0
STYLE
  2
ACJISGDT
 70
     0
 40
0.0
 41
1.0
 50
0.0
 71
     0
 42
2.5
  3
amgdt.shx
  4

  0
ENDTAB
  0
TABLE
  2
VIEW
 70
     6
  0
VIEW
  2
AM_VIEW1
 70
     0
 40
277.49999999999989
 10
249.64779005524841
 20
416.24999999999989
 41
499.2955801104971
 11
0.0
 21
0.0
 31
1.0
 12
0.0
 22
0.0
 32
0.0
 42
50.0
 43
0.0
 44
0.0
 50
0.0
 71
     0
  0
VIEW
  2
AM_VIEW2
 70
     0
 40
277.49999999999989
 10
603.85220994475117
 20
416.24999999999989
 41
499.2955801104971
 11
0.0
 21
0.0
 31
1.0
 12
0.0
 22
0.0
 32
0.0
 42
50.0
 43
0.0
 44
0.0
 50
0.0
 71
     0
  0
VIEW
  2
AM_VIEW3
 70
     0
 40
277.49999999999989
 10
249.64779005524841
 20
138.74999999999969
 41
499.2955801104971
 11
0.0
 21
0.0
 31
1.0
 12
0.0
 22
0.0
 32
0.0
 42
50.0
 43
0.0
 44
0.0
 50
0.0
 71
     0
  0
VIEW
  2
AM_VIEW4
 70
     0
 40
277.49999999999989
 10
603.85220994475117
 20
138.74999999999969
 41
499.2955801104971
 11
0.0
 21
0.0
 31
1.0
 12
0.0
 22
0.0
 32
0.0
 42
50.0
 43
0.0
 44
0.0
 50
0.0
 71
     0
  0
VIEW
  2
AM_VIEW5
 70
     0
 40
277.49999999999989
 10
426.75
 20
277.49999999999989
 41
499.2955801104971
 11
0.0
 21
0.0
 31
1.0
 12
0.0
 22
0.0
 32
0.0
 42
50.0
 43
0.0
 44
0.0
 50
0.0
 71
     0
  0
VIEW
  2
AM_VIEW6
 70
     0
 40
554.99445000000014
 10
426.75
 20
277.49999999999989
 41
998.5811743093924
 11
0.0
 21
0.0
 31
1.0
 12
0.0
 22
0.0
 32
0.0
 42
50.0
 43
0.0
 44
0.0
 50
0.0
 71
     0
  0
ENDTAB
  0
TABLE
  2
UCS
 70
     0
  0
ENDTAB
  0
TABLE
  2
APPID
 70
    95
  0
APPID
  2
ACAD
 70
     0
  0
APPID
  2
ACADANNOTATIVE
 70
     0
  0
APPID
  2
MCAD_NO_VIS
 70
     0
  0
APPID
  2
ACAD_TEMP_GRAPHIC
 70
     0
  0
APPID
  2
ACATTRIBSERVICES
 70
     0
  0
APPID
  2
GENIUS_GENREC_14
 70
     0
  0
APPID
  2
GENIUS_GENOBJ-N-REC_13
 70
     0
  0
APPID
  2
GENIUS_GENODEF_13
 70
     0
  0
APPID
  2
GENIUS_GENOLIS_13
 70
     0
  0
APPID
  2
GENIUS_GENOBJ-N-TIT_13
 70
     0
  0
APPID
  2
GENIUS_GENOENT_13
 70
     0
  0
APPID
  2
GENIUS_GENTITLE_13
 70
     0
  0
APPID
  2
GENIUS_GENOREF_13
 70
     0
  0
APPID
  2
GENIUS_GENSCREG_15
 70
     0
  0
APPID
  2
GENIUS_GENOBJ-N-SDF_13
 70
     0
  0
APPID
  2
GENIUS_GENFIL_13
 70
     0
  0
APPID
  2
GENIUS_GENOBJ-N-CHA_13
 70
     0
  0
APPID
  2
GENIUS_GENDTOL_13
 70
     0
  0
APPID
  2
GENIUS_GENOBJ-N-FIL_13
 70
     0
  0
APPID
  2
AD_DRAW
 70
     0
  0
APPID
  2
DESIGNERASSEMBLIES
 70
     0
  0
APPID
  2
ASURF_PCURVE_APPNAME
 70
     0
  0
APPID
  2
GENIUS_GE3SECT_13
 70
     0
  0
APPID
  2
GENIUS_GENCFG_13
 70
     0
  0
APPID
  2
GENIUS_GE3CFG0_13
 70
     0
  0
APPID
  2
GENIUS_GENCFG0_13
 70
     0
  0
APPID
  2
GENIUS_GENCFG1_13
 70
     0
  0
APPID
  2
GENIUS_GENCFG2_13
 70
     0
  0
APPID
  2
GENIUS_GENCFG3_13
 70
     0
  0
APPID
  2
GENIUS_GENCFG4_13
 70
     0
  0
APPID
  2
GENIUS_GEVCFG0_13
 70
     0
  0
APPID
  2
GENIUS_GENHINW_13
 70
     0
  0
APPID
  2
GENIUS_FIRSTVISTXT_14
 70
     0
  0
APPID
  2
GENIUS_GENOBJ-N-LEADER_13
 70
     0
  0
APPID
  2
GEV_VCCNULL_SWITCH_OFF
 70
     0
  0
APPID
  2
GENIUS_GEFCFG0_13
 70
     0
  0
APPID
  2
GENIUS_GENZVEED_13
 70
     0
  0
APPID
  2
GENIUS_GENSCREG_13
 70
     0
  0
APPID
  2
GENIUS_DUMCFG0_13
 70
     0
  0
APPID
  2
GEVID936201362
 70
     0
  0
APPID
  2
GEVDC
 70
     0
  0
APPID
  2
GEVCON
 70
     0
  0
APPID
  2
VCC
 70
     0
  0
APPID
  2
GEVPT
 70
     0
  0
APPID
  2
GEVIT
 70
     0
  0
APPID
  2
GENBH
 70
     0
  0
APPID
  2
GEVMK
 70
     0
  0
APPID
  2
GENIUS_GENBH_13
 70
     0
  0
APPID
  2
GENIUS_GENOBJ-NBEHI-BHF_13
 70
     0
  0
APPID
  2
GENIUS_GENOBJ-NBEHI-BHB_13
 70
     0
  0
APPID
  2
GENIUS_GENOBJ-F-DESC_13
 70
     0
  0
APPID
  2
GENIUS_GEFDESC_14
 70
     0
  0
APPID
  2
GENIUS_GENOBJ-F-PART_13
 70
     0
  0
APPID
  2
GENIUS_GEFSTDP_13
 70
     0
  0
APPID
  2
GENIUS_GEFPARTINS_13
 70
     0
  0
APPID
  2
GENIUS_GENTRA_14
 70
     0
  0
APPID
  2
GENIUS_GENINF13_13
 70
     0
  0
APPID
  2
GENIUS_GENOBJ-N-INFOPT_13
 70
     0
  0
APPID
  2
GENIUS_GENOBJ-N-RSSYM_13
 70
     0
  0
APPID
  2
GENIUS_GENSYMENT_13
 70
     0
  0
APPID
  2
GENIUS_GENSCSYM_13
 70
     0
  0
APPID
  2
GENIUS_GEFINFNAM_13
 70
     0
  0
APPID
  2
GENIUS_GENOBJ-N-CEN_13
 70
     0
  0
APPID
  2
GENIUS_GENOBJ-N-CRS_13
 70
     0
  0
APPID
  2
GENIUS_GENOBJ-N-CRC_13
 70
     0
  0
APPID
  2
GENIUS_GENCRC_14
 70
     0
  0
APPID
  2
GEVID942827039
 70
     0
  0
APPID
  2
GEVID942827040
 70
     0
  0
APPID
  2
GEVID942827041
 70
     0
  0
APPID
  2
GENIUS_GENOBJ-F-SCPASSM_13
 70
     0
  0
APPID
  2
GENIUS_GENDIMSH_14
 70
     0
  0
APPID
  2
GEVID942827042
 70
     0
  0
APPID
  2
GEVID946020473
 70
     0
  0
APPID
  2
GEVID946020474
 70
     0
  0
APPID
  2
GEVID946020475
 70
     0
  0
APPID
  2
GENIUS_GENOBJ-N-HTC_13
 70
     0
  0
APPID
  2
GENIUS_GENHATCH_13
 70
     0
  0
APPID
  2
GEVID948854295
 70
     0
  0
APPID
  2
GEVID939402019
 70
     0
  0
APPID
  2
GEVID952919491
 70
     0
  0
APPID
  2
GEVID952919492
 70
     0
  0
APPID
  2
GENIUS_GEFWELD_13
 70
     0
  0
APPID
  2
GENIUS_GENOBJ-F-WELS_13
 70
     0
  0
APPID
  2
GEVID952919493
 70
     0
  0
APPID
  2
GENIUS_GENOBJ-N-RSBK_13
 70
     0
  0
APPID
  2
GENIUS_GENOBJ-N-LIB_13
 70
     0
  0
APPID
  2
GENIUS_GENSCALE_13
 70
     0
  0
APPID
  2
GEVID986376691
 70
     0
  0
APPID
  2
DCO15
 70
     0
  0
APPID
  2
ACAD_DSTYLE_DIMBREAK
 70
     0
  0
APPID
  2
ACAD_DSTYLE_DIMJAG
 70
     0
  0
APPID
  2
ACAD_NAV_VCDISPLAY
 70
     0
  0
APPID
  2
ACADANNOPO
 70
     0
  0
APPID
  2
ACAD_EXEMPT_FROM_CAD_STANDARDS
 70
     0
  0
APPID
  2
ACAD_MLEADERVER
 70
     0
  0
ENDTAB
  0
TABLE
  2
DIMSTYLE
 70
    22
  0
DIMSTYLE
  2
STANDARD
 70
     0
  3

  4

  5

  6

  7

 40
1.0
 41
0.18
 42
0.0625
 43
0.38
 44
0.18
 45
0.0
 46
0.0
 47
0.0
 48
0.0
140
0.18
141
0.09
142
0.0
143
25.399999999999999
144
1.0
145
0.0
146
1.0
147
0.09
 71
     0
 72
     0
 73
     1
 74
     1
 75
     0
 76
     0
 77
     0
 78
     0
170
     0
171
     2
172
     0
173
     0
174
     0
175
     0
176
     0
177
     0
178
     0
  0
DIMSTYLE
  2
ANNOTATIVE
 70
     0
  3

  4

  5

  6

  7

 40
1.0
 41
0.18
 42
0.0625
 43
0.38
 44
0.18
 45
0.0
 46
0.0
 47
0.0
 48
0.0
140
0.18
141
0.09
142
0.0
143
25.399999999999999
144
1.0
145
0.0
146
1.0
147
0.09
 71
     0
 72
     0
 73
     1
 74
     1
 75
     0
 76
     0
 77
     0
 78
     0
170
     0
171
     2
172
     0
173
     0
174
     0
175
     0
176
     0
177
     0
178
     0
  0
DIMSTYLE
  2
AM_ISO
 70
     0
  3

  4
"
  5

  6

  7

 40
1.0
 41
2.5
 42
1.0
 43
8.0
 44
0.6
 45
0.0
 46
0.0
 47
0.1
 48
0.1
140
2.5
141
0.0
142
0.0
143
0.0393701
144
1.0
145
0.0
146
0.71
147
0.8
 71
     0
 72
     0
 73
     0
 74
     0
 75
     0
 76
     0
 77
     1
 78
     8
170
     0
171
     2
172
     1
173
     0
174
     0
175
     0
176
   256
177
   256
178
     4
  0
DIMSTYLE
  2
AM_ISO$3
 70
     0
  3

  4
"
  5

  6

  7

 40
1.0
 41
2.5
 42
1.0
 43
8.0
 44
0.6
 45
0.0
 46
0.0
 47
0.1
 48
0.1
140
2.5
141
0.0
142
0.0
143
0.0393701
144
1.0
145
0.0
146
0.71
147
0.8
 71
     0
 72
     0
 73
     0
 74
     1
 75
     0
 76
     0
 77
     1
 78
     8
170
     0
171
     2
172
     0
173
     0
174
     0
175
     0
176
   256
177
   256
178
     4
  0
DIMSTYLE
  2
AM_ISO$4
 70
     0
  3

  4
"
  5

  6

  7

 40
1.0
 41
2.5
 42
1.0
 43
8.0
 44
0.6
 45
0.0
 46
0.0
 47
0.1
 48
0.1
140
2.5
141
0.0
142
0.0
143
0.0393701
144
1.0
145
0.0
146
0.71
147
0.8
 71
     0
 72
     0
 73
     0
 74
     1
 75
     0
 76
     0
 77
     1
 78
     8
170
     0
171
     2
172
     0
173
     0
174
     0
175
     0
176
   256
177
   256
178
     4
  0
DIMSTYLE
  2
AM_ISO$6
 70
     0
  3

  4
"
  5

  6

  7

 40
1.0
 41
2.5
 42
1.0
 43
8.0
 44
0.6
 45
0.0
 46
0.0
 47
0.1
 48
0.1
140
2.5
141
0.0
142
0.0
143
0.0393701
144
1.0
145
0.0
146
0.71
147
0.8
 71
     0
 72
     0
 73
     0
 74
     0
 75
     0
 76
     0
 77
     0
 78
     8
170
     0
171
     2
172
     1
173
     0
174
     0
175
     0
176
   256
177
   256
178
     4
  0
DIMSTYLE
  2
AM_ISO$7
 70
     0
  3

  4
"
  5

  6

  7

 40
1.0
 41
2.5
 42
1.0
 43
8.0
 44
0.6
 45
0.0
 46
0.0
 47
0.1
 48
0.1
140
2.5
141
0.0
142
0.0
143
0.0393701
144
1.0
145
0.0
146
0.71
147
0.8
 71
     0
 72
     0
 73
     0
 74
     0
 75
     0
 76
     0
 77
     1
 78
     8
170
     0
171
     2
172
     1
173
     0
174
     0
175
     0
176
   256
177
   256
178
     4
  0
DIMSTYLE
  2
AM_ISO$SF
 70
     0
  3

  4
"
  5

  6

  7

 40
1.0
 41
2.5
 42
1.0
 43
10.0
 44
1.0
 45
0.0
 46
0.0
 47
0.1
 48
0.1
140
3.5
141
0.0
142
0.0
143
0.0393701
144
1.0
145
0.0
146
0.71
147
1.5
 71
     0
 72
     0
 73
     0
 74
     0
 75
     1
 76
     1
 77
     1
 78
     8
170
     0
171
     2
172
     1
173
     0
174
     0
175
     0
176
   256
177
   256
178
     2
  0
DIMSTYLE
  2
AM_ISO$SH
 70
     0
  3

  4
"
  5

  6

  7

 40
1.0
 41
2.5
 42
1.0
 43
10.0
 44
1.0
 45
0.0
 46
0.0
 47
0.1
 48
0.1
140
3.5
141
0.0
142
0.0
143
0.0393701
144
2.0
145
0.0
146
0.71
147
1.5
 71
     0
 72
     0
 73
     0
 74
     0
 75
     1
 76
     1
 77
     1
 78
     8
170
     0
171
     2
172
     1
173
     1
174
     0
175
     0
176
   256
177
   256
178
     2
  0
DIMSTYLE
  2
AM_JIS
 70
     0
  3

  4
"
  5

  6

  7

 40
1.0
 41
2.5
 42
1.0
 43
7.0
 44
1.0
 45
0.0
 46
0.0
 47
0.1
 48
0.1000000001
140
2.5
141
0.0
142
0.0
143
0.0393701
144
1.0
145
0.0
146
0.71
147
1.0
 71
     0
 72
     0
 73
     0
 74
     0
 75
     0
 76
     0
 77
     3
 78
     8
170
     0
171
     2
172
     1
173
     0
174
     0
175
     0
176
   256
177
   256
178
     4
  0
DIMSTYLE
  2
AM_JIS$3
 70
     0
  3

  4
"
  5

  6

  7

 40
1.0
 41
2.5
 42
1.0
 43
7.0
 44
1.0
 45
0.0
 46
0.0
 47
0.1
 48
0.1000000001
140
2.5
141
0.0
142
0.0
143
0.0393701
144
1.0
145
0.0
146
0.71
147
1.0
 71
     0
 72
     0
 73
     0
 74
     1
 75
     0
 76
     0
 77
     3
 78
     8
170
     0
171
     2
172
     0
173
     0
174
     0
175
     0
176
   256
177
   256
178
     4
  0
DIMSTYLE
  2
AM_JIS$4
 70
     0
  3

  4
"
  5

  6

  7

 40
1.0
 41
2.5
 42
1.0
 43
7.0
 44
1.0
 45
0.0
 46
0.0
 47
0.1
 48
0.1000000001
140
2.5
141
0.0
142
0.0
143
0.0393701
144
1.0
145
0.0
146
0.71
147
1.0
 71
     0
 72
     0
 73
     0
 74
     0
 75
     0
 76
     0
 77
     3
 78
     8
170
     0
171
     2
172
     0
173
     0
174
     0
175
     0
176
   256
177
   256
178
     4
  0
DIMSTYLE
  2
AM_JIS$6
 70
     0
  3

  4
"
  5

  6

  7

 40
1.0
 41
2.5
 42
1.0
 43
7.0
 44
1.0
 45
0.0
 46
0.0
 47
0.1
 48
0.1000000001
140
2.5
141
0.0
142
0.0
143
0.0393701
144
1.0
145
0.0
146
0.71
147
1.0
 71
     0
 72
     0
 73
     0
 74
     0
 75
     0
 76
     0
 77
     0
 78
     8
170
     0
171
     2
172
     1
173
     0
174
     0
175
     0
176
   256
177
   256
178
     4
  0
DIMSTYLE
  2
AM_JIS$7
 70
     0
  3

  4
"
  5

  6

  7

 40
1.0
 41
2.5
 42
1.0
 43
7.0
 44
1.0
 45
0.0
 46
0.0
 47
0.1
 48
0.1000000001
140
2.5
141
0.0
142
0.0
143
0.0393701
144
1.0
145
0.0
146
0.71
147
1.0
 71
     0
 72
     0
 73
     0
 74
     0
 75
     0
 76
     0
 77
     3
 78
     8
170
     0
171
     2
172
     1
173
     0
174
     0
175
     0
176
   256
177
   256
178
     4
  0
DIMSTYLE
  2
AM_JIS$SF
 70
     0
  3

  4
"
  5

  6

  7

 40
1.0
 41
2.5
 42
1.0
 43
10.0
 44
1.0
 45
0.0
 46
0.0
 47
0.1
 48
0.1
140
3.5
141
0.0
142
0.0
143
0.0393701
144
1.0
145
0.0
146
0.71
147
1.5
 71
     0
 72
     0
 73
     0
 74
     0
 75
     1
 76
     1
 77
     3
 78
     8
170
     0
171
     2
172
     1
173
     0
174
     0
175
     0
176
   256
177
   256
178
     4
  0
DIMSTYLE
  2
AM_JIS$SH
 70
     0
  3

  4
"
  5

  6

  7

 40
1.0
 41
2.5
 42
1.0
 43
10.0
 44
1.0
 45
0.0
 46
0.0
 47
0.1
 48
0.1
140
3.5
141
0.0
142
0.0
143
0.0393701
144
1.0
145
0.0
146
0.71
147
1.5
 71
     0
 72
     0
 73
     0
 74
     0
 75
     1
 76
     0
 77
     3
 78
     8
170
     0
171
     2
172
     1
173
     1
174
     0
175
     0
176
   256
177
   256
178
     4
  0
DIMSTYLE
  2
AM_ANSI
 70
     0
  3

  4
mm
  5

  6

  7

 40
1.0
 41
0.1
 42
0.05
 43
0.5
 44
0.1
 45
0.0
 46
0.0
 47
0.1
 48
0.1
140
0.12
141
0.0
142
0.0
143
25.399999999999999
144
1.0
145
0.0
146
0.71
147
0.06
 71
     0
 72
     0
 73
     1
 74
     1
 75
     0
 76
     0
 77
     0
 78
     7
170
     0
171
     2
172
     0
173
     0
174
     0
175
     0
176
   256
177
   256
178
     2
  0
DIMSTYLE
  2
AM_ANSI$3
 70
     0
  3

  4
mm
  5

  6

  7

 40
1.0
 41
0.1
 42
0.05
 43
0.5
 44
0.1
 45
0.0
 46
0.0
 47
0.1
 48
0.1
140
0.12
141
0.0
142
0.0
143
25.399999999999999
144
1.0
145
0.0
146
0.71
147
0.06
 71
     0
 72
     0
 73
     1
 74
     1
 75
     0
 76
     0
 77
     0
 78
     7
170
     0
171
     2
172
     0
173
     0
174
     0
175
     0
176
   256
177
   256
178
     2
  0
DIMSTYLE
  2
AM_ANSI$4
 70
     0
  3

  4
mm
  5

  6

  7

 40
1.0
 41
0.1
 42
0.05
 43
0.5
 44
0.1
 45
0.0
 46
0.0
 47
0.1
 48
0.1
140
0.12
141
0.0
142
0.0
143
25.399999999999999
144
1.0
145
0.0
146
0.71
147
0.06
 71
     0
 72
     0
 73
     1
 74
     1
 75
     0
 76
     0
 77
     0
 78
     7
170
     0
171
     2
172
     0
173
     0
174
     0
175
     0
176
   256
177
   256
178
     2
  0
DIMSTYLE
  2
AM_ANSI$7
 70
     0
  3

  4
mm
  5

  6

  7

 40
1.0
 41
0.1
 42
0.05
 43
0.5
 44
0.1
 45
0.0
 46
0.0
 47
0.1
 48
0.1
140
0.24
141
0.0
142
0.0
143
25.399999999999999
144
1.0
145
0.0
146
0.71
147
0.06
 71
     0
 72
     0
 73
     1
 74
     1
 75
     0
 76
     0
 77
     0
 78
     7
170
     0
171
     2
172
     0
173
     0
174
     0
175
     0
176
   256
177
   256
178
     2
  0
DIMSTYLE
  2
AM_ANSI$SF
 70
     0
  3

  4
mm
  5

  6

  7

 40
1.0
 41
0.1
 42
0.05
 43
0.5
 44
0.1
 45
0.0
 46
0.0
 47
0.1
 48
0.1
140
0.12
141
0.0
142
0.0
143
25.399999999999999
144
1.0
145
0.0
146
0.71
147
0.06
 71
     0
 72
     0
 73
     1
 74
     1
 75
     1
 76
     1
 77
     0
 78
     7
170
     0
171
     2
172
     0
173
     0
174
     0
175
     0
176
   256
177
   256
178
     2
  0
DIMSTYLE
  2
AM_ANSI$SH
 70
     0
  3

  4
mm
  5

  6

  7

 40
1.0
 41
0.1
 42
0.05
 43
0.5
 44
0.1
 45
0.0
 46
0.0
 47
0.1
 48
0.1
140
0.12
141
0.0
142
0.0
143
25.399999999999999
144
1.0
145
0.0
146
0.71
147
0.06
 71
     0
 72
     0
 73
     1
 74
     1
 75
     1
 76
     1
 77
     0
 78
     7
170
     0
171
     2
172
     0
173
     1
174
     0
175
     0
176
   256
177
   256
178
     2
  0
ENDTAB
  0
ENDSEC
  0
SECTION
  2
BLOCKS
  0
BLOCK
  8
0
  2
$MODEL_SPACE
 70
     0
 10
0.0
 20
0.0
 30
0.0
  3
$MODEL_SPACE
  1

  0
ENDBLK
  5
377A
  8
0
  0
BLOCK
 67
     1
  8
0
  2
$PAPER_SPACE
 70
     0
 10
0.0
 20
0.0
 30
0.0
  3
$PAPER_SPACE
  1

  0
ENDBLK
  5
3776
 67
     1
  8
0
  0
BLOCK
  8
0
  2
GENAXEH
 70
     0
 10
0.0
 20
0.0
 30
0.0
  3
GENAXEH
  1

  0
LINE
  5
352B
  8
0
 10
-1.0
 20
0.0
 30
0.0
 11
1.0
 21
0.0
 31
0.0
  0
ENDBLK
  5
352C
  8
0
  0
BLOCK
  8
0
  2
_OPEN30
 70
     0
 10
0.0
 20
0.0
 30
0.0
  3
_OPEN30
  1

  0
LINE
  5
352F
  8
0
 62
     0
 10
-1.0
 20
0.26794919
 30
0.0
 11
0.0
 21
0.0
 31
0.0
  0
LINE
  5
3530
  8
0
 62
     0
 10
0.0
 20
0.0
 30
0.0
 11
-1.0
 21
-0.26794919
 31
0.0
  0
LINE
  5
3531
  8
0
 62
     0
 10
0.0
 20
0.0
 30
0.0
 11
-1.0
 21
0.0
 31
0.0
  0
ENDBLK
  5
3532
  8
0
  0
BLOCK
  8
0
  2
_NONE
 70
     0
 10
0.0
 20
0.0
 30
0.0
  3
_NONE
  1

  0
ENDBLK
  5
3535
  8
0
  0
BLOCK
  8
0
  2
_ACMFILLEDHALF
 70
     0
 10
0.0
 20
0.0
 30
0.0
  3
_ACMFILLEDHALF
  1

  0
TRACE
  5
3870
  8
AM_0
 62
     0
 10
-0.8
 20
0.0
 30
0.0
 11
-1.0
 21
0.166666666
 31
0.0
 12
0.0
 22
0.0
 32
0.0
 13
0.0
 23
0.0
 33
0.0
  0
LINE
  5
3871
  8
AM_0
 62
     0
 10
-1.0
 20
0.0
 30
0.0
 11
-0.8
 21
0.0
 31
0.0
  0
ENDBLK
  5
386F
  8
0
  0
ENDSEC
  0
SECTION
  2
ENTITIES
  0
LINE
  5
3536
  8
ﾁｭｳｼﾝｾﾝ
 10
233.5760542595834
 20
463.19582608648551
 30
0.0
 11
392.84628804937631
 21
463.19582608648551
 31
0.0
  0
ARC
  5
3537
  8
AM_0
 10
365.48242804937621
 20
463.19582608648551
 30
0.0
 40
3.0
 50
89.986013999999244
 51
270.01398999999992
  0
LINE
  5
3538
  8
AM_0
 10
365.48242804937621
 20
460.19582608648523
 30
0.0
 11
365.48242804937621
 21
466.19582608648562
 31
0.0
  0
LINE
  5
3539
  8
AM_0
 10
387.48245804937631
 20
453.69582608648562
 30
0.0
 11
387.48245804937631
 21
472.69582608648523
 31
0.0
  0
LINE
  5
353A
  8
AM_0
 10
359.48242804937621
 20
453.19582608648551
 30
0.0
 11
359.48242804937621
 21
473.19582608648551
 31
0.0
  0
LINE
  5
353B
  8
AM_0
 10
291.48248804937629
 20
405.30122608648549
 30
0.0
 11
291.48248804937629
 21
521.09038608648552
 31
0.0
  0
LINE
  5
353C
  8
AM_0
 10
297.48248804937589
 20
403.19582608648551
 30
0.0
 11
297.48248804937589
 21
523.19582608648545
 31
0.0
  0
LINE
  5
353D
  8
AM_0
 10
357.48245804937631
 20
482.2216360864856
 30
0.0
 11
357.48245804937631
 21
443.9513760864856
 31
0.0
  0
LINE
  5
353E
  8
AM_0
 10
347.48248804937617
 20
522.69582608648545
 30
0.0
 11
347.48248804937617
 21
403.69579608648559
 31
0.0
  0
LINE
  5
353F
  8
AM_0
 10
352.48245804937631
 20
538.19579608648564
 30
0.0
 11
352.48245804937631
 21
388.19579608648559
 31
0.0
  0
LINE
  5
3540
  8
AM_0
 10
356.48248804937629
 20
533.19582608648557
 30
0.0
 11
356.48248804937629
 21
393.19579608648547
 31
0.0
  0
LINE
  5
3541
  8
AM_0
 10
329.48248804937589
 20
527.42693608648563
 30
0.0
 11
329.48248804937589
 21
398.9821960864856
 31
0.0
  0
LINE
  5
3542
  8
AM_0
 10
273.48248804937612
 20
406.69582608648551
 30
0.0
 11
273.48248804937612
 21
519.69585608648549
 31
0.0
  0
LINE
  5
3543
  8
AM_0
 10
297.48248804937589
 20
407.66945608648552
 30
0.0
 11
329.48248804937589
 21
407.66945608648552
 31
0.0
  0
LINE
  5
3544
  8
AM_0
 10
329.48248804937589
 20
402.35783608648541
 30
0.0
 11
293.43011804937601
 21
403.3018960864855
 31
0.0
  0
LINE
  5
3545
  8
AM_0
 10
282.482488049376
 20
415.01152608648562
 30
0.0
 11
282.482488049376
 21
408.16286608648551
 31
0.0
  0
LINE
  5
3546
  8
AM_0
 10
273.48245804937608
 20
406.69582608648551
 30
0.0
 11
283.47677804937632
 21
406.4341060864856
 31
0.0
  0
LINE
  5
3547
  8
AM_0
 10
284.43011804937601
 20
406.16353608648558
 30
0.0
 11
290.11111804937627
 21
406.01475608648548
 31
0.0
  0
ARC
  5
3548
  8
AM_0
 10
284.48248804937617
 20
408.16286608648551
 30
0.0
 40
2.0
 50
180.00001000000091
 51
268.5000000000004
  0
ARC
  5
3549
  8
AM_0
 10
293.48248804937629
 20
405.30122608648549
 30
0.0
 40
2.0
 50
180.00001000000091
 51
268.5000000000004
  0
ARC
  5
354A
  8
AM_0
 10
290.071848049376
 20
404.51530608648551
 30
0.0
 40
1.5
 50
12.976653000001519
 51
88.499997000000747
  0
ARC
  5
354B
  8
AM_0
 10
280.48248804937612
 20
415.01152608648562
 30
0.0
 40
2.0
 50
0.0
 51
88.499997000000747
  0
LINE
  5
354C
  8
AM_0
 10
273.48248804937612
 20
417.19548608648557
 30
0.0
 11
289.53479804937621
 21
416.77516608648563
 31
0.0
  0
ARC
  5
354D
  8
AM_0
 10
289.48248804937629
 20
414.77583608648541
 30
0.0
 40
2.0
 50
0.0
 51
88.499997000000747
  0
LINE
  5
354E
  8
AM_0
 10
273.48248804937612
 20
431.25587608648561
 30
0.0
 11
289.48248804937629
 21
431.25587608648561
 31
0.0
  0
ARC
  5
354F
  8
AM_0
 10
289.48248804937629
 20
429.25587608648561
 30
0.0
 40
2.0
 50
0.0
 51
90.000003000000945
  0
ARC
  5
3550
  8
AM_0
 10
339.48245804937631
 20
390.78520608648557
 30
0.0
 40
3.0
 50
0.0
 51
87.999999999999659
  0
LINE
  5
3551
  8
AM_0
 10
342.48245804937619
 20
390.47639608648552
 30
0.0
 11
342.48245804937619
 21
422.75542608648561
 31
0.0
  0
ARC
  5
3552
  8
AM_0
 10
344.48248804937617
 20
390.47639608648552
 30
0.0
 40
2.0
 50
179.9999899999988
 51
268.00000999999861
  0
LINE
  5
3553
  8
AM_0
 10
344.41266804937618
 20
388.47762608648549
 30
0.0
 11
352.48248804937617
 21
388.19582608648551
 31
0.0
  0
LINE
  5
3554
  8
AM_0
 10
359.48242804937621
 20
453.69582608648562
 30
0.0
 11
387.48245804937631
 21
453.69582608648562
 31
0.0
  0
LINE
  5
3555
  8
AM_0
 10
365.48242804937621
 20
460.19582608648523
 30
0.0
 11
387.48245804937631
 21
460.19582608648523
 31
0.0
  0
ARC
  5
3556
  8
AM_0
 10
344.48248804937617
 20
422.75542608648561
 30
0.0
 40
2.0
 50
88.485353000001012
 51
180.00001000000091
  0
ARC
  5
3557
  8
AM_0
 10
334.48245804937631
 20
398.96468608648547
 30
0.0
 40
5.0
 50
179.9999899999988
 51
268.00000999999861
  0
LINE
  5
3558
  8
AM_0
 10
334.3080180493763
 20
393.96773608648562
 30
0.0
 11
339.5871980493763
 21
393.78337608648548
 31
0.0
  0
LINE
  5
3559
  8
AM_0
 10
352.48245804937631
 20
393.19579608648547
 30
0.0
 11
356.48248804937629
 21
393.19579608648547
 31
0.0
  0
ARC
  5
355A
  8
AM_0
 10
344.48248804937617
 20
403.69579608648559
 30
0.0
 40
3.0
 50
270.0
 51
0.0
  0
ARC
  5
355B
  8
AM_0
 10
355.48245804937631
 20
444.09709608648558
 30
0.0
 40
2.0
 50
315.0
 51
0.0
  0
LINE
  5
355C
  8
AM_0
 10
356.48245804937631
 20
442.26863608648551
 30
0.0
 11
356.89670804937617
 21
442.68288608648561
 31
0.0
  0
LINE
  5
355D
  8
AM_0
 10
357.48248804937617
 20
453.19582608648551
 30
0.0
 11
359.48242804937621
 21
453.19582608648551
 31
0.0
  0
LINE
  5
355E
  8
AM_0
 10
297.48248804937589
 20
518.72215608648548
 30
0.0
 11
329.48248804937589
 21
518.72215608648548
 31
0.0
  0
LINE
  5
355F
  8
AM_0
 10
293.43008804937631
 20
523.08968608648559
 30
0.0
 11
329.48248804937589
 21
524.03377608648555
 31
0.0
  0
ARC
  5
3560
  8
AM_0
 10
289.48248804937629
 20
497.1357660864856
 30
0.0
 40
2.0
 50
270.0
 51
0.0
  0
LINE
  5
3561
  8
AM_0
 10
273.48248804937612
 20
495.13576608648549
 30
0.0
 11
289.48248804937629
 21
495.13576608648549
 31
0.0
  0
LINE
  5
3562
  8
AM_0
 10
282.482488049376
 20
511.38008608648562
 30
0.0
 11
282.482488049376
 21
518.22874608648544
 31
0.0
  0
ARC
  5
3563
  8
AM_0
 10
280.48248804937612
 20
511.38008608648562
 30
0.0
 40
2.0
 50
271.4999999999992
 51
0.0
  0
LINE
  5
3564
  8
AM_0
 10
273.48245804937608
 20
509.19609608648551
 30
0.0
 11
289.53479804937621
 21
509.6164460864851
 31
0.0
  0
ARC
  5
3565
  8
AM_0
 10
289.48248804937629
 20
511.61577608648548
 30
0.0
 40
2.0
 50
271.4999999999992
 51
0.0
  0
LINE
  5
3566
  8
AM_0
 10
273.48245804937608
 20
519.69579608648564
 30
0.0
 11
283.47677804937632
 21
519.95750608648564
 31
0.0
  0
ARC
  5
3567
  8
AM_0
 10
293.48248804937629
 20
521.09038608648552
 30
0.0
 40
2.0
 50
91.500001000001546
 51
180.00001000000091
  0
LINE
  5
3568
  8
AM_0
 10
284.43011804937601
 20
520.22804608648562
 30
0.0
 11
290.11111804937627
 21
520.37682608648561
 31
0.0
  0
ARC
  5
3569
  8
AM_0
 10
284.48248804937617
 20
518.22874608648544
 30
0.0
 40
2.0
 50
91.500001000001546
 51
180.00001000000091
  0
ARC
  5
356A
  8
AM_0
 10
290.071848049376
 20
521.87633608648559
 30
0.0
 40
1.5
 50
271.4999999999992
 51
347.02334999999908
  0
ARC
  5
356B
  8
AM_0
 10
334.48245804937631
 20
527.42693608648563
 30
0.0
 40
5.0
 50
91.999998000000545
 51
180.00001000000091
  0
LINE
  5
356C
  8
AM_0
 10
342.48245804937619
 20
535.91521608648554
 30
0.0
 11
342.48245804937619
 21
503.63618608648562
 31
0.0
  0
LINE
  5
356D
  8
AM_0
 10
359.48242804937621
 20
472.69582608648523
 30
0.0
 11
387.48245804937631
 21
472.69582608648523
 31
0.0
  0
LINE
  5
356E
  8
AM_0
 10
365.48242804937621
 20
466.19582608648562
 30
0.0
 11
387.48245804937631
 21
466.19582608648562
 31
0.0
  0
LINE
  5
356F
  8
AM_0
 10
357.48248804937617
 20
473.19582608648551
 30
0.0
 11
359.48242804937621
 21
473.19582608648551
 31
0.0
  0
ARC
  5
3570
  8
AM_0
 10
355.48245804937631
 20
482.2945160864856
 30
0.0
 40
2.0
 50
0.0
 51
45.000000999999187
  0
LINE
  5
3571
  8
AM_0
 10
356.48245804937631
 20
484.12297608648538
 30
0.0
 11
356.89667804937631
 21
483.70872608648551
 31
0.0
  0
ARC
  5
3572
  8
AM_0
 10
344.48248804937617
 20
503.63618608648562
 30
0.0
 40
2.0
 50
179.9999899999988
 51
271.51463999999902
  0
ARC
  5
3573
  8
AM_0
 10
344.48248804937617
 20
522.69582608648545
 30
0.0
 40
3.0
 50
0.0
 51
90.000003000000945
  0
ARC
  5
3574
  8
AM_0
 10
344.48248804937617
 20
535.91521608648554
 30
0.0
 40
2.0
 50
91.999998000000545
 51
180.00001000000091
  0
ARC
  5
3575
  8
AM_0
 10
339.48245804937631
 20
535.60640608648555
 30
0.0
 40
3.0
 50
272.0000000000004
 51
0.0
  0
LINE
  5
3576
  8
AM_0
 10
334.3080180493763
 20
532.42387608648539
 30
0.0
 11
339.5871980493763
 21
532.60823608648525
 31
0.0
  0
LINE
  5
3577
  8
AM_0
 10
352.48245804937631
 20
533.19582608648557
 30
0.0
 11
356.48248804937629
 21
533.19582608648557
 31
0.0
  0
LINE
  5
3578
  8
AM_0
 10
344.41266804937618
 20
537.91402608648559
 30
0.0
 11
352.48248804937617
 21
538.19582608648545
 31
0.0
  0
LINE
  5
357A
  8
ﾁｭｳｼﾝｾﾝ
 10
286.3151493540941
 20
259.3985088752317
 30
0.0
 11
389.21594804937632
 21
259.3985088752317
 31
0.0
  0
LINE
  5
357B
  8
AM_0
 10
344.4126880493763
 20
189.77648287523169
 30
0.0
 11
352.48244804937622
 21
189.49468387523169
 31
0.0
  0
LINE
  5
357C
  8
AM_0
 10
344.4126580493762
 20
334.11668587523172
 30
0.0
 11
352.48244804937622
 21
334.39850587523171
 31
0.0
  0
LINE
  5
357D
  8
0
 10
252.48248804937609
 20
320.39851087523158
 30
0.0
 11
252.48248804937609
 21
164.39851087523169
 31
0.0
1001
GENIUS_GENOREF_13
1005
2DBD
  0
LINE
  5
357E
  8
0
 10
242.4824880493764
 20
162.39851087523141
 30
0.0
 11
242.4824880493764
 21
322.39851087523158
 31
0.0
1001
GENIUS_GENOREF_13
1005
2DBD
  0
LINE
  5
357F
  8
AM_0
 10
273.4824880493764
 20
186.3985068752317
 30
0.0
 11
273.4824880493764
 21
298.39851187523158
 31
0.0
  0
LINE
  5
3580
  8
AM_0
 10
297.4824880493764
 20
302.39851087523169
 30
0.0
 11
297.4824880493764
 21
177.5845878752317
 31
0.0
  0
LINE
  5
3581
  8
AM_0
 10
329.48243804937619
 20
323.62961587523171
 30
0.0
 11
329.48243804937619
 21
217.66320187523181
 31
0.0
  0
LINE
  5
3582
  8
AM_0
 10
347.4824380493763
 20
318.89852587523171
 30
0.0
 11
347.4824380493763
 21
204.7831968752316
 31
0.0
  0
LINE
  5
3583
  8
AM_0
 10
285.48248804937629
 20
286.39851187523158
 30
0.0
 11
285.48248804937629
 21
268.18122487523152
 31
0.0
  0
LINE
  5
3584
  8
AM_0
 10
291.4824880493764
 20
282.27213787523169
 30
0.0
 11
291.4824880493764
 21
242.39851087523141
 31
0.0
  0
ARC
  5
3585
  8
0
 10
254.48248804937609
 20
183.2337971662908
 30
0.0
 40
2.0
 50
92.000000000000341
 51
180.0
1001
GENIUS_GENOBJ-N-FIL_13
1002
{
1000
OWNER
1000
GEN
1002
}
1001
GENIUS_GENODEF_13
1002
{
1000
HIER
1070
     0
1002
}
1002
{
1000
MANEDIT
1070
     0
1002
}
1002
{
1000
NOSEL
1070
     0
1002
}
1002
{
1000
BEHIND
1070
     0
1002
}
1002
{
1000
OTHER
1070
     0
1002
}
1002
{
1000
REACTOR
1002
}
  0
LINE
  5
3586
  8
AM_0
 10
285.48248804937629
 20
190.02808687523171
 30
0.0
 11
285.48248804937629
 21
179.36005687523141
 31
0.0
  0
ARC
  5
3587
  8
AM_0
 10
283.9824880493764
 20
184.62304087523171
 30
0.0
 40
1.500000029999996
 50
0.0
 51
88.499997000000747
  0
LINE
  5
3588
  8
AM_0
 10
333.48245804937619
 20
192.59728387523171
 30
0.0
 11
333.48245804937619
 21
176.39849287523171
 31
0.0
  0
LINE
  5
3589
  8
AM_0
 10
337.48241804937601
 20
188.50658587523171
 30
0.0
 11
337.48241804937601
 21
179.88157087523169
 31
0.0
  0
ARC
  5
358A
  8
AM_0
 10
327.96794804937628
 20
184.19408587523171
 30
0.0
 40
9.5144921999999994
 50
342.41196000000002
 51
17.588032999999289
  0
ARC
  5
358B
  8
AM_0
 10
286.9824880493764
 20
179.36005687523141
 30
0.0
 40
1.500000029999996
 50
179.9999899999988
 51
268.50000999999872
  0
ARC
  5
358C
  8
0
 10
250.48248804937609
 20
164.39851087523169
 30
0.0
 40
2.0
 50
270.0
 51
0.0
1001
GENIUS_GENOBJ-N-FIL_13
1002
{
1000
OWNER
1000
GEN
1002
}
1001
GENIUS_GENODEF_13
1002
{
1000
HIER
1070
     0
1002
}
1002
{
1000
MANEDIT
1070
     0
1002
}
1002
{
1000
NOSEL
1070
     0
1002
}
1002
{
1000
BEHIND
1070
     0
1002
}
1002
{
1000
OTHER
1070
     0
1002
}
1002
{
1000
REACTOR
1002
}
  0
LINE
  5
358D
  8
0
 10
242.4824880493764
 20
162.39851087523141
 30
0.0
 11
250.48248804937609
 21
162.39851087523141
 31
0.0
  0
LINE
  5
358E
  8
AM_0
 10
297.4824880493764
 20
177.5845878752317
 30
0.0
 11
333.48248804937629
 21
176.32744687523169
 31
0.0
  0
LINE
  5
358F
  8
AM_0
 10
286.94315804937628
 20
177.86057587523169
 30
0.0
 11
297.48242804937632
 21
177.5846028752317
 31
0.0
  0
LINE
  5
3590
  8
AM_0
 10
337.0376380493762
 20
178.44408487523171
 30
0.0
 11
333.48245804937619
 21
178.44408487523171
 31
0.0
  0
LINE
  5
3591
  8
AM_0
 10
337.0376380493762
 20
181.3190868752317
 30
0.0
 11
333.48245804937619
 21
181.3190868752317
 31
0.0
  0
ARC
  5
3592
  8
AM_0
 10
334.93703804937638
 20
179.88157087523169
 30
0.0
 40
2.5454064299999981
 50
325.61556999999789
 51
34.384438999999539
  0
LINE
  5
3593
  8
AM_0
 10
273.4824880493764
 20
196.39849387523171
 30
0.0
 11
291.4824880493764
 21
196.39849387523171
 31
0.0
  0
ARC
  5
3594
  8
AM_0
 10
283.48241804937601
 20
190.02808687523171
 30
0.0
 40
2.00000007
 50
0.0
 51
90.000003000000945
  0
LINE
  5
3595
  8
AM_0
 10
273.4824880493764
 20
210.46106887523169
 30
0.0
 11
291.4824880493764
 21
210.46106887523169
 31
0.0
  0
LINE
  5
3596
  8
ﾁｭｳｼﾝｾﾝ
 10
233.576054259583
 20
242.39851087523141
 30
0.0
 11
294.18625007158772
 21
242.39851087523141
 31
0.0
  0
LINE
  5
3597
  8
AM_0
 10
285.48248804937629
 20
268.18122487523152
 30
0.0
 11
291.4824880493764
 21
268.18122487523152
 31
0.0
  0
LINE
  5
3598
  8
0
 10
254.41268905597121
 20
185.232578820329
 30
0.0
 11
273.4824880493764
 21
185.89851087523169
 31
0.0
  0
LINE
  5
3599
  8
AM_0
 10
273.4824880493764
 20
196.39849387523171
 30
0.0
 11
252.48248804937609
 21
196.39849387523171
 31
0.0
  0
LINE
  5
359A
  8
AM_0
 10
273.48239804937629
 20
186.3985068752317
 30
0.0
 11
284.0216680493761
 21
186.12252187523171
 31
0.0
  0
LINE
  5
359B
  8
AM_0
 10
273.4824880493764
 20
210.4610688752318
 30
0.0
 11
252.48248804937609
 21
210.4610688752318
 31
0.0
  0
LINE
  5
359C
  8
AM_0
 10
291.4824880493764
 20
191.60662387523141
 30
0.0
 11
291.4824880493764
 21
242.39851087523141
 31
0.0
  0
LINE
  5
359D
  8
AM_0
 10
297.4824880493764
 20
189.61786987523169
 30
0.0
 11
333.48245804937619
 21
189.61786987523169
 31
0.0
  0
LINE
  5
359E
  8
AM_0
 10
291.4824880493764
 20
189.60662287523141
 30
0.0
 11
297.4824880493764
 21
189.60662287523141
 31
0.0
  0
ARC
  5
359F
  8
AM_0
 10
289.48241804937618
 20
191.60662387523141
 30
0.0
 40
2.00000007
 50
270.0
 51
0.0
  0
LINE
  5
35A0
  8
AM_0
 10
342.48245804937619
 20
191.7752778752315
 30
0.0
 11
342.48245804937619
 21
218.8635048752316
 31
0.0
  0
LINE
  5
35A1
  8
AM_0
 10
334.45625804937589
 20
193.3217118752317
 30
0.0
 11
342.48245804937619
 21
193.5318858752315
 31
0.0
  0
LINE
  5
35A2
  8
AM_0
 10
337.0376380493762
 20
189.94408687523131
 30
0.0
 11
333.48245804937619
 21
189.94408687523131
 31
0.0
  0
LINE
  5
35A3
  8
AM_0
 10
337.0376380493762
 20
187.06910287523141
 30
0.0
 11
333.48245804937619
 21
187.06910287523141
 31
0.0
  0
ARC
  5
35A4
  8
AM_0
 10
334.48241804937601
 20
192.32207587523169
 30
0.0
 40
1.0000000199999981
 50
91.500001000001546
 51
180.00001000000091
  0
ARC
  5
35A5
  8
AM_0
 10
344.4824380493763
 20
191.7752778752315
 30
0.0
 40
2.00000007
 50
179.9999899999988
 51
268.00000999999861
  0
ARC
  5
35A6
  8
AM_0
 10
334.93703804937638
 20
188.50658587523171
 30
0.0
 40
2.5454064299999981
 50
325.61556999999789
 51
34.384438999999539
  0
ARC
  5
35A7
  8
AM_0
 10
345.48245804937631
 20
204.7831968752316
 30
0.0
 40
2.00000007
 50
267.9999999999996
 51
0.0
  0
LINE
  5
35A8
  8
AM_0
 10
334.48241804937601
 20
212.66321887523171
 30
0.0
 11
342.48245804937619
 21
212.66321887523171
 31
0.0
  0
ARC
  5
35A9
  8
AM_0
 10
334.48241804937601
 20
217.66320187523181
 30
0.0
 40
5.0000001000000003
 50
179.9999899999988
 51
270.0
  0
ARC
  5
35AA
  8
AM_0
 10
344.4824380493763
 20
218.8635048752316
 30
0.0
 40
2.00000007
 50
90.000003000000945
 51
180.00001000000091
  0
LINE
  5
35AB
  8
AM_0
 10
273.4824880493764
 20
288.3985098752317
 30
0.0
 11
291.4824880493764
 21
288.3985098752317
 31
0.0
  0
LINE
  5
35AC
  8
AM_0
 10
285.48248804937629
 20
285.00535387523172
 30
0.0
 11
297.4824880493764
 21
285.00535387523172
 31
0.0
  0
LINE
  5
35AD
  8
AM_0
 10
285.48248804937629
 20
286.39851187523158
 30
0.0
 11
291.4824880493764
 21
286.39851187523158
 31
0.0
  0
LINE
  5
35AE
  8
AM_0
 10
273.4824880493764
 20
298.39851187523158
 30
0.0
 11
290.0216680493761
 21
298.83158587523172
 31
0.0
  0
ARC
  5
35AF
  8
0
 10
254.48248804937609
 20
301.56322458417247
 30
0.0
 40
2.0
 50
180.0
 51
267.9999999999996
1001
GENIUS_GENOBJ-N-FIL_13
1002
{
1000
OWNER
1000
GEN
1002
}
1001
GENIUS_GENODEF_13
1002
{
1000
HIER
1070
     0
1002
}
1002
{
1000
MANEDIT
1070
     0
1002
}
1002
{
1000
NOSEL
1070
     0
1002
}
1002
{
1000
BEHIND
1070
     0
1002
}
1002
{
1000
OTHER
1070
     0
1002
}
1002
{
1000
REACTOR
1002
}
  0
LINE
  5
35B0
  8
AM_0
 10
273.4824880493764
 20
274.33594987523151
 30
0.0
 11
252.48248804937609
 21
274.33594987523151
 31
0.0
  0
LINE
  5
35B1
  8
AM_0
 10
273.4824880493764
 20
288.39850987523181
 30
0.0
 11
252.48248804937609
 21
288.39850987523181
 31
0.0
  0
LINE
  5
35B2
  8
AM_0
 10
273.4824880493764
 20
274.33594987523151
 30
0.0
 11
285.48248804937629
 21
274.33594987523151
 31
0.0
  0
LINE
  5
35B3
  8
0
 10
254.41268905597121
 20
299.56444293013442
 30
0.0
 11
273.4824880493764
 21
298.89851087523158
 31
0.0
  0
ARC
  5
35B4
  8
0
 10
250.48248804937609
 20
320.39851087523158
 30
0.0
 40
2.0
 50
0.0
 51
90.0
1001
GENIUS_GENOBJ-N-FIL_13
1002
{
1000
OWNER
1000
GEN
1002
}
1001
GENIUS_GENODEF_13
1002
{
1000
HIER
1070
     0
1002
}
1002
{
1000
MANEDIT
1070
     0
1002
}
1002
{
1000
NOSEL
1070
     0
1002
}
1002
{
1000
BEHIND
1070
     0
1002
}
1002
{
1000
OTHER
1070
     0
1002
}
1002
{
1000
REACTOR
1002
}
  0
LINE
  5
35B5
  8
0
 10
242.4824880493764
 20
322.39851087523158
 30
0.0
 11
250.48248804937609
 21
322.39851087523158
 31
0.0
  0
LINE
  5
35B6
  8
AM_0
 10
342.48245804937619
 20
332.11793587523169
 30
0.0
 11
342.48245804937619
 21
299.83888087523172
 31
0.0
  0
LINE
  5
35B7
  8
AM_0
 10
297.4824880493764
 20
285.00535387523172
 30
0.0
 11
327.6784480493763
 21
285.00535387523172
 31
0.0
  0
LINE
  5
35B8
  8
AM_0
 10
297.48242804937632
 20
302.39851087523169
 30
0.0
 11
326.56094804937601
 21
303.15995587523167
 31
0.0
  0
LINE
  5
35B9
  8
AM_0
 10
291.4824880493764
 20
300.78016387523172
 30
0.0
 11
291.4824880493764
 21
286.39851187523158
 31
0.0
  0
LINE
  5
35BA
  8
AM_0
 10
292.94315804937628
 20
302.27964487523172
 30
0.0
 11
297.48242804937632
 21
302.39851087523169
 31
0.0
  0
ARC
  5
35BB
  8
AM_0
 10
292.9824880493764
 20
300.78016387523172
 30
0.0
 40
1.500000029999996
 50
91.500001000001546
 51
180.00001000000091
  0
ARC
  5
35BC
  8
AM_0
 10
289.982488049376
 20
300.33109687523159
 30
0.0
 40
1.500000029999996
 50
271.4999999999992
 51
0.0
  0
ARC
  5
35BD
  8
AM_0
 10
326.4824380493763
 20
306.15891787523168
 30
0.0
 40
3.0
 50
271.4999999999992
 51
0.0
  0
ARC
  5
35BE
  8
AM_0
 10
344.4824380493763
 20
299.83888087523172
 30
0.0
 40
2.00000007
 50
179.9999899999988
 51
271.51463999999902
  0
LINE
  5
35BF
  8
AM_0
 10
334.30796804937631
 20
328.62656587523162
 30
0.0
 11
339.5871880493761
 21
328.81091587523167
 31
0.0
  0
ARC
  5
35C0
  8
AM_0
 10
334.48241804937601
 20
323.62961587523171
 30
0.0
 40
5.0000001000000003
 50
91.999998000000545
 51
180.00001000000091
  0
ARC
  5
35C1
  8
AM_0
 10
344.4824380493763
 20
318.89852587523171
 30
0.0
 40
3.0
 50
0.0
 51
90.000003000000945
  0
ARC
  5
35C2
  8
AM_0
 10
344.4824380493763
 20
332.11793587523169
 30
0.0
 40
2.00000007
 50
91.999998000000545
 51
180.00001000000091
  0
ARC
  5
35C3
  8
AM_0
 10
339.48245804937602
 20
331.80911587523173
 30
0.0
 40
3.0
 50
272.0000000000004
 51
0.0
  0
LINE
  5
35C4
  8
AM_0
 10
356.48243804937619
 20
329.39852587523171
 30
0.0
 11
356.48243804937619
 21
259.3985088752317
 31
0.0
  0
LINE
  5
35C5
  8
AM_0
 10
352.48241804937618
 20
334.39850587523171
 30
0.0
 11
352.48241804937618
 21
189.49468387523169
 31
0.0
  0
LINE
  5
35C6
  8
AM_0
 10
357.48245804937619
 20
278.42435887523169
 30
0.0
 11
357.48245804937619
 21
240.1540788752317
 31
0.0
  0
LINE
  5
35C7
  8
ﾁｭｳｼﾝｾﾝ
 10
545.47365202283618
 20
157.49577940711691
 30
0.0
 11
545.47365202283618
 21
337.90273271476491
 31
0.0
  0
LINE
  5
35C8
  8
AM_0
 10
387.48245804937631
 20
249.89851087523169
 30
0.0
 11
387.48245804937631
 21
271.39851087523152
 31
0.0
  0
ARC
  5
35C9
  8
AM_0
 10
545.47365202283618
 20
259.3985088752317
 30
0.0
 40
30.0
 50
17.592213999998641
 51
225.82602999999909
  0
ARC
  5
35CA
  8
AM_0
 10
545.47365202283618
 20
259.3985088752317
 30
0.0
 40
20.000000700000001
 50
90.000003000000945
 51
270.0
  0
ARC
  5
35CB
  8
AM_0
 10
545.47365202283618
 20
259.3985088752317
 30
0.0
 40
20.000000700000001
 50
270.0
 51
90.000003000000945
  0
ARC
  5
35CC
  8
AM_0
 10
545.47365202283618
 20
259.3985088752317
 30
0.0
 40
20.000000700000001
 50
90.000003000000945
 51
270.0
  0
ARC
  5
35CD
  8
AM_0
 10
545.47365202283618
 20
259.3985088752317
 30
0.0
 40
20.000000700000001
 50
270.0
 51
90.000003000000945
  0
ARC
  5
35CE
  8
AM_0
 10
545.47365202283618
 20
259.3985088752317
 30
0.0
 40
44.000000999999983
 50
137.54732000000001
 51
174.50581000000039
  0
ARC
  5
35CF
  8
AM_0
 10
545.47365202283618
 20
259.3985088752317
 30
0.0
 40
66.000003000000007
 50
291.27995999999911
 51
248.7200300000012
  0
ARC
  5
35D0
  8
AM_0
 10
545.47365202283618
 20
259.3985088752317
 30
0.0
 40
70.000001999999995
 50
290.65615000000031
 51
249.34383999999821
  0
LINE
  5
35D1
  8
AM_0
 10
470.4736490228363
 20
259.3985088752317
 30
0.0
 11
470.4736490228363
 21
279.39847987523171
 31
0.0
  0
LINE
  5
35D2
  8
AM_0
 10
586.82013502283598
 20
274.44736987523169
 30
0.0
 11
591.03307102283634
 21
262.8724188752318
 31
0.0
  0
LINE
  5
35D3
  8
AM_0
 10
620.47365502283617
 20
259.3985088752317
 30
0.0
 11
620.47365502283617
 21
279.39847987523171
 31
0.0
  0
LINE
  5
35D4
  8
AM_0
 10
365.48240804937609
 20
268.8985098752317
 30
0.0
 11
365.48240804937609
 21
271.39851087523152
 31
0.0
  0
LINE
  5
35D5
  8
ﾁｭｳｼﾝｾﾝ
 10
467.55833602283639
 20
259.3985088752317
 30
0.0
 11
624.46940039658125
 21
259.3985088752317
 31
0.0
  0
LINE
  5
35D6
  8
AM_0
 10
583.97258602283614
 20
188.39849287523171
 30
0.0
 11
606.84842602283618
 21
188.39849287523171
 31
0.0
  0
ARC
  5
35D7
  8
AM_0
 10
545.47365202283618
 20
242.39851087523141
 30
0.0
 40
80.0
 50
222.4541676769455
 51
317.5458323230543
  0
ARC
  5
35D8
  8
AM_0
 10
567.02365702283612
 20
224.51848987523169
 30
0.0
 40
20.000000700000001
 50
225.82602999999909
 51
17.592213999998641
  0
LINE
  5
35D9
  8
AM_0
 10
356.48243804937619
 20
259.3985088752317
 30
0.0
 11
356.48243804937619
 21
193.89849187523171
 31
0.0
  0
LINE
  5
35DA
  8
AM_0
 10
352.48244804937622
 20
193.79374087523141
 30
0.0
 11
356.48240804937592
 21
193.89849187523171
 31
0.0
  0
LINE
  5
35DB
  8
AM_0
 10
359.48240804937609
 20
268.8985098752317
 30
0.0
 11
387.48245804937631
 21
268.8985098752317
 31
0.0
  0
LINE
  5
35DC
  8
AM_0
 10
359.48240804937609
 20
249.89851087523169
 30
0.0
 11
387.48245804937631
 21
249.89851087523169
 31
0.0
  0
LINE
  5
35DD
  8
AM_0
 10
359.48240804937609
 20
249.39852487523169
 30
0.0
 11
359.48240804937609
 21
259.3985088752317
 31
0.0
  0
ARC
  5
35DE
  8
AM_0
 10
355.48241804937629
 20
240.1540788752317
 30
0.0
 40
2.00000007
 50
315.0
 51
0.0
  0
LINE
  5
35DF
  8
AM_0
 10
356.48246804937639
 20
238.32560287523171
 30
0.0
 11
356.89667804937631
 21
238.73981887523169
 31
0.0
  0
LINE
  5
35E0
  8
AM_0
 10
357.48245804937619
 20
249.39852487523169
 30
0.0
 11
359.48240804937609
 21
249.39852487523169
 31
0.0
  0
LINE
  5
35E1
  8
AM_0
 10
359.48240804937609
 20
269.39851087523169
 30
0.0
 11
359.48240804937609
 21
259.3985088752317
 31
0.0
  0
LINE
  5
35E2
  8
AM_0
 10
357.48245804937619
 20
269.39851087523169
 30
0.0
 11
359.48240804937609
 21
269.39851087523169
 31
0.0
  0
ARC
  5
35E3
  8
AM_0
 10
569.58272302283626
 20
184.19407087523169
 30
0.0
 40
7.0000007999999987
 50
270.0
 51
18.251978000000921
  0
CIRCLE
  5
35E4
  8
AM_0
 10
569.58272302283626
 20
184.1941008752315
 30
0.0
 40
4.9999998000000003
  0
LINE
  5
35E5
  8
AM_0
 10
564.58270702283619
 20
187.0808508752315
 30
0.0
 11
564.58270702283619
 21
181.30732087523171
 31
0.0
  0
LINE
  5
35E6
  8
AM_0
 10
574.58270902283607
 20
181.30732087523171
 30
0.0
 11
574.58270902283607
 21
187.0808508752315
 31
0.0
  0
ARC
  5
35E7
  8
AM_0
 10
521.36459602283605
 20
184.19407087523169
 30
0.0
 40
7.0000007999999987
 50
161.7480200000015
 51
270.0
  0
CIRCLE
  5
35E8
  8
AM_0
 10
521.36459602283605
 20
184.1941008752315
 30
0.0
 40
4.9999998000000003
  0
LINE
  5
35E9
  8
AM_0
 10
516.36459802283639
 20
187.0808508752315
 30
0.0
 11
516.36459802283639
 21
181.30732087523171
 31
0.0
  0
LINE
  5
35EA
  8
AM_0
 10
526.36458202283643
 20
181.30732087523171
 30
0.0
 11
526.36458202283643
 21
187.0808508752315
 31
0.0
  0
LINE
  5
35EB
  8
AM_0
 10
521.36459602283605
 20
177.1940868752317
 30
0.0
 11
569.58272302283626
 21
177.1940868752317
 31
0.0
  0
LINE
  5
35EC
  8
AM_0
 10
521.36459602283605
 20
178.4206188752317
 30
0.0
 11
526.36458202283643
 21
181.30736587523171
 31
0.0
  0
LINE
  5
35ED
  8
AM_0
 10
516.36459802283639
 20
181.3073358752317
 30
0.0
 11
521.36459602283605
 21
178.42058587523169
 31
0.0
  0
LINE
  5
35EE
  8
AM_0
 10
569.58270802283619
 20
178.42060387523171
 30
0.0
 11
574.58270902283607
 21
181.30736587523171
 31
0.0
  0
LINE
  5
35EF
  8
AM_0
 10
564.58270702283619
 20
181.30732087523171
 30
0.0
 11
569.58270802283619
 21
178.4205708752317
 31
0.0
  0
LINE
  5
35F0
  8
ﾁｭｳｼﾝｾﾝ
 10
589.82932650486123
 20
242.39851087523141
 30
0.0
 11
501.1179775408113
 21
242.39851087523141
 31
0.0
  0
LINE
  5
35F1
  8
AM_0
 10
515.77516402283618
 20
226.87157887523171
 30
0.0
 11
539.62692802283641
 21
203.0198148752317
 31
0.0
  0
LINE
  5
35F2
  8
AM_0
 10
510.15013402283591
 20
193.89849187523171
 30
0.0
 11
545.47365202283618
 21
193.89849187523171
 31
0.0
  0
LINE
  5
35F3
  8
AM_0
 10
523.60190302283615
 20
234.69829987523161
 30
0.0
 11
502.48067002283602
 21
213.57706687523171
 31
0.0
  0
LINE
  5
35F4
  8
AM_0
 10
526.36459702283616
 20
187.08083587523171
 30
0.0
 11
521.36459602283605
 21
189.96758587523169
 31
0.0
  0
ARC
  5
35F5
  8
AM_0
 10
518.87299102283646
 20
239.86890787523171
 30
0.0
 40
3.0
 50
315.0
 51
36.285256999999532
  0
ARC
  5
35F6
  8
AM_0
 10
545.47365202283618
 20
242.39851087523141
 30
0.0
 40
80.0
 50
159.63587136805879
 51
205.41329298006929
  0
LINE
  5
35F7
  8
AM_0
 10
520.99431202283631
 20
237.74758387523161
 30
0.0
 11
499.65224002283622
 21
216.40549687523171
 31
0.0
  0
LINE
  5
35F8
  8
AM_0
 10
470.4736490228363
 20
239.39847787523141
 30
0.0
 11
474.13691902283631
 21
197.52692587523171
 31
0.0
  0
LINE
  5
35F9
  8
AM_0
 10
506.97472102283632
 20
188.39849287523171
 30
0.0
 11
484.09889602283607
 21
188.39849287523171
 31
0.0
  0
CIRCLE
  5
35FA
  8
AM_0
 10
485.36958502283602
 20
199.2944118752317
 30
0.0
 40
5.0000001000000003
  0
ARC
  5
35FB
  8
AM_0
 10
484.09889602283607
 20
198.39849187523171
 30
0.0
 40
10.000000200000001
 50
184.9999899999992
 51
270.0
  0
ARC
  5
35FC
  8
AM_0
 10
509.96834002283617
 20
187.95244687523169
 30
0.0
 40
5.0000001000000003
 50
341.74802000000147
 51
56.890859000001697
  0
LINE
  5
35FD
  8
AM_0
 10
506.97472102283632
 20
188.39849287523171
 30
0.0
 11
510.1501490228361
 21
193.89849187523171
 31
0.0
  0
ARC
  5
35FE
  8
AM_0
 10
545.47365202283618
 20
242.3984958752317
 30
0.0
 40
60.000002999999992
 50
233.9334099999989
 51
236.89084999999881
  0
LINE
  5
35FF
  8
AM_0
 10
521.36459602283605
 20
189.9676158752317
 30
0.0
 11
516.36459802283639
 21
187.0808658752315
 31
0.0
  0
ARC
  5
3600
  8
AM_0
 10
497.53093402283622
 20
218.52682087523141
 30
0.0
 40
3.0
 50
220.4479199999985
 51
315.0
  0
ARC
  5
3601
  8
AM_0
 10
504.6019790228363
 20
211.45574587523171
 30
0.0
 40
3.0
 50
135.0
 51
229.5520800000011
  0
LINE
  5
3602
  8
AM_0
 10
482.63459902283591
 20
260.8985088752317
 30
0.0
 11
498.68956402283601
 21
260.8985088752317
 31
0.0
  0
LINE
  5
3603
  8
AM_0
 10
482.63459902283591
 20
257.89850887523158
 30
0.0
 11
498.68956402283601
 21
257.89850887523158
 31
0.0
  0
LINE
  5
3604
  8
AM_0
 10
470.4736490228363
 20
259.3985088752317
 30
0.0
 11
470.4736490228363
 21
239.3984958752317
 31
0.0
  0
ARC
  5
3605
  8
AM_0
 10
482.63459902283591
 20
263.89851187523152
 30
0.0
 40
3.0
 50
175.90394999999901
 51
270.0
  0
ARC
  5
3606
  8
AM_0
 10
482.63459902283591
 20
254.8985088752317
 30
0.0
 40
3.0
 50
90.000003000000945
 51
184.0960400000009
  0
ARC
  5
3607
  8
AM_0
 10
545.47365202283618
 20
259.3985088752317
 30
0.0
 40
44.000000999999983
 50
185.49418999999921
 51
222.45267999999999
  0
ARC
  5
3608
  8
AM_0
 10
498.68956402283601
 20
263.89851187523152
 30
0.0
 40
3.0
 50
270.0
 51
354.50582000000048
  0
ARC
  5
3609
  8
AM_0
 10
498.68956402283601
 20
254.8985088752317
 30
0.0
 40
3.0
 50
5.4941789999992992
 51
90.000003000000945
  0
LINE
  5
360A
  8
AM_0
 10
553.08685702283628
 20
210.1739598752315
 30
0.0
 11
524.56845502283625
 21
237.88169587523171
 31
0.0
  0
LINE
  5
360B
  8
AM_0
 10
569.42673202283618
 20
197.89849387523171
 30
0.0
 11
521.52057202283595
 21
197.89849387523171
 31
0.0
  0
LINE
  5
360C
  8
AM_0
 10
580.79717002283633
 20
193.89849187523171
 30
0.0
 11
545.47365202283618
 21
193.89849187523171
 31
0.0
  0
ARC
  5
360D
  8
AM_0
 10
537.50561902283596
 20
200.8985088752317
 30
0.0
 40
3.0
 50
270.0
 51
45.000000999999187
  0
ARC
  5
360E
  8
AM_0
 10
582.73610602283634
 20
208.59975787523169
 30
0.0
 40
3.0
 50
211.7091199999995
 51
306.26120000000037
  0
LINE
  5
360F
  8
AM_0
 10
574.58270902283607
 20
187.08083587523171
 30
0.0
 11
569.58270802283619
 21
189.96758587523169
 31
0.0
  0
LINE
  5
3610
  8
AM_0
 10
569.58270802283619
 20
189.96763087523169
 30
0.0
 11
564.58270702283619
 21
187.0808658752315
 31
0.0
  0
ARC
  5
3611
  8
AM_0
 10
545.47365202283618
 20
242.3984958752317
 30
0.0
 40
60.000002999999992
 50
303.10914000000031
 51
306.06659000000082
  0
ARC
  5
3612
  8
AM_0
 10
580.97897902283626
 20
187.95244687523169
 30
0.0
 40
5.0000001000000003
 50
123.1091299999986
 51
198.25197999999841
  0
ARC
  5
3613
  8
AM_0
 10
545.47365202283618
 20
242.3984958752317
 30
0.0
 40
60.000002999999992
 50
303.10914000000031
 51
304.41150999999832
  0
LINE
  5
3614
  8
AM_0
 10
583.97258602283614
 20
188.39849287523171
 30
0.0
 11
580.79715502283625
 21
193.89849187523171
 31
0.0
  0
LINE
  5
3615
  8
AM_0
 10
575.78165302283605
 20
206.53800487523171
 30
0.0
 11
576.78099502283635
 21
204.92052787523161
 31
0.0
  0
ARC
  5
3616
  8
AM_0
 10
574.228811022836
 20
203.3436978752315
 30
0.0
 40
3.0
 50
297.15705000000082
 51
31.70912200000048
  0
LINE
  5
3617
  8
AM_0
 10
579.18456202283619
 20
208.6404378752315
 30
0.0
 11
580.18390402283626
 21
207.02296087523169
 31
0.0
  0
ARC
  5
3618
  8
AM_0
 10
545.47365202283618
 20
259.3985088752317
 30
0.0
 40
9.5000003999999993
 50
108.4084799999998
 51
71.591512000000776
  0
ARC
  5
3619
  8
AM_0
 10
525.72320902283604
 20
232.5769908752317
 30
0.0
 40
3.0
 50
45.82603099999853
 51
135.0
  0
CIRCLE
  5
361A
  8
AM_0
 10
545.47365202283618
 20
259.3985088752317
 30
0.0
 40
2.4999998400000001
  0
CIRCLE
  5
361B
  8
AM_5
 10
545.47365202283618
 20
259.3985088752317
 30
0.0
 40
3.0
  0
LINE
  5
361C
  8
AM_0
 10
548.4736520228364
 20
271.39851187523152
 30
0.0
 11
542.47365202283606
 21
271.39851187523152
 31
0.0
  0
LINE
  5
361D
  8
AM_0
 10
542.47365202283606
 20
265.39851187523158
 30
0.0
 11
548.4736520228364
 21
265.39851187523158
 31
0.0
  0
LINE
  5
361E
  8
AM_0
 10
542.47365202283606
 20
271.39851187523152
 30
0.0
 11
542.47365202283606
 21
265.39851187523158
 31
0.0
  0
LINE
  5
361F
  8
AM_0
 10
548.4736520228364
 20
265.39851187523158
 30
0.0
 11
548.4736520228364
 21
271.39851187523152
 31
0.0
  0
LINE
  5
3620
  8
AM_0
 10
586.08829402283607
 20
230.56328887523171
 30
0.0
 11
574.07060902283615
 21
268.46567887523167
 31
0.0
  0
LINE
  5
3621
  8
AM_0
 10
620.47365502283617
 20
239.39851087523169
 30
0.0
 11
616.81037002283642
 21
197.5269408752317
 31
0.0
  0
ARC
  5
3622
  8
AM_0
 10
545.47365202283618
 20
242.39851087523141
 30
0.0
 40
80.0
 50
334.58668056484652
 51
20.364128631941149
  0
CIRCLE
  5
3623
  8
AM_0
 10
605.57771902283605
 20
199.2944118752317
 30
0.0
 40
5.0000001000000003
  0
ARC
  5
3624
  8
AM_0
 10
606.84842602283618
 20
198.39849187523171
 30
0.0
 40
10.000000200000001
 50
270.0
 51
355.00000000000023
  0
LINE
  5
3625
  8
AM_0
 10
594.30879802283607
 20
253.87241887523169
 30
0.0
 11
603.33301402283632
 21
229.07860987523171
 31
0.0
  0
LINE
  5
3626
  8
AM_0
 10
620.47365502283617
 20
259.3985088752317
 30
0.0
 11
620.47365502283617
 21
239.3984958752317
 31
0.0
  0
LINE
  5
3627
  8
AM_0
 10
608.31272002283617
 20
257.89850887523158
 30
0.0
 11
597.12787402283618
 21
257.89850887523158
 31
0.0
  0
LINE
  5
3628
  8
AM_0
 10
608.31272002283617
 20
260.8985088752317
 30
0.0
 11
593.85216502283606
 21
260.8985088752317
 31
0.0
  0
ARC
  5
3629
  8
AM_0
 10
593.85216502283606
 20
263.89851187523152
 30
0.0
 40
3.0
 50
199.9999999999992
 51
270.0
  0
ARC
  5
362A
  8
AM_0
 10
597.12787402283618
 20
254.8985088752317
 30
0.0
 40
3.0
 50
90.000003000000945
 51
199.9999999999992
  0
ARC
  5
362B
  8
AM_0
 10
608.31272002283617
 20
263.89851187523152
 30
0.0
 40
3.0
 50
270.0
 51
4.0960440000003242
  0
ARC
  5
362C
  8
AM_0
 10
608.31272002283617
 20
254.8985088752317
 30
0.0
 40
3.0
 50
355.90395999999907
 51
90.000003000000945
  0
LINE
  5
362D
  8
AM_0
 10
565.47365302283606
 20
334.39850587523171
 30
0.0
 11
607.68982702283643
 21
330.70505587523172
 31
0.0
  0
LINE
  5
362E
  8
AM_0
 10
567.12456202283602
 20
283.87781887523181
 30
0.0
 11
588.46664902283612
 21
305.21992387523159
 31
0.0
  0
LINE
  5
362F
  8
AM_0
 10
569.95299202283616
 20
281.04938887523173
 30
0.0
 11
591.29507902283626
 21
302.39149387523167
 31
0.0
  0
LINE
  5
3630
  8
AM_0
 10
365.48240804937609
 20
271.39851087523152
 30
0.0
 11
387.48245804937631
 21
271.39851087523152
 31
0.0
  0
LINE
  5
3631
  8
AM_0
 10
356.48246804937639
 20
280.32563587523163
 30
0.0
 11
356.89667804937631
 21
279.91141987523167
 31
0.0
  0
ARC
  5
3632
  8
AM_0
 10
355.48241804937629
 20
278.49720487523172
 30
0.0
 40
2.00000007
 50
0.0
 51
45.000000999999187
  0
LINE
  5
3633
  8
AM_0
 10
352.48241804937618
 20
329.39852587523171
 30
0.0
 11
356.48243804937619
 21
329.39852587523171
 31
0.0
  0
ARC
  5
3634
  8
AM_0
 10
545.47365202283618
 20
259.39850887523198
 30
0.0
 40
44.000000999999983
 50
95.494178999999249
 51
132.45267999999771
  0
LINE
  5
3635
  8
AM_0
 10
523.82274202283634
 20
283.87781887523181
 30
0.0
 11
502.48070002283617
 21
305.21989087523173
 31
0.0
  0
ARC
  5
3636
  8
AM_0
 10
518.87299102283646
 20
278.92808287523172
 30
0.0
 40
3.0
 50
323.71473999999961
 51
45.000000999999187
  0
LINE
  5
3637
  8
AM_0
 10
525.4736360228361
 20
334.39847587523172
 30
0.0
 11
483.25746502283607
 21
330.70502587523163
 31
0.0
  0
CIRCLE
  5
3638
  8
AM_0
 10
485.36958502283602
 20
319.50257587523163
 30
0.0
 40
5.0000001000000003
  0
LINE
  5
3639
  8
AM_0
 10
470.4736490228363
 20
279.39847987523171
 30
0.0
 11
474.16707202283641
 21
321.61469587523158
 31
0.0
  0
LINE
  5
363A
  8
AM_0
 10
520.99431202283631
 20
281.04938887523173
 30
0.0
 11
499.65227002283609
 21
302.39146087523159
 31
0.0
  0
CIRCLE
  5
363B
  8
AM_0
 10
495.49238902283622
 20
280.75046887523172
 30
0.0
 40
4.9999998000000003
  0
LINE
  5
363C
  8
AM_0
 10
490.49238802283639
 20
283.63721887523172
 30
0.0
 11
490.49238802283639
 21
277.86372187523159
 31
0.0
  0
LINE
  5
363D
  8
AM_0
 10
500.49242002283631
 20
277.86372187523159
 30
0.0
 11
500.49242002283631
 21
283.63721887523172
 31
0.0
  0
LINE
  5
363E
  8
AM_0
 10
495.49238902283622
 20
274.97697187523158
 30
0.0
 11
500.4923900228361
 21
277.8637518752318
 31
0.0
  0
LINE
  5
363F
  8
AM_0
 10
490.49238802283639
 20
277.86372187523159
 30
0.0
 11
495.49238902283622
 21
274.97697187523158
 31
0.0
  0
LINE
  5
3640
  8
AM_0
 10
500.4923900228361
 20
283.63721887523172
 30
0.0
 11
495.49238902283622
 21
286.52396887523167
 31
0.0
  0
LINE
  5
3641
  8
AM_0
 10
495.49241902283609
 20
286.52396887523167
 30
0.0
 11
490.49241802283632
 21
283.63721887523172
 31
0.0
  0
ARC
  5
3642
  8
AM_0
 10
497.53093402283622
 20
300.27015487523181
 30
0.0
 40
3.0
 50
45.000000999999187
 51
139.5520800000009
  0
ARC
  5
3643
  8
AM_0
 10
504.6019790228363
 20
307.34122987523159
 30
0.0
 40
3.0
 50
130.44793000000001
 51
225.0
  0
ARC
  5
3644
  8
AM_0
 10
484.12904602283612
 20
320.74310587523172
 30
0.0
 40
10.000000200000001
 50
95.00000199999856
 51
175.00001000000071
  0
LINE
  5
3645
  8
AM_0
 10
546.9736520228364
 20
322.23755587523158
 30
0.0
 11
546.9736520228364
 21
306.18256987523171
 31
0.0
  0
LINE
  5
3646
  8
AM_0
 10
543.9736520228364
 20
322.23755587523158
 30
0.0
 11
543.9736520228364
 21
306.18256987523171
 31
0.0
  0
ARC
  5
3647
  8
AM_0
 10
545.47365202283618
 20
259.3985088752317
 30
0.0
 40
44.000000999999983
 50
47.547317000001861
 51
84.505819000000741
  0
ARC
  5
3648
  8
AM_0
 10
525.9440660228363
 20
285.99915787523179
 30
0.0
 40
3.0
 50
225.0
 51
306.28526000000028
  0
ARC
  5
3649
  8
AM_0
 10
549.97365202283618
 20
306.18256987523171
 30
0.0
 40
3.0
 50
179.9999899999988
 51
264.50582000000043
  0
ARC
  5
364A
  8
AM_0
 10
540.9736520228364
 20
306.18256987523171
 30
0.0
 40
3.0
 50
275.49417999999929
 51
0.0
  0
ARC
  5
364B
  8
AM_0
 10
572.07433102283608
 20
278.92808287523172
 30
0.0
 40
3.0
 50
135.0
 51
216.28526000000031
  0
ARC
  5
364C
  8
AM_0
 10
565.00325602283601
 20
285.99915787523179
 30
0.0
 40
3.0
 50
233.7147499999995
 51
315.0
  0
ARC
  5
364D
  8
AM_0
 10
545.47365202283618
 20
259.3985088752317
 30
0.0
 40
44.000000999999983
 50
19.99999899999905
 51
42.452681999998767
  0
LINE
  5
364E
  8
AM_0
 10
545.47365202283618
 20
334.39850587523171
 30
0.0
 11
565.47365302283606
 21
334.39850587523171
 31
0.0
  0
LINE
  5
364F
  8
AM_0
 10
545.47365202283618
 20
334.39850587523171
 30
0.0
 11
525.47366602283626
 21
334.39850587523171
 31
0.0
  0
ARC
  5
3650
  8
AM_0
 10
549.97365202283618
 20
322.23755587523158
 30
0.0
 40
3.0
 50
85.903959000000114
 51
180.00001000000091
  0
ARC
  5
3651
  8
AM_0
 10
540.9736520228364
 20
322.23755587523158
 30
0.0
 40
3.0
 50
0.0
 51
94.096045999998367
  0
ARC
  5
3652
  8
ﾁｭｳｼﾝｾﾝ1
 10
545.47365202283618
 20
259.3985088752317
 30
0.0
 40
85.000001999999981
 50
38.255426116988069
 51
51.744573883012137
  0
LINE
  5
3653
  8
ﾁｭｳｼﾝｾﾝ1
 10
598.50666900111275
 20
312.4314901318478
 30
0.0
 11
612.64880196547017
 21
326.57362869771782
 31
0.0
  0
LINE
  5
3654
  8
AM_0
 10
620.47365502283617
 20
279.39847987523171
 30
0.0
 11
616.78022002283615
 21
321.61466587523171
 31
0.0
  0
CIRCLE
  5
3655
  8
AM_0
 10
605.57771902283605
 20
319.50257587523163
 30
0.0
 40
5.0000001000000003
  0
LINE
  5
3656
  8
AM_0
 10
600.45491602283641
 20
277.86372187523159
 30
0.0
 11
600.45491602283641
 21
283.63721887523172
 31
0.0
  0
LINE
  5
3657
  8
AM_0
 10
590.45491702283618
 20
283.63721887523172
 30
0.0
 11
590.45491702283618
 21
277.86372187523159
 31
0.0
  0
CIRCLE
  5
3658
  8
AM_0
 10
595.45490002283611
 20
280.75046887523172
 30
0.0
 40
4.9999998000000003
  0
LINE
  5
3659
  8
AM_0
 10
595.45490002283611
 20
274.97700187523151
 30
0.0
 11
600.45491602283641
 21
277.8637518752318
 31
0.0
  0
LINE
  5
365A
  8
AM_0
 10
590.45490202283611
 20
277.86372187523159
 30
0.0
 11
595.45490002283611
 21
274.97697187523158
 31
0.0
  0
LINE
  5
365B
  8
AM_0
 10
600.45490102283634
 20
283.63721887523172
 30
0.0
 11
595.45491502283619
 21
286.52396887523167
 31
0.0
  0
LINE
  5
365C
  8
AM_0
 10
595.45490002283611
 20
286.52399887523171
 30
0.0
 11
590.45490202283611
 21
283.63724887523171
 31
0.0
  0
ARC
  5
365D
  8
AM_0
 10
593.41638802283614
 20
300.27015487523181
 30
0.0
 40
3.0
 50
40.447929000001558
 51
135.0
  0
ARC
  5
365E
  8
AM_0
 10
586.34534302283612
 20
307.34122987523159
 30
0.0
 40
3.0
 50
315.0
 51
49.552073000000021
  0
ARC
  5
365F
  8
AM_0
 10
606.81825802283606
 20
320.74310587523172
 30
0.0
 40
10.000000200000001
 50
4.9999999000007884
 51
84.999996999998572
  0
LINE
  5
3660
  8
0
 10
242.48248804937609
 20
383.19582608648551
 30
0.0
 11
242.48248804937609
 21
543.19582608648545
 31
0.0
1001
GENIUS_GENOREF_13
1005
2F3C
  0
LINE
  5
3661
  8
0
 10
252.48248804937609
 20
541.19582608648557
 30
0.0
 11
252.48248804937609
 21
385.19582608648551
 31
0.0
1001
GENIUS_GENOREF_13
1005
2F3C
  0
LINE
  5
3662
  8
0
 10
254.4126890559711
 20
406.02989403158278
 30
0.0
 11
273.48248804937612
 21
406.69582608648551
 31
0.0
  0
LINE
  5
3663
  8
0
 10
242.48248804937609
 20
383.19582608648551
 30
0.0
 11
250.48248804937609
 21
383.19582608648551
 31
0.0
  0
ARC
  5
3664
  8
0
 10
250.48248804937609
 20
385.19582608648551
 30
0.0
 40
2.0
 50
270.0
 51
0.0
1001
GENIUS_GENOBJ-N-FIL_13
1002
{
1000
OWNER
1000
GEN
1002
}
1001
GENIUS_GENODEF_13
1002
{
1000
HIER
1070
     0
1002
}
1002
{
1000
MANEDIT
1070
     0
1002
}
1002
{
1000
NOSEL
1070
     0
1002
}
1002
{
1000
BEHIND
1070
     0
1002
}
1002
{
1000
OTHER
1070
     0
1002
}
1002
{
1000
REACTOR
1002
}
  0
ARC
  5
3665
  8
0
 10
254.48248804937609
 20
404.03111237754439
 30
0.0
 40
2.0
 50
92.000000000000341
 51
180.0
1001
GENIUS_GENOBJ-N-FIL_13
1002
{
1000
OWNER
1000
GEN
1002
}
1001
GENIUS_GENODEF_13
1002
{
1000
HIER
1070
     0
1002
}
1002
{
1000
MANEDIT
1070
     0
1002
}
1002
{
1000
NOSEL
1070
     0
1002
}
1002
{
1000
BEHIND
1070
     0
1002
}
1002
{
1000
OTHER
1070
     0
1002
}
1002
{
1000
REACTOR
1002
}
  0
LINE
  5
3666
  8
AM_0
 10
273.48248804937612
 20
431.25838408648559
 30
0.0
 11
252.48248804937609
 21
431.25838408648559
 31
0.0
  0
LINE
  5
3667
  8
AM_0
 10
273.48248804937612
 20
417.19580908648561
 30
0.0
 11
252.48248804937609
 21
417.19580908648561
 31
0.0
  0
LINE
  5
3668
  8
AM_0
 10
273.48248804937612
 20
495.13326508648561
 30
0.0
 11
252.48248804937609
 21
495.13326508648561
 31
0.0
  0
ARC
  5
3669
  8
0
 10
250.48248804937609
 20
541.19582608648557
 30
0.0
 40
2.0
 50
0.0
 51
90.0
1001
GENIUS_GENOBJ-N-FIL_13
1002
{
1000
OWNER
1000
GEN
1002
}
1001
GENIUS_GENODEF_13
1002
{
1000
HIER
1070
     0
1002
}
1002
{
1000
MANEDIT
1070
     0
1002
}
1002
{
1000
NOSEL
1070
     0
1002
}
1002
{
1000
BEHIND
1070
     0
1002
}
1002
{
1000
OTHER
1070
     0
1002
}
1002
{
1000
REACTOR
1002
}
  0
LINE
  5
366A
  8
0
 10
254.4126890559711
 20
520.36175814138801
 30
0.0
 11
273.48248804937612
 21
519.69582608648545
 31
0.0
  0
LINE
  5
366B
  8
AM_0
 10
273.48248804937612
 20
509.19582508648551
 30
0.0
 11
252.48248804937609
 21
509.19582508648551
 31
0.0
  0
ARC
  5
366C
  8
0
 10
254.48248804937609
 20
522.36053979542646
 30
0.0
 40
2.0
 50
180.0
 51
267.9999999999996
1001
GENIUS_GENOBJ-N-FIL_13
1002
{
1000
OWNER
1000
GEN
1002
}
1001
GENIUS_GENODEF_13
1002
{
1000
HIER
1070
     0
1002
}
1002
{
1000
MANEDIT
1070
     0
1002
}
1002
{
1000
NOSEL
1070
     0
1002
}
1002
{
1000
BEHIND
1070
     0
1002
}
1002
{
1000
OTHER
1070
     0
1002
}
1002
{
1000
REACTOR
1002
}
  0
LINE
  5
366D
  8
0
 10
242.48248804937609
 20
543.19582608648545
 30
0.0
 11
250.48248804937609
 21
543.19582608648545
 31
0.0
  0
ARC
  5
366E
  8
ﾁｭｳｼﾝｾﾝ1
 10
545.47365202283618
 20
259.3985088752317
 30
0.0
 40
85.000001999999981
 50
128.25542611698771
 51
141.7445738830119
  0
LINE
  5
366F
  8
ﾁｭｳｼﾝｾﾝ1
 10
492.44063504455988
 20
312.4314901318478
 30
0.0
 11
478.29850208020252
 21
326.57362869771782
 31
0.0
  0
ARC
  5
3670
  8
ﾁｭｳｼﾝｾﾝ1
 10
545.47365202283618
 20
259.3985088752317
 30
0.0
 40
85.000001999999981
 50
308.25542611698768
 51
321.74457388301192
  0
LINE
  5
3671
  8
ﾁｭｳｼﾝｾﾝ1
 10
598.50666900111275
 20
206.3655276186154
 30
0.0
 11
612.64880196547017
 21
192.2233890527454
 31
0.0
  0
LINE
  5
3672
  8
ﾁｭｳｼﾝｾﾝ1
 10
492.44063504455988
 20
206.3655276186154
 30
0.0
 11
478.29850208020252
 21
192.2233890527454
 31
0.0
  0
ARC
  5
3673
  8
ﾁｭｳｼﾝｾﾝ1
 10
545.47365202283618
 20
259.3985088752317
 30
0.0
 40
85.000001999999981
 50
218.25542611698799
 51
231.74457388301201
  0
TEXT
  5
3895
  8
AM_0
 10
468.36333524428318
 20
483.37178776612473
 30
0.0
 40
10.0
  1
VX02-003AF~VX02-030AF
  0
ENDSEC
  0
EOF
