  0
SECTION
  2
HEADER
  9
$ACADVER
  1
AC1009
  9
$INSBASE
 10
0.0
 20
0.0
 30
0.0
  9
$EXTMIN
 10
193.045511550323
 20
144.03257601185641
 30
-0.0000000349181948
  9
$EXTMAX
 10
660.19402489449612
 20
557.83463789424695
 30
0.0000000814935747
  9
$LIMMIN
 10
0.0
 20
0.0
  9
$LIMMAX
 10
853.5
 20
555.00000000000011
  9
$ORTHOMODE
 70
     0
  9
$REGENMODE
 70
     1
  9
$FILLMODE
 70
     1
  9
$QTEXTMODE
 70
     0
  9
$MIRRTEXT
 70
     1
  9
$DRAGMODE
 70
     2
  9
$LTSCALE
 40
3.0
  9
$OSMODE
 70
   551
  9
$ATTMODE
 70
     1
  9
$TEXTSIZE
 40
2.5
  9
$TRACEWID
 40
1.0
  9
$TEXTSTYLE
  7
STANDARD
  9
$CLAYER
  8
AM_0
  9
$CELTYPE
  6
BYLAYER
  9
$CECOLOR
 62
   256
  9
$DIMSCALE
 40
1.0
  9
$DIMASZ
 40
2.5
  9
$DIMEXO
 40
1.0
  9
$DIMDLI
 40
8.0
  9
$DIMRND
 40
0.0
  9
$DIMDLE
 40
0.0
  9
$DIMEXE
 40
0.6
  9
$DIMTP
 40
0.1
  9
$DIMTM
 40
0.1
  9
$DIMTXT
 40
2.5
  9
$DIMCEN
 40
0.0
  9
$DIMTSZ
 40
0.0
  9
$DIMTOL
 70
     0
  9
$DIMLIM
 70
     0
  9
$DIMTIH
 70
     0
  9
$DIMTOH
 70
     0
  9
$DIMSE1
 70
     0
  9
$DIMSE2
 70
     0
  9
$DIMTAD
 70
     1
  9
$DIMZIN
 70
     8
  9
$DIMBLK
  1

  9
$DIMASO
 70
     1
  9
$DIMSHO
 70
     1
  9
$DIMPOST
  1

  9
$DIMAPOST
  1
"
  9
$DIMALT
 70
     0
  9
$DIMALTD
 70
     2
  9
$DIMALTF
 40
0.0393701
  9
$DIMLFAC
 40
1.0
  9
$DIMTOFL
 70
     1
  9
$DIMTVP
 40
0.0
  9
$DIMTIX
 70
     0
  9
$DIMSOXD
 70
     0
  9
$DIMSAH
 70
     0
  9
$DIMBLK1
  1

  9
$DIMBLK2
  1

  9
$DIMSTYLE
  2
AM_ISO
  9
$DIMCLRD
 70
   256
  9
$DIMCLRE
 70
   256
  9
$DIMCLRT
 70
     4
  9
$DIMTFAC
 40
0.71
  9
$DIMGAP
 40
0.8
  9
$LUNITS
 70
     2
  9
$LUPREC
 70
     2
  9
$SKETCHINC
 40
1.0
  9
$FILLETRAD
 40
15.0
  9
$AUNITS
 70
     0
  9
$AUPREC
 70
     0
  9
$MENU
  1
.
  9
$ELEVATION
 40
0.0
  9
$PELEVATION
 40
0.0
  9
$THICKNESS
 40
0.0
  9
$LIMCHECK
 70
     0
  9
$BLIPMODE
 70
     0
  9
$CHAMFERA
 40
6.0
  9
$CHAMFERB
 40
3.0
  9
$SKPOLY
 70
     0
  9
$TDCREATE
 40
2452065.735910729
  9
$TDUPDATE
 40
2458541.5356655899
  9
$TDINDWG
 40
0.1021817245
  9
$TDUSRTIMER
 40
0.102181713
  9
$USRTIMER
 70
     1
  9
$ANGBASE
 50
0.0
  9
$ANGDIR
 70
     0
  9
$PDMODE
 70
     0
  9
$PDSIZE
 40
0.0
  9
$PLINEWID
 40
0.0
  9
$COORDS
 70
     1
  9
$SPLFRAME
 70
     0
  9
$SPLINETYPE
 70
     6
  9
$SPLINESEGS
 70
     8
  9
$ATTDIA
 70
     1
  9
$ATTREQ
 70
     1
  9
$HANDLING
 70
     1
  9
$HANDSEED
  5
3466
  9
$SURFTAB1
 70
     6
  9
$SURFTAB2
 70
     6
  9
$SURFTYPE
 70
     6
  9
$SURFU
 70
     6
  9
$SURFV
 70
     6
  9
$UCSNAME
  2

  9
$UCSORG
 10
0.0
 20
0.0
 30
0.0
  9
$UCSXDIR
 10
1.0
 20
0.0
 30
0.0
  9
$UCSYDIR
 10
0.0
 20
1.0
 30
0.0
  9
$PUCSNAME
  2

  9
$PUCSORG
 10
0.0
 20
0.0
 30
0.0
  9
$PUCSXDIR
 10
1.0
 20
0.0
 30
0.0
  9
$PUCSYDIR
 10
0.0
 20
1.0
 30
0.0
  9
$USERI1
 70
     0
  9
$USERI2
 70
     0
  9
$USERI3
 70
     0
  9
$USERI4
 70
     0
  9
$USERI5
 70
     0
  9
$USERR1
 40
0.0
  9
$USERR2
 40
0.0
  9
$USERR3
 40
0.0
  9
$USERR4
 40
0.0
  9
$USERR5
 40
0.0
  9
$WORLDVIEW
 70
     1
  9
$SHADEDGE
 70
     3
  9
$SHADEDIF
 70
    70
  9
$TILEMODE
 70
     1
  9
$MAXACTVP
 70
    64
  9
$PLIMCHECK
 70
     0
  9
$PEXTMIN
 10
1.0000000000000000E+020
 20
1.0000000000000000E+020
 30
1.0000000000000000E+020
  9
$PEXTMAX
 10
-1.0000000000000000E+020
 20
-1.0000000000000000E+020
 30
-1.0000000000000000E+020
  9
$PLIMMIN
 10
0.0
 20
0.0
  9
$PLIMMAX
 10
420.0
 20
297.0
  9
$UNITMODE
 70
     0
  9
$VISRETAIN
 70
     1
  9
$PLINEGEN
 70
     0
  9
$PSLTSCALE
 70
     1
  0
ENDSEC
  0
SECTION
  2
TABLES
  0
TABLE
  2
VPORT
 70
     1
  0
VPORT
  2
*ACTIVE
 70
     0
 10
0.0
 20
0.0
 11
1.0
 21
1.0
 12
426.6197682224095
 22
350.93360695305171
 13
0.0
 23
0.0
 14
7.5
 24
7.5
 15
30.0
 25
30.0
 16
0.0
 26
0.0
 36
1.0
 17
0.0
 27
0.0
 37
0.0
 40
416.64280830263579
 41
1.7571592210767459
 42
50.0
 43
0.0
 44
0.0
 50
0.0
 51
0.0
 71
     0
 72
   100
 73
     1
 74
     3
 75
     0
 76
     0
 77
     0
 78
     0
  0
ENDTAB
  0
TABLE
  2
LTYPE
 70
    26
  0
LTYPE
  2
CONTINUOUS
 70
     0
  3
Solid line
 72
    65
 73
     0
 40
0.0
  0
LTYPE
  2
AM_ISO02W050
 70
     0
  3
__ __ __ __ __ __ __ __ __ __ __ __ __ __ __
 72
    65
 73
     2
 40
7.5
 49
6.0
 49
-1.5
  0
LTYPE
  2
AM_ISO08W050
 70
     0
  3
____ . ____ . ____ . ____ . ____ . ____ . ____
 72
    65
 73
     4
 40
18.0
 49
12.0
 49
-1.5
 49
3.0
 49
-1.5
  0
LTYPE
  2
AM_ISO09W050
 70
     0
  3
_____ . . _____ . . _____ . . ____ .. ____
 72
    65
 73
     6
 40
22.5
 49
12.0
 49
-1.5
 49
3.0
 49
-1.5
 49
3.0
 49
-1.5
  0
LTYPE
  2
AMCONSTR
 70
     0
  3
_______________________
 72
    65
 73
     2
 40
9999.0
 49
9999.0
 49
0.0
  0
LTYPE
  2
AM_ISO08W050X2
 70
     0
  3
__ . __ . __ . __ . __ . __
 72
    65
 73
     4
 40
9.0
 49
6.0
 49
-0.75
 49
1.5
 49
-0.75
  0
LTYPE
  2
AM_ISO02W050X2
 70
     0
  3
 _ _ _ _ _ _ _ _ _ _ _ _
 72
    65
 73
     2
 40
3.75
 49
3.0
 49
-0.75
  0
LTYPE
  2
AMZIGZAG
 70
     0
  3
/\/-/\/-/\/-/\/-/\/-/\/
 72
    65
 73
     2
 40
11.000099999999991
 49
0.0001
 49
-11.0
  0
LTYPE
  2
ACISOWELD
 70
     0
  3
_ _ _ _ _
 72
    65
 73
     2
 40
2.0
 49
2.0
 49
-1.0
  0
LTYPE
  2
ACISOTGB
 70
     0
  3
__ . . __ . .
 72
    65
 73
     6
 40
9.0
 49
4.0
 49
-1.0
 49
1.0
 49
-1.0
 49
1.0
 49
-1.0
  0
LTYPE
  2
ACISOTGL
 70
     0
  3
_ _ _ _ _
 72
    65
 73
     2
 40
3.0
 49
2.0
 49
-1.0
  0
LTYPE
  2
CENTER
 70
     0
  3
__ . __
 72
    65
 73
     4
 40
7.0
 49
4.0
 49
-1.0
 49
1.0
 49
-1.0
  0
LTYPE
  2
PHANTOM2
 70
     0
  3
Phantom (.5x) ___ _ _ ___ _ _ ___ _ _ ___ _ _
 72
    65
 73
     6
 40
31.75
 49
15.875
 49
-3.174999999999998
 49
3.174999999999998
 49
-3.174999999999998
 49
3.174999999999998
 49
-3.174999999999998
  0
LTYPE
  2
ACANSTGBM
 70
     0
  3
__ . . __ . .
 72
    65
 73
     6
 40
9.0
 49
4.0
 49
-1.0
 49
1.0
 49
-1.0
 49
1.0
 49
-1.0
  0
LTYPE
  2
ACANSTGLM
 70
     0
  3
_ _ _ _ _
 72
    65
 73
     2
 40
3.0
 49
2.0
 49
-1.0
  0
LTYPE
  2
GEN7
 70
     0
  3
____ . ____ . ____ . ____ . ____ . ____ . ____
 72
    65
 73
     4
 40
14.25
 49
9.75
 49
-1.5
 49
1.5
 49
-1.5
  0
LTYPE
  2
GEN7A
 70
     0
  3
__ . __ . __
 72
    65
 73
     4
 40
7.375
 49
4.75
 49
-0.875
 49
0.875
 49
-0.875
  0
LTYPE
  2
ACJISTGB
 70
     0
  3
__ . . __ . .
 72
    65
 73
     6
 40
9.0
 49
4.0
 49
-1.0
 49
1.0
 49
-1.0
 49
1.0
 49
-1.0
  0
LTYPE
  2
ACJISTGL
 70
     0
  3
_ _ _ _ _
 72
    65
 73
     2
 40
3.0
 49
2.0
 49
-1.0
  0
LTYPE
  2
HIDDEN
 70
     0
  3
Hidden __ __ __ __ __ __ __ __ __ __ __ __ __ _
 72
    65
 73
     2
 40
0.375
 49
0.25
 49
-0.125
  0
LTYPE
  2
CENTER2
 70
     0
  3
Center (.5x) ___ _ ___ _ ___ _ ___ _ ___ _ ___
 72
    65
 73
     4
 40
1.125
 49
0.75
 49
-0.125
 49
0.125
 49
-0.125
  0
LTYPE
  2
HIDDEN2
 70
     0
  3
Hidden (.5x) _ _ _ _ _ _ _ _ _ _ _ _ _ _ _ _ _
 72
    65
 73
     2
 40
0.1875
 49
0.125
 49
-0.0625
  0
LTYPE
  2
AMZIGZAG2
 70
     0
  3
/\/-/\/-/\/-/\/-/\/-/\/
 72
    65
 73
     2
 40
0.4401
 49
0.0001
 49
-0.4400000000000002
  0
LTYPE
  2
ACANSTGB
 70
     0
  3
__ . . __ . .
 72
    65
 73
     6
 40
0.35433070866
 49
0.15748031496
 49
-0.03937007874
 49
0.03937007874
 49
-0.03937007874
 49
0.03937007874
 49
-0.03937007874
  0
LTYPE
  2
ACANSTGL
 70
     0
  3
_ _ _ _ _
 72
    65
 73
     2
 40
0.11811023622
 49
0.07874015748
 49
-0.03937007874
  0
ENDTAB
  0
TABLE
  2
LAYER
 70
     6
  0
LAYER
  2
0
 70
     0
 62
     7
  6
CONTINUOUS
  0
LAYER
  2
AM_0
 70
     0
 62
     7
  6
CONTINUOUS
  0
LAYER
  2
AM_5
 70
     0
 62
     2
  6
CONTINUOUS
  0
LAYER
  2
DEFPOINTS
 70
     0
 62
     7
  6
CONTINUOUS
  0
LAYER
  2
ﾁｭｳｼﾝｾﾝ
 70
     0
 62
     1
  6
GEN7
  0
LAYER
  2
ﾁｭｳｼﾝｾﾝ1
 70
     0
 62
     1
  6
GEN7A
  0
ENDTAB
  0
TABLE
  2
STYLE
 70
     9
  0
STYLE
  2
STANDARD
 70
     0
 40
0.0
 41
0.8299999999999999
 50
0.0
 71
     0
 42
2.5
  3
txt.shx
  4
bigfont.shx
  0
STYLE
  2
ANNOTATIVE
 70
     0
 40
0.0
 41
1.0
 50
0.0
 71
     0
 42
0.2
  3
txt
  4

  0
STYLE
  2

 70
     1
 40
0.0
 41
1.0
 50
0.0
 71
     0
 42
2.5
  3
ltypeshp.shx
  4

  0
STYLE
  2
ACISOTS
 70
     0
 40
1.0
 41
1.0
 50
0.0
 71
     0
 42
2.5
  3
isocp.shx
  4
extfont.shx
  0
STYLE
  2
ACISOGDT
 70
     0
 40
0.0
 41
1.0
 50
0.0
 71
     0
 42
2.5
  3
amgdt.shx
  4

  0
STYLE
  2
ACANSTS
 70
     0
 40
1.0
 41
1.0
 50
0.0
 71
     0
 42
2.5
  3
romans.shx
  4
bigfont.shx
  0
STYLE
  2
ACANSGDT
 70
     0
 40
0.0
 41
1.0
 50
0.0
 71
     0
 42
2.5
  3
amgdt.shx
  4

  0
STYLE
  2
ACJISTS
 70
     0
 40
1.0
 41
1.0
 50
0.0
 71
     0
 42
2.5
  3
isocp.shx
  4
bigfont.shx
  0
STYLE
  2
ACJISGDT
 70
     0
 40
0.0
 41
1.0
 50
0.0
 71
     0
 42
2.5
  3
amgdt.shx
  4

  0
ENDTAB
  0
TABLE
  2
VIEW
 70
     6
  0
VIEW
  2
AM_VIEW1
 70
     0
 40
277.49999999999989
 10
249.64779005524841
 20
416.24999999999989
 41
499.2955801104971
 11
0.0
 21
0.0
 31
1.0
 12
0.0
 22
0.0
 32
0.0
 42
50.0
 43
0.0
 44
0.0
 50
0.0
 71
     0
  0
VIEW
  2
AM_VIEW2
 70
     0
 40
277.49999999999989
 10
603.85220994475117
 20
416.24999999999989
 41
499.2955801104971
 11
0.0
 21
0.0
 31
1.0
 12
0.0
 22
0.0
 32
0.0
 42
50.0
 43
0.0
 44
0.0
 50
0.0
 71
     0
  0
VIEW
  2
AM_VIEW3
 70
     0
 40
277.49999999999989
 10
249.64779005524841
 20
138.7499999999998
 41
499.2955801104971
 11
0.0
 21
0.0
 31
1.0
 12
0.0
 22
0.0
 32
0.0
 42
50.0
 43
0.0
 44
0.0
 50
0.0
 71
     0
  0
VIEW
  2
AM_VIEW4
 70
     0
 40
277.49999999999989
 10
603.85220994475117
 20
138.7499999999998
 41
499.2955801104971
 11
0.0
 21
0.0
 31
1.0
 12
0.0
 22
0.0
 32
0.0
 42
50.0
 43
0.0
 44
0.0
 50
0.0
 71
     0
  0
VIEW
  2
AM_VIEW5
 70
     0
 40
277.49999999999989
 10
426.75
 20
277.49999999999989
 41
499.2955801104971
 11
0.0
 21
0.0
 31
1.0
 12
0.0
 22
0.0
 32
0.0
 42
50.0
 43
0.0
 44
0.0
 50
0.0
 71
     0
  0
VIEW
  2
AM_VIEW6
 70
     0
 40
554.99445000000014
 10
426.75
 20
277.49999999999989
 41
998.5811743093924
 11
0.0
 21
0.0
 31
1.0
 12
0.0
 22
0.0
 32
0.0
 42
50.0
 43
0.0
 44
0.0
 50
0.0
 71
     0
  0
ENDTAB
  0
TABLE
  2
UCS
 70
     0
  0
ENDTAB
  0
TABLE
  2
APPID
 70
    95
  0
APPID
  2
ACAD
 70
     0
  0
APPID
  2
ACADANNOTATIVE
 70
     0
  0
APPID
  2
MCAD_NO_VIS
 70
     0
  0
APPID
  2
ACAD_TEMP_GRAPHIC
 70
     0
  0
APPID
  2
ACATTRIBSERVICES
 70
     0
  0
APPID
  2
GENIUS_GENREC_14
 70
     0
  0
APPID
  2
GENIUS_GENOBJ-N-REC_13
 70
     0
  0
APPID
  2
GENIUS_GENODEF_13
 70
     0
  0
APPID
  2
GENIUS_GENOLIS_13
 70
     0
  0
APPID
  2
GENIUS_GENOBJ-N-TIT_13
 70
     0
  0
APPID
  2
GENIUS_GENOENT_13
 70
     0
  0
APPID
  2
GENIUS_GENTITLE_13
 70
     0
  0
APPID
  2
GENIUS_GENOREF_13
 70
     0
  0
APPID
  2
GENIUS_GENSCREG_15
 70
     0
  0
APPID
  2
GENIUS_GENOBJ-N-SDF_13
 70
     0
  0
APPID
  2
GENIUS_GENFIL_13
 70
     0
  0
APPID
  2
GENIUS_GENOBJ-N-CHA_13
 70
     0
  0
APPID
  2
GENIUS_GENDTOL_13
 70
     0
  0
APPID
  2
GENIUS_GENOBJ-N-FIL_13
 70
     0
  0
APPID
  2
AD_DRAW
 70
     0
  0
APPID
  2
DESIGNERASSEMBLIES
 70
     0
  0
APPID
  2
ASURF_PCURVE_APPNAME
 70
     0
  0
APPID
  2
GENIUS_GE3SECT_13
 70
     0
  0
APPID
  2
GENIUS_GENCFG_13
 70
     0
  0
APPID
  2
GENIUS_GE3CFG0_13
 70
     0
  0
APPID
  2
GENIUS_GENCFG0_13
 70
     0
  0
APPID
  2
GENIUS_GENCFG1_13
 70
     0
  0
APPID
  2
GENIUS_GENCFG2_13
 70
     0
  0
APPID
  2
GENIUS_GENCFG3_13
 70
     0
  0
APPID
  2
GENIUS_GENCFG4_13
 70
     0
  0
APPID
  2
GENIUS_GEVCFG0_13
 70
     0
  0
APPID
  2
GENIUS_GENHINW_13
 70
     0
  0
APPID
  2
GENIUS_FIRSTVISTXT_14
 70
     0
  0
APPID
  2
GENIUS_GENOBJ-N-LEADER_13
 70
     0
  0
APPID
  2
GEV_VCCNULL_SWITCH_OFF
 70
     0
  0
APPID
  2
GENIUS_GEFCFG0_13
 70
     0
  0
APPID
  2
GENIUS_GENZVEED_13
 70
     0
  0
APPID
  2
GENIUS_GENSCREG_13
 70
     0
  0
APPID
  2
GENIUS_DUMCFG0_13
 70
     0
  0
APPID
  2
GEVID936201362
 70
     0
  0
APPID
  2
GEVDC
 70
     0
  0
APPID
  2
GEVCON
 70
     0
  0
APPID
  2
VCC
 70
     0
  0
APPID
  2
GEVPT
 70
     0
  0
APPID
  2
GEVIT
 70
     0
  0
APPID
  2
GENBH
 70
     0
  0
APPID
  2
GEVMK
 70
     0
  0
APPID
  2
GENIUS_GENBH_13
 70
     0
  0
APPID
  2
GENIUS_GENOBJ-NBEHI-BHF_13
 70
     0
  0
APPID
  2
GENIUS_GENOBJ-NBEHI-BHB_13
 70
     0
  0
APPID
  2
GENIUS_GENOBJ-F-DESC_13
 70
     0
  0
APPID
  2
GENIUS_GEFDESC_14
 70
     0
  0
APPID
  2
GENIUS_GENOBJ-F-PART_13
 70
     0
  0
APPID
  2
GENIUS_GEFSTDP_13
 70
     0
  0
APPID
  2
GENIUS_GEFPARTINS_13
 70
     0
  0
APPID
  2
GENIUS_GENTRA_14
 70
     0
  0
APPID
  2
GENIUS_GENINF13_13
 70
     0
  0
APPID
  2
GENIUS_GENOBJ-N-INFOPT_13
 70
     0
  0
APPID
  2
GENIUS_GENOBJ-N-RSSYM_13
 70
     0
  0
APPID
  2
GENIUS_GENSYMENT_13
 70
     0
  0
APPID
  2
GENIUS_GENSCSYM_13
 70
     0
  0
APPID
  2
GENIUS_GEFINFNAM_13
 70
     0
  0
APPID
  2
GENIUS_GENOBJ-N-CEN_13
 70
     0
  0
APPID
  2
GENIUS_GENOBJ-N-CRS_13
 70
     0
  0
APPID
  2
GENIUS_GENOBJ-N-CRC_13
 70
     0
  0
APPID
  2
GENIUS_GENCRC_14
 70
     0
  0
APPID
  2
GEVID942827039
 70
     0
  0
APPID
  2
GEVID942827040
 70
     0
  0
APPID
  2
GEVID942827041
 70
     0
  0
APPID
  2
GENIUS_GENOBJ-F-SCPASSM_13
 70
     0
  0
APPID
  2
GENIUS_GENDIMSH_14
 70
     0
  0
APPID
  2
GEVID942827042
 70
     0
  0
APPID
  2
GEVID946020473
 70
     0
  0
APPID
  2
GEVID946020474
 70
     0
  0
APPID
  2
GEVID946020475
 70
     0
  0
APPID
  2
GENIUS_GENOBJ-N-HTC_13
 70
     0
  0
APPID
  2
GENIUS_GENHATCH_13
 70
     0
  0
APPID
  2
GEVID948854295
 70
     0
  0
APPID
  2
GEVID939402019
 70
     0
  0
APPID
  2
GEVID952919491
 70
     0
  0
APPID
  2
GEVID952919492
 70
     0
  0
APPID
  2
GENIUS_GEFWELD_13
 70
     0
  0
APPID
  2
GENIUS_GENOBJ-F-WELS_13
 70
     0
  0
APPID
  2
GEVID952919493
 70
     0
  0
APPID
  2
GENIUS_GENOBJ-N-RSBK_13
 70
     0
  0
APPID
  2
GENIUS_GENOBJ-N-LIB_13
 70
     0
  0
APPID
  2
GENIUS_GENSCALE_13
 70
     0
  0
APPID
  2
GEVID986376691
 70
     0
  0
APPID
  2
DCO15
 70
     0
  0
APPID
  2
ACAD_DSTYLE_DIMBREAK
 70
     0
  0
APPID
  2
ACAD_DSTYLE_DIMJAG
 70
     0
  0
APPID
  2
ACAD_NAV_VCDISPLAY
 70
     0
  0
APPID
  2
ACADANNOPO
 70
     0
  0
APPID
  2
ACAD_EXEMPT_FROM_CAD_STANDARDS
 70
     0
  0
APPID
  2
ACAD_MLEADERVER
 70
     0
  0
ENDTAB
  0
TABLE
  2
DIMSTYLE
 70
    22
  0
DIMSTYLE
  2
STANDARD
 70
     0
  3

  4

  5

  6

  7

 40
1.0
 41
0.18
 42
0.0625
 43
0.38
 44
0.18
 45
0.0
 46
0.0
 47
0.0
 48
0.0
140
0.18
141
0.09
142
0.0
143
25.399999999999999
144
1.0
145
0.0
146
1.0
147
0.09
 71
     0
 72
     0
 73
     1
 74
     1
 75
     0
 76
     0
 77
     0
 78
     0
170
     0
171
     2
172
     0
173
     0
174
     0
175
     0
176
     0
177
     0
178
     0
  0
DIMSTYLE
  2
ANNOTATIVE
 70
     0
  3

  4

  5

  6

  7

 40
1.0
 41
0.18
 42
0.0625
 43
0.38
 44
0.18
 45
0.0
 46
0.0
 47
0.0
 48
0.0
140
0.18
141
0.09
142
0.0
143
25.399999999999999
144
1.0
145
0.0
146
1.0
147
0.09
 71
     0
 72
     0
 73
     1
 74
     1
 75
     0
 76
     0
 77
     0
 78
     0
170
     0
171
     2
172
     0
173
     0
174
     0
175
     0
176
     0
177
     0
178
     0
  0
DIMSTYLE
  2
AM_ISO
 70
     0
  3

  4
"
  5

  6

  7

 40
1.0
 41
2.5
 42
1.0
 43
8.0
 44
0.6
 45
0.0
 46
0.0
 47
0.1
 48
0.1
140
2.5
141
0.0
142
0.0
143
0.0393701
144
1.0
145
0.0
146
0.71
147
0.8
 71
     0
 72
     0
 73
     0
 74
     0
 75
     0
 76
     0
 77
     1
 78
     8
170
     0
171
     2
172
     1
173
     0
174
     0
175
     0
176
   256
177
   256
178
     4
  0
DIMSTYLE
  2
AM_ISO$3
 70
     0
  3

  4
"
  5

  6

  7

 40
1.0
 41
2.5
 42
1.0
 43
8.0
 44
0.6
 45
0.0
 46
0.0
 47
0.1
 48
0.1
140
2.5
141
0.0
142
0.0
143
0.0393701
144
1.0
145
0.0
146
0.71
147
0.8
 71
     0
 72
     0
 73
     0
 74
     1
 75
     0
 76
     0
 77
     1
 78
     8
170
     0
171
     2
172
     0
173
     0
174
     0
175
     0
176
   256
177
   256
178
     4
  0
DIMSTYLE
  2
AM_ISO$4
 70
     0
  3

  4
"
  5

  6

  7

 40
1.0
 41
2.5
 42
1.0
 43
8.0
 44
0.6
 45
0.0
 46
0.0
 47
0.1
 48
0.1
140
2.5
141
0.0
142
0.0
143
0.0393701
144
1.0
145
0.0
146
0.71
147
0.8
 71
     0
 72
     0
 73
     0
 74
     1
 75
     0
 76
     0
 77
     1
 78
     8
170
     0
171
     2
172
     0
173
     0
174
     0
175
     0
176
   256
177
   256
178
     4
  0
DIMSTYLE
  2
AM_ISO$6
 70
     0
  3

  4
"
  5

  6

  7

 40
1.0
 41
2.5
 42
1.0
 43
8.0
 44
0.6
 45
0.0
 46
0.0
 47
0.1
 48
0.1
140
2.5
141
0.0
142
0.0
143
0.0393701
144
1.0
145
0.0
146
0.71
147
0.8
 71
     0
 72
     0
 73
     0
 74
     0
 75
     0
 76
     0
 77
     0
 78
     8
170
     0
171
     2
172
     1
173
     0
174
     0
175
     0
176
   256
177
   256
178
     4
  0
DIMSTYLE
  2
AM_ISO$7
 70
     0
  3

  4
"
  5

  6

  7

 40
1.0
 41
2.5
 42
1.0
 43
8.0
 44
0.6
 45
0.0
 46
0.0
 47
0.1
 48
0.1
140
2.5
141
0.0
142
0.0
143
0.0393701
144
1.0
145
0.0
146
0.71
147
0.8
 71
     0
 72
     0
 73
     0
 74
     0
 75
     0
 76
     0
 77
     1
 78
     8
170
     0
171
     2
172
     1
173
     0
174
     0
175
     0
176
   256
177
   256
178
     4
  0
DIMSTYLE
  2
AM_ISO$SF
 70
     0
  3

  4
"
  5

  6

  7

 40
1.0
 41
2.5
 42
1.0
 43
10.0
 44
1.0
 45
0.0
 46
0.0
 47
0.1
 48
0.1
140
3.5
141
0.0
142
0.0
143
0.0393701
144
1.0
145
0.0
146
0.71
147
1.5
 71
     0
 72
     0
 73
     0
 74
     0
 75
     1
 76
     1
 77
     1
 78
     8
170
     0
171
     2
172
     1
173
     0
174
     0
175
     0
176
   256
177
   256
178
     2
  0
DIMSTYLE
  2
AM_ISO$SH
 70
     0
  3

  4
"
  5

  6

  7

 40
1.0
 41
2.5
 42
1.0
 43
10.0
 44
1.0
 45
0.0
 46
0.0
 47
0.1
 48
0.1
140
3.5
141
0.0
142
0.0
143
0.0393701
144
2.0
145
0.0
146
0.71
147
1.5
 71
     0
 72
     0
 73
     0
 74
     0
 75
     1
 76
     1
 77
     1
 78
     8
170
     0
171
     2
172
     1
173
     1
174
     0
175
     0
176
   256
177
   256
178
     2
  0
DIMSTYLE
  2
AM_JIS
 70
     0
  3

  4
"
  5

  6

  7

 40
1.0
 41
2.5
 42
1.0
 43
7.0
 44
1.0
 45
0.0
 46
0.0
 47
0.1
 48
0.1000000001
140
2.5
141
0.0
142
0.0
143
0.0393701
144
1.0
145
0.0
146
0.71
147
1.0
 71
     0
 72
     0
 73
     0
 74
     0
 75
     0
 76
     0
 77
     3
 78
     8
170
     0
171
     2
172
     1
173
     0
174
     0
175
     0
176
   256
177
   256
178
     4
  0
DIMSTYLE
  2
AM_JIS$3
 70
     0
  3

  4
"
  5

  6

  7

 40
1.0
 41
2.5
 42
1.0
 43
7.0
 44
1.0
 45
0.0
 46
0.0
 47
0.1
 48
0.1000000001
140
2.5
141
0.0
142
0.0
143
0.0393701
144
1.0
145
0.0
146
0.71
147
1.0
 71
     0
 72
     0
 73
     0
 74
     1
 75
     0
 76
     0
 77
     3
 78
     8
170
     0
171
     2
172
     0
173
     0
174
     0
175
     0
176
   256
177
   256
178
     4
  0
DIMSTYLE
  2
AM_JIS$4
 70
     0
  3

  4
"
  5

  6

  7

 40
1.0
 41
2.5
 42
1.0
 43
7.0
 44
1.0
 45
0.0
 46
0.0
 47
0.1
 48
0.1000000001
140
2.5
141
0.0
142
0.0
143
0.0393701
144
1.0
145
0.0
146
0.71
147
1.0
 71
     0
 72
     0
 73
     0
 74
     0
 75
     0
 76
     0
 77
     3
 78
     8
170
     0
171
     2
172
     0
173
     0
174
     0
175
     0
176
   256
177
   256
178
     4
  0
DIMSTYLE
  2
AM_JIS$6
 70
     0
  3

  4
"
  5

  6

  7

 40
1.0
 41
2.5
 42
1.0
 43
7.0
 44
1.0
 45
0.0
 46
0.0
 47
0.1
 48
0.1000000001
140
2.5
141
0.0
142
0.0
143
0.0393701
144
1.0
145
0.0
146
0.71
147
1.0
 71
     0
 72
     0
 73
     0
 74
     0
 75
     0
 76
     0
 77
     0
 78
     8
170
     0
171
     2
172
     1
173
     0
174
     0
175
     0
176
   256
177
   256
178
     4
  0
DIMSTYLE
  2
AM_JIS$7
 70
     0
  3

  4
"
  5

  6

  7

 40
1.0
 41
2.5
 42
1.0
 43
7.0
 44
1.0
 45
0.0
 46
0.0
 47
0.1
 48
0.1000000001
140
2.5
141
0.0
142
0.0
143
0.0393701
144
1.0
145
0.0
146
0.71
147
1.0
 71
     0
 72
     0
 73
     0
 74
     0
 75
     0
 76
     0
 77
     3
 78
     8
170
     0
171
     2
172
     1
173
     0
174
     0
175
     0
176
   256
177
   256
178
     4
  0
DIMSTYLE
  2
AM_JIS$SF
 70
     0
  3

  4
"
  5

  6

  7

 40
1.0
 41
2.5
 42
1.0
 43
10.0
 44
1.0
 45
0.0
 46
0.0
 47
0.1
 48
0.1
140
3.5
141
0.0
142
0.0
143
0.0393701
144
1.0
145
0.0
146
0.71
147
1.5
 71
     0
 72
     0
 73
     0
 74
     0
 75
     1
 76
     1
 77
     3
 78
     8
170
     0
171
     2
172
     1
173
     0
174
     0
175
     0
176
   256
177
   256
178
     4
  0
DIMSTYLE
  2
AM_JIS$SH
 70
     0
  3

  4
"
  5

  6

  7

 40
1.0
 41
2.5
 42
1.0
 43
10.0
 44
1.0
 45
0.0
 46
0.0
 47
0.1
 48
0.1
140
3.5
141
0.0
142
0.0
143
0.0393701
144
1.0
145
0.0
146
0.71
147
1.5
 71
     0
 72
     0
 73
     0
 74
     0
 75
     1
 76
     0
 77
     3
 78
     8
170
     0
171
     2
172
     1
173
     1
174
     0
175
     0
176
   256
177
   256
178
     4
  0
DIMSTYLE
  2
AM_ANSI
 70
     0
  3

  4
mm
  5

  6

  7

 40
1.0
 41
0.1
 42
0.05
 43
0.5
 44
0.1
 45
0.0
 46
0.0
 47
0.1
 48
0.1
140
0.12
141
0.0
142
0.0
143
25.399999999999999
144
1.0
145
0.0
146
0.71
147
0.06
 71
     0
 72
     0
 73
     1
 74
     1
 75
     0
 76
     0
 77
     0
 78
     7
170
     0
171
     2
172
     0
173
     0
174
     0
175
     0
176
   256
177
   256
178
     2
  0
DIMSTYLE
  2
AM_ANSI$3
 70
     0
  3

  4
mm
  5

  6

  7

 40
1.0
 41
0.1
 42
0.05
 43
0.5
 44
0.1
 45
0.0
 46
0.0
 47
0.1
 48
0.1
140
0.12
141
0.0
142
0.0
143
25.399999999999999
144
1.0
145
0.0
146
0.71
147
0.06
 71
     0
 72
     0
 73
     1
 74
     1
 75
     0
 76
     0
 77
     0
 78
     7
170
     0
171
     2
172
     0
173
     0
174
     0
175
     0
176
   256
177
   256
178
     2
  0
DIMSTYLE
  2
AM_ANSI$4
 70
     0
  3

  4
mm
  5

  6

  7

 40
1.0
 41
0.1
 42
0.05
 43
0.5
 44
0.1
 45
0.0
 46
0.0
 47
0.1
 48
0.1
140
0.12
141
0.0
142
0.0
143
25.399999999999999
144
1.0
145
0.0
146
0.71
147
0.06
 71
     0
 72
     0
 73
     1
 74
     1
 75
     0
 76
     0
 77
     0
 78
     7
170
     0
171
     2
172
     0
173
     0
174
     0
175
     0
176
   256
177
   256
178
     2
  0
DIMSTYLE
  2
AM_ANSI$7
 70
     0
  3

  4
mm
  5

  6

  7

 40
1.0
 41
0.1
 42
0.05
 43
0.5
 44
0.1
 45
0.0
 46
0.0
 47
0.1
 48
0.1
140
0.24
141
0.0
142
0.0
143
25.399999999999999
144
1.0
145
0.0
146
0.71
147
0.06
 71
     0
 72
     0
 73
     1
 74
     1
 75
     0
 76
     0
 77
     0
 78
     7
170
     0
171
     2
172
     0
173
     0
174
     0
175
     0
176
   256
177
   256
178
     2
  0
DIMSTYLE
  2
AM_ANSI$SF
 70
     0
  3

  4
mm
  5

  6

  7

 40
1.0
 41
0.1
 42
0.05
 43
0.5
 44
0.1
 45
0.0
 46
0.0
 47
0.1
 48
0.1
140
0.12
141
0.0
142
0.0
143
25.399999999999999
144
1.0
145
0.0
146
0.71
147
0.06
 71
     0
 72
     0
 73
     1
 74
     1
 75
     1
 76
     1
 77
     0
 78
     7
170
     0
171
     2
172
     0
173
     0
174
     0
175
     0
176
   256
177
   256
178
     2
  0
DIMSTYLE
  2
AM_ANSI$SH
 70
     0
  3

  4
mm
  5

  6

  7

 40
1.0
 41
0.1
 42
0.05
 43
0.5
 44
0.1
 45
0.0
 46
0.0
 47
0.1
 48
0.1
140
0.12
141
0.0
142
0.0
143
25.399999999999999
144
1.0
145
0.0
146
0.71
147
0.06
 71
     0
 72
     0
 73
     1
 74
     1
 75
     1
 76
     1
 77
     0
 78
     7
170
     0
171
     2
172
     0
173
     1
174
     0
175
     0
176
   256
177
   256
178
     2
  0
ENDTAB
  0
ENDSEC
  0
SECTION
  2
BLOCKS
  0
BLOCK
  8
0
  2
$MODEL_SPACE
 70
     0
 10
0.0
 20
0.0
 30
0.0
  3
$MODEL_SPACE
  1

  0
ENDBLK
  5
32DC
  8
0
  0
BLOCK
 67
     1
  8
0
  2
$PAPER_SPACE
 70
     0
 10
0.0
 20
0.0
 30
0.0
  3
$PAPER_SPACE
  1

  0
ENDBLK
  5
32D8
 67
     1
  8
0
  0
BLOCK
  8
0
  2
GENAXEH
 70
     0
 10
0.0
 20
0.0
 30
0.0
  3
GENAXEH
  1

  0
LINE
  5
30AE
  8
0
 10
-1.0
 20
0.0
 30
0.0
 11
1.0
 21
0.0
 31
0.0
  0
ENDBLK
  5
30AF
  8
0
  0
BLOCK
  8
0
  2
_OPEN30
 70
     0
 10
0.0
 20
0.0
 30
0.0
  3
_OPEN30
  1

  0
LINE
  5
30B2
  8
0
 62
     0
 10
-1.0
 20
0.26794919
 30
0.0
 11
0.0
 21
0.0
 31
0.0
  0
LINE
  5
30B3
  8
0
 62
     0
 10
0.0
 20
0.0
 30
0.0
 11
-1.0
 21
-0.26794919
 31
0.0
  0
LINE
  5
30B4
  8
0
 62
     0
 10
0.0
 20
0.0
 30
0.0
 11
-1.0
 21
0.0
 31
0.0
  0
ENDBLK
  5
30B5
  8
0
  0
BLOCK
  8
0
  2
_NONE
 70
     0
 10
0.0
 20
0.0
 30
0.0
  3
_NONE
  1

  0
ENDBLK
  5
30B8
  8
0
  0
BLOCK
  8
0
  2
_ACMFILLEDHALF
 70
     0
 10
0.0
 20
0.0
 30
0.0
  3
_ACMFILLEDHALF
  1

  0
TRACE
  5
33D2
  8
AM_0
 62
     0
 10
-0.8
 20
0.0
 30
0.0
 11
-1.0
 21
0.166666666
 31
0.0
 12
0.0
 22
0.0
 32
0.0
 13
0.0
 23
0.0
 33
0.0
  0
LINE
  5
33D3
  8
AM_0
 62
     0
 10
-1.0
 20
0.0
 30
0.0
 11
-0.8
 21
0.0
 31
0.0
  0
ENDBLK
  5
33D1
  8
0
  0
ENDSEC
  0
SECTION
  2
ENTITIES
  0
LINE
  5
30BA
  8
ﾁｭｳｼﾝｾﾝ
 10
193.05316696714701
 20
472.82018744089652
 30
0.0
 11
385.16833037977449
 21
472.82018744089652
 31
0.0
  0
LINE
  5
30BB
  8
AM_0
 10
336.94864037977447
 20
447.28584744089648
 30
0.0
 11
336.94864037977447
 21
498.35448744089649
 31
0.0
  0
LINE
  5
30BC
  8
AM_0
 10
303.94864037977459
 20
543.20915744089655
 30
0.0
 11
303.94864037977459
 21
402.43120744089663
 31
0.0
  0
LINE
  5
30BD
  8
AM_0
 10
378.94864037977447
 20
484.82018744089652
 30
0.0
 11
378.94864037977447
 21
460.82018744089652
 31
0.0
  0
LINE
  5
30BE
  8
AM_0
 10
331.94864037977447
 20
387.82018744089652
 30
0.0
 11
331.94864037977447
 21
557.82021744089661
 31
0.0
  0
LINE
  5
30BF
  8
AM_0
 10
325.94864037977447
 20
406.03883744089649
 30
0.0
 11
325.94864037977447
 21
539.60152744089658
 31
0.0
  0
LINE
  5
30C0
  8
AM_0
 10
335.94867037977451
 20
542.82018744089669
 30
0.0
 11
335.94867037977451
 21
402.8201874408964
 31
0.0
  0
LINE
  5
30C1
  8
AM_0
 10
338.94861037977432
 20
485.32015744089648
 30
0.0
 11
338.94861037977432
 21
460.3202174408965
 31
0.0
  0
LINE
  5
30C2
  8
AM_0
 10
233.9486703797744
 20
416.32018744089652
 30
0.0
 11
233.9486703797744
 21
529.3201874408968
 31
0.0
  0
LINE
  5
30C3
  8
AM_0
 10
264.9486703797744
 20
403.95180744089652
 30
0.0
 11
264.9486703797744
 21
541.6885574408966
 31
0.0
  0
LINE
  5
30C4
  8
AM_0
 10
271.94864037977442
 20
543.82018744089646
 30
0.0
 11
271.94864037977442
 21
401.82018744089652
 31
0.0
  0
LINE
  5
30C5
  8
AM_0
 10
306.8701503797746
 20
399.43224744089662
 30
0.0
 11
319.02719037977459
 21
399.11391744089661
 31
0.0
  0
LINE
  5
30C6
  8
AM_0
 10
319.49145037977462
 20
414.14232744089668
 30
0.0
 11
306.40585037977462
 21
421.87135744089642
 31
0.0
  0
LINE
  5
30C7
  8
AM_0
 10
304.94864037977447
 20
425.12206744089661
 30
0.0
 11
319.94864037977447
 21
425.12206744089661
 31
0.0
  0
LINE
  5
30C8
  8
AM_0
 10
319.49148037977449
 20
410.65810744089652
 30
0.0
 11
306.4057903797746
 21
418.38716744089652
 31
0.0
  0
LINE
  5
30C9
  8
AM_0
 10
233.9486703797744
 20
440.88024744089648
 30
0.0
 11
264.9486703797744
 21
440.88024744089648
 31
0.0
  0
LINE
  5
30CA
  8
AM_0
 10
261.94864037977447
 20
407.60890744089647
 30
0.0
 11
262.9486703797744
 21
407.60890744089647
 31
0.0
  0
LINE
  5
30CB
  8
AM_0
 10
233.9486703797744
 20
426.81987744089668
 30
0.0
 11
264.9486703797744
 21
426.81987744089668
 31
0.0
  0
LINE
  5
30CC
  8
AM_0
 10
259.9486703797744
 20
416.13933744089661
 30
0.0
 11
233.94870037977441
 21
416.82018744089669
 31
0.0
  0
LINE
  5
30CD
  8
AM_0
 10
259.94864037977447
 20
409.60890744089647
 30
0.0
 11
259.94864037977447
 21
424.81987744089662
 31
0.0
  0
ARC
  5
30CE
  8
AM_0
 10
261.94864037977447
 20
409.60890744089647
 30
0.0
 40
2.0
 50
180.00001000000091
 51
270.0
  0
ARC
  5
30CF
  8
AM_0
 10
257.94864037977447
 20
424.81987744089662
 30
0.0
 40
2.0
 50
0.0
 51
90.000003000000945
  0
LINE
  5
30D0
  8
AM_0
 10
302.97226037977453
 20
401.00777744089652
 30
0.0
 11
271.94864037977442
 21
401.82015744089648
 31
0.0
  0
ARC
  5
30D1
  8
AM_0
 10
266.9486703797744
 20
403.95180744089652
 30
0.0
 40
2.0
 50
180.00001000000091
 51
268.5000000000004
  0
LINE
  5
30D2
  8
AM_0
 10
271.9486703797744
 20
401.82018744089652
 30
0.0
 11
266.89633037977461
 21
401.95247744089647
 31
0.0
  0
ARC
  5
30D3
  8
AM_0
 10
262.9486703797744
 20
405.60890744089647
 30
0.0
 40
2.0
 50
0.0
 51
90.000003000000945
  0
ARC
  5
30D4
  8
AM_0
 10
306.94864037977447
 20
402.43120744089663
 30
0.0
 40
3.0
 50
179.9999899999988
 51
268.50000999999872
  0
ARC
  5
30D5
  8
AM_0
 10
302.89371037977452
 20
398.00881744089662
 30
0.0
 40
3.0
 50
47.481952000001627
 51
88.499997000000747
  0
ARC
  5
30D6
  8
AM_0
 10
308.94864037977447
 20
422.69225744089641
 30
0.0
 40
5.0
 50
179.9999899999988
 51
239.431710000001
  0
ARC
  5
30D7
  8
AM_0
 10
304.94864037977447
 20
426.1220674408965
 30
0.0
 40
1.0
 50
179.9999899999988
 51
270.0
  0
ARC
  5
30D8
  8
AM_0
 10
308.94864037977447
 20
426.17650744089661
 30
0.0
 40
5.0
 50
179.9999899999988
 51
239.431710000001
  0
LINE
  5
30D9
  8
AM_0
 10
321.94864037977447
 20
430.86852744089663
 30
0.0
 11
321.94864037977447
 21
390.1007974408966
 31
0.0
  0
ARC
  5
30DA
  8
AM_0
 10
323.94867037977451
 20
390.1007974408966
 30
0.0
 40
2.0
 50
179.9999899999988
 51
268.00000999999861
  0
LINE
  5
30DB
  8
AM_0
 10
323.87881037977451
 20
388.10198744089661
 30
0.0
 11
331.94861037977449
 21
387.82018744089652
 31
0.0
  0
LINE
  5
30DC
  8
AM_0
 10
338.94861037977432
 20
460.82018744089652
 30
0.0
 11
378.94864037977447
 21
460.82018744089652
 31
0.0
  0
LINE
  5
30DD
  8
AM_0
 10
331.94864037977447
 20
402.8201874408964
 30
0.0
 11
335.94867037977451
 21
402.8201874408964
 31
0.0
  0
ARC
  5
30DE
  8
AM_0
 10
316.94864037977447
 20
409.8372174408965
 30
0.0
 40
5.0
 50
0.0
 51
59.431709000000481
  0
ARC
  5
30DF
  8
AM_0
 10
322.94864037977447
 20
406.03883744089649
 30
0.0
 40
3.0
 50
270.0
 51
0.0
  0
ARC
  5
30E0
  8
AM_0
 10
318.94864037977447
 20
396.11492744089668
 30
0.0
 40
3.0
 50
0.0
 51
88.499997000000747
  0
ARC
  5
30E1
  8
AM_0
 10
316.94864037977447
 20
406.35295744089649
 30
0.0
 40
5.0
 50
0.0
 51
59.431709000000481
  0
ARC
  5
30E2
  8
AM_0
 10
319.94864037977447
 20
423.12206744089661
 30
0.0
 40
2.0
 50
0.0
 51
90.000003000000945
  0
ARC
  5
30E3
  8
AM_0
 10
324.94864037977459
 20
430.86852744089663
 30
0.0
 40
3.0
 50
90.000003000000945
 51
180.00001000000091
  0
ARC
  5
30E4
  8
AM_0
 10
335.94864037977447
 20
447.28584744089648
 30
0.0
 40
1.0
 50
272.0000000000004
 51
0.0
  0
LINE
  5
30E5
  8
AM_0
 10
335.94867037977451
 20
446.2852674408964
 30
0.0
 11
335.98355037977461
 21
446.28649744089648
 31
0.0
  0
LINE
  5
30E6
  8
AM_0
 10
336.94864037977447
 20
460.3202174408965
 30
0.0
 11
338.94861037977432
 21
460.3202174408965
 31
0.0
  0
LINE
  5
30E7
  8
AM_0
 10
304.94864037977447
 20
520.51830744089648
 30
0.0
 11
319.94864037977447
 21
520.51830744089648
 31
0.0
  0
LINE
  5
30E8
  8
AM_0
 10
306.87012037977451
 20
546.20812744089665
 30
0.0
 11
319.0271603797745
 21
546.52648744089663
 31
0.0
  0
LINE
  5
30E9
  8
AM_0
 10
319.49148037977449
 20
531.49803744089661
 30
0.0
 11
306.40582037977453
 21
523.76897744089638
 31
0.0
  0
LINE
  5
30EA
  8
AM_0
 10
319.49148037977449
 20
534.98226744089663
 30
0.0
 11
306.40582037977453
 21
527.25319744089666
 31
0.0
  0
ARC
  5
30EB
  8
AM_0
 10
266.9486703797744
 20
541.6885574408966
 30
0.0
 40
2.0
 50
91.500001000001546
 51
180.00001000000091
  0
LINE
  5
30EC
  8
AM_0
 10
233.9486703797744
 20
504.7601274408965
 30
0.0
 11
264.9486703797744
 21
504.7601274408965
 31
0.0
  0
LINE
  5
30ED
  8
AM_0
 10
261.94864037977447
 20
538.03148744089651
 30
0.0
 11
262.9486703797744
 21
538.03148744089651
 31
0.0
  0
LINE
  5
30EE
  8
AM_0
 10
233.9486703797744
 20
518.82048744089661
 30
0.0
 11
264.9486703797744
 21
518.82048744089661
 31
0.0
  0
LINE
  5
30EF
  8
AM_0
 10
259.9486703797744
 20
529.50099744089675
 30
0.0
 11
233.94870037977441
 21
528.8201874408968
 31
0.0
  0
LINE
  5
30F0
  8
AM_0
 10
259.94864037977447
 20
536.03148744089663
 30
0.0
 11
259.94864037977447
 21
520.8204874408965
 31
0.0
  0
ARC
  5
30F1
  8
AM_0
 10
257.94864037977447
 20
520.8204874408965
 30
0.0
 40
2.0
 50
270.0
 51
0.0
  0
ARC
  5
30F2
  8
AM_0
 10
261.94864037977447
 20
536.03148744089663
 30
0.0
 40
2.0
 50
90.000003000000945
 51
180.00001000000091
  0
ARC
  5
30F3
  8
AM_0
 10
262.9486703797744
 20
540.03148744089663
 30
0.0
 40
2.0
 50
270.0
 51
0.0
  0
ARC
  5
30F4
  8
AM_0
 10
308.94864037977447
 20
519.46385744089662
 30
0.0
 40
5.0
 50
120.5682899999989
 51
180.00001000000091
  0
ARC
  5
30F5
  8
AM_0
 10
308.94864037977447
 20
522.94811744089668
 30
0.0
 40
5.0
 50
120.5682899999989
 51
180.00001000000091
  0
ARC
  5
30F6
  8
AM_0
 10
304.94864037977447
 20
519.51830744089671
 30
0.0
 40
1.0
 50
90.000003000000945
 51
180.00001000000091
  0
LINE
  5
30F7
  8
AM_0
 10
302.9722303797746
 20
544.63255744089645
 30
0.0
 11
271.94864037977442
 21
543.82018744089646
 31
0.0
  0
LINE
  5
30F8
  8
AM_0
 10
271.94864037977442
 20
543.82018744089646
 30
0.0
 11
266.89633037977461
 21
543.68788744089636
 31
0.0
  0
ARC
  5
30F9
  8
AM_0
 10
302.89371037977452
 20
547.63152744089678
 30
0.0
 40
3.0
 50
271.4999999999992
 51
312.51811999999887
  0
ARC
  5
30FA
  8
AM_0
 10
306.94864037977447
 20
543.20915744089655
 30
0.0
 40
3.0
 50
91.500001000001546
 51
180.00001000000091
  0
ARC
  5
30FB
  8
AM_0
 10
322.94864037977447
 20
539.60152744089658
 30
0.0
 40
3.0
 50
0.0
 51
90.000003000000945
  0
LINE
  5
30FC
  8
AM_0
 10
321.94864037977447
 20
514.77184744089664
 30
0.0
 11
321.94864037977447
 21
555.53957744089666
 31
0.0
  0
LINE
  5
30FD
  8
AM_0
 10
346.94864037977442
 20
476.82015744089648
 30
0.0
 11
378.94864037977447
 21
476.82015744089648
 31
0.0
  0
LINE
  5
30FE
  8
AM_0
 10
346.94864037977442
 20
468.82018744089652
 30
0.0
 11
378.94864037977447
 21
468.82018744089652
 31
0.0
  0
LINE
  5
30FF
  8
AM_0
 10
338.94861037977432
 20
484.82018744089652
 30
0.0
 11
378.94864037977447
 21
484.82018744089652
 31
0.0
  0
ARC
  5
3100
  8
AM_0
 10
346.94864037977442
 20
472.82015744089648
 30
0.0
 40
3.9999962
 50
90.000003000000945
 51
270.0
  0
LINE
  5
3101
  8
AM_0
 10
346.94864037977442
 20
476.82015744089648
 30
0.0
 11
346.94864037977442
 21
468.82018744089652
 31
0.0
  0
LINE
  5
3102
  8
AM_0
 10
336.94864037977447
 20
485.32015744089648
 30
0.0
 11
338.94861037977432
 21
485.32015744089648
 31
0.0
  0
ARC
  5
3103
  8
AM_0
 10
335.94864037977447
 20
498.35448744089649
 30
0.0
 40
1.0
 50
0.0
 51
87.999999999999659
  0
LINE
  5
3104
  8
AM_0
 10
335.94867037977451
 20
499.35509744089649
 30
0.0
 11
335.98352037977452
 21
499.35387744089678
 31
0.0
  0
LINE
  5
3105
  8
AM_0
 10
331.94864037977447
 20
542.82018744089669
 30
0.0
 11
335.94867037977451
 21
542.82018744089669
 31
0.0
  0
ARC
  5
3106
  8
AM_0
 10
324.94864037977459
 20
514.77184744089664
 30
0.0
 40
3.0
 50
179.9999899999988
 51
270.0
  0
ARC
  5
3107
  8
AM_0
 10
319.94864037977447
 20
522.51830744089671
 30
0.0
 40
2.0
 50
270.0
 51
0.0
  0
ARC
  5
3108
  8
AM_0
 10
316.94864037977447
 20
535.80315744089671
 30
0.0
 40
5.0
 50
300.56828999999891
 51
0.0
  0
ARC
  5
3109
  8
AM_0
 10
316.94864037977447
 20
539.28740744089657
 30
0.0
 40
5.0
 50
300.56828999999891
 51
0.0
  0
ARC
  5
310A
  8
AM_0
 10
323.94867037977451
 20
555.53957744089666
 30
0.0
 40
2.0
 50
91.999998000000545
 51
180.00001000000091
  0
ARC
  5
310B
  8
AM_0
 10
318.94864037977447
 20
549.52544744089664
 30
0.0
 40
3.0
 50
271.4999999999992
 51
0.0
  0
LINE
  5
310C
  8
AM_0
 10
323.87881037977451
 20
557.53841744089664
 30
0.0
 11
331.94864037977447
 21
557.82021744089661
 31
0.0
  0
LINE
  5
310D
  8
AM_0
 10
338.94859037977432
 20
259.04769188729318
 30
0.0
 11
378.94864037977442
 21
259.04769188729318
 31
0.0
  0
LINE
  5
310E
  8
AM_0
 10
338.94859037977432
 20
235.0476918872931
 30
0.0
 11
378.94864037977442
 21
235.0476918872931
 31
0.0
  0
LINE
  5
310F
  8
AM_0
 10
346.94860037977452
 20
262.04769188729318
 30
0.0
 11
378.94864037977442
 21
262.04769188729318
 31
0.0
  0
LINE
  5
3110
  8
ﾁｭｳｼﾝｾﾝ
 10
382.66111037977441
 20
247.04769188729321
 30
0.0
 11
250.99897768308011
 21
247.04769188729321
 31
0.0
  0
LINE
  5
3111
  8
AM_0
 10
336.94864037977447
 20
221.09835188729321
 30
0.0
 11
336.94864037977447
 21
273.07640888729321
 31
0.0
  0
LINE
  5
3112
  8
AM_0
 10
325.94860037977458
 20
182.76631688729319
 30
0.0
 11
325.94860037977458
 21
313.8290088872933
 31
0.0
  0
LINE
  5
3113
  8
AM_0
 10
303.94864037977459
 20
311.12165888729322
 30
0.0
 11
303.94864037977459
 21
265.89254288729302
 31
0.0
  0
LINE
  5
3114
  8
AM_0
 10
331.94860037977452
 20
164.54764388729311
 30
0.0
 11
331.94860037977452
 21
332.04767888729322
 31
0.0
  0
LINE
  5
3115
  8
AM_0
 10
264.9486703797744
 20
268.54201688729302
 30
0.0
 11
264.9486703797744
 21
158.04765788729301
 31
0.0
  0
LINE
  5
3116
  8
AM_0
 10
271.9486003797744
 20
298.04769488729329
 30
0.0
 11
271.9486003797744
 21
153.54765788729301
 31
0.0
  0
LINE
  5
3117
  8
AM_0
 10
233.94865037977439
 20
170.5476758872932
 30
0.0
 11
233.94865037977439
 21
283.54767588729322
 31
0.0
  0
LINE
  5
3118
  8
AM_0
 10
259.9486003797744
 20
276.71480588729321
 30
0.0
 11
259.9486003797744
 21
257.07570788729322
 31
0.0
  0
LINE
  5
3119
  8
0
 10
212.94865037977439
 20
305.04767588729322
 30
0.0
 11
212.94865037977439
 21
149.04767588729311
 31
0.0
1001
GENIUS_GENOREF_13
1005
2DDA
  0
LINE
  5
311A
  8
0
 10
202.94865037977439
 20
147.04767588729311
 30
0.0
 11
202.94865037977439
 21
307.04767588729322
 31
0.0
1001
GENIUS_GENOREF_13
1005
2DDA
  0
LINE
  5
311B
  8
AM_0
 10
233.94865037977439
 20
258.98511488729321
 30
0.0
 11
212.94865037977439
 21
258.98511488729321
 31
0.0
  0
LINE
  5
311C
  8
AM_0
 10
233.94865037977439
 20
181.0476588872933
 30
0.0
 11
212.94865037977439
 21
181.0476588872933
 31
0.0
  0
LINE
  5
311D
  8
AM_0
 10
233.94865037977439
 20
195.1102338872933
 30
0.0
 11
212.94865037977439
 21
195.1102338872933
 31
0.0
  0
LINE
  5
311E
  8
0
 10
214.87885138636929
 20
169.8817438323905
 30
0.0
 11
233.94865037977439
 21
170.5476758872932
 31
0.0
  0
LINE
  5
311F
  8
ﾁｭｳｼﾝｾﾝ
 10
193.05316696714701
 20
227.04767588729311
 30
0.0
 11
268.94971561404509
 21
227.04767588729311
 31
0.0
  0
LINE
  5
3120
  8
0
 10
202.94865037977439
 20
147.04767588729311
 30
0.0
 11
210.94865037977439
 21
147.04767588729311
 31
0.0
  0
ARC
  5
3121
  8
0
 10
210.94865037977439
 20
149.04767588729311
 30
0.0
 40
2.0
 50
270.0
 51
0.0
1001
GENIUS_GENOBJ-N-FIL_13
1002
{
1000
OWNER
1000
GEN
1002
}
1001
GENIUS_GENODEF_13
1002
{
1000
HIER
1070
     0
1002
}
1002
{
1000
MANEDIT
1070
     0
1002
}
1002
{
1000
NOSEL
1070
     0
1002
}
1002
{
1000
BEHIND
1070
     0
1002
}
1002
{
1000
OTHER
1070
     0
1002
}
1002
{
1000
REACTOR
1002
}
  0
ARC
  5
3122
  8
0
 10
214.94865037977439
 20
167.8829621783523
 30
0.0
 40
2.0
 50
92.000000000000341
 51
180.0
1001
GENIUS_GENOBJ-N-FIL_13
1002
{
1000
OWNER
1000
GEN
1002
}
1001
GENIUS_GENODEF_13
1002
{
1000
HIER
1070
     0
1002
}
1002
{
1000
MANEDIT
1070
     0
1002
}
1002
{
1000
NOSEL
1070
     0
1002
}
1002
{
1000
BEHIND
1070
     0
1002
}
1002
{
1000
OTHER
1070
     0
1002
}
1002
{
1000
REACTOR
1002
}
  0
ARC
  5
3123
  8
AM_0
 10
322.94860037977452
 20
182.76631688729319
 30
0.0
 40
3.0
 50
270.0
 51
0.0
  0
LINE
  5
3124
  8
AM_0
 10
335.94862037977452
 20
247.04769188729321
 30
0.0
 11
335.94862037977452
 21
177.04765988729321
 31
0.0
  0
LINE
  5
3125
  8
AM_0
 10
321.94864037977447
 20
166.82823788729289
 30
0.0
 11
321.94864037977447
 21
199.89333188729319
 31
0.0
  0
LINE
  5
3126
  8
AM_0
 10
271.9486003797744
 20
164.1775878872931
 30
0.0
 11
307.94860037977452
 21
164.1775878872931
 31
0.0
  0
LINE
  5
3127
  8
AM_0
 10
271.9486003797744
 20
153.54765788729301
 30
0.0
 11
307.94866037977431
 21
152.04765788729321
 31
0.0
  0
ARC
  5
3128
  8
AM_0
 10
261.94867037977423
 20
155.54765888729301
 30
0.0
 40
2.00000007
 50
179.9999899999988
 51
270.0
  0
LINE
  5
3129
  8
AM_0
 10
259.9486003797744
 20
177.8319168872932
 30
0.0
 11
264.9486703797744
 21
177.8319168872932
 31
0.0
  0
LINE
  5
312A
  8
AM_0
 10
259.9486003797744
 20
175.83191588729321
 30
0.0
 11
259.9486003797744
 21
155.54765888729301
 31
0.0
  0
LINE
  5
312B
  8
AM_0
 10
233.94865037977439
 20
171.04765988729301
 30
0.0
 11
257.02714037977461
 21
170.44333388729319
 31
0.0
  0
ARC
  5
312C
  8
AM_0
 10
256.9486003797744
 20
167.44435688729311
 30
0.0
 40
3.0
 50
0.0
 51
88.499997000000747
  0
ARC
  5
312D
  8
AM_0
 10
257.94865037977439
 20
175.83191588729321
 30
0.0
 40
2.00000007
 50
0.0
 51
90.000003000000945
  0
LINE
  5
312E
  8
AM_0
 10
261.94867037977423
 20
153.54765788729301
 30
0.0
 11
271.9486003797744
 21
153.54765788729301
 31
0.0
  0
LINE
  5
312F
  8
AM_0
 10
266.94865037977439
 20
156.04765988729309
 30
0.0
 11
271.9486003797744
 21
156.04765988729309
 31
0.0
  0
ARC
  5
3130
  8
AM_0
 10
266.94865037977439
 20
158.04765788729301
 30
0.0
 40
2.00000007
 50
179.9999899999988
 51
270.0
  0
LINE
  5
3131
  8
AM_0
 10
323.87884037977432
 20
164.8294578872931
 30
0.0
 11
331.94863037977427
 21
164.5476588872931
 31
0.0
  0
LINE
  5
3132
  8
AM_0
 10
307.94860037977452
 20
167.45813588729311
 30
0.0
 11
307.94860037977452
 21
152.04765788729321
 31
0.0
  0
LINE
  5
3133
  8
AM_0
 10
308.92246037977418
 20
168.45779888729311
 30
0.0
 11
321.94864037977447
 21
168.7988958872931
 31
0.0
  0
ARC
  5
3134
  8
AM_0
 10
308.94862037977452
 20
167.45813588729311
 30
0.0
 40
1.0000000199999981
 50
91.500001000001546
 51
180.00001000000091
  0
ARC
  5
3135
  8
AM_0
 10
323.94862037977452
 20
166.82823788729289
 30
0.0
 40
2.00000007
 50
179.9999899999988
 51
268.00000999999861
  0
LINE
  5
3136
  8
AM_0
 10
331.94860037977452
 20
177.04765988729321
 30
0.0
 11
335.94862037977452
 21
177.04765988729321
 31
0.0
  0
LINE
  5
3137
  8
AM_0
 10
233.94865037977439
 20
181.0476738872932
 30
0.0
 11
264.9486703797744
 21
181.0476738872932
 31
0.0
  0
LINE
  5
3138
  8
AM_0
 10
233.94865037977439
 20
195.11064788729311
 30
0.0
 11
264.9486703797744
 21
195.11064788729311
 31
0.0
  0
LINE
  5
3139
  8
AM_0
 10
259.9486003797744
 20
255.07572188729321
 30
0.0
 11
264.9486703797744
 21
255.07572188729321
 31
0.0
  0
LINE
  5
313A
  8
AM_0
 10
233.94865037977439
 20
258.98467388729318
 30
0.0
 11
259.9486003797744
 21
258.98467388729318
 31
0.0
  0
ARC
  5
313B
  8
AM_0
 10
257.94865037977439
 20
257.07570788729322
 30
0.0
 40
2.00000007
 50
270.0
 51
0.0
  0
ARC
  5
313C
  8
AM_0
 10
324.94864037977459
 20
199.89333188729319
 30
0.0
 40
3.0
 50
90.000003000000945
 51
180.00001000000091
  0
ARC
  5
313D
  8
AM_0
 10
333.94864037977447
 20
221.09835188729321
 30
0.0
 40
3.0
 50
311.81031000000121
 51
0.0
  0
LINE
  5
313E
  8
AM_0
 10
308.94862037977452
 20
260.89252688729317
 30
0.0
 11
323.1793903797743
 21
260.89252688729317
 31
0.0
  0
ARC
  5
313F
  8
AM_0
 10
308.94862037977452
 20
265.89254288729302
 30
0.0
 40
5.0000001000000003
 50
179.9999899999988
 51
270.0
  0
LINE
  5
3140
  8
AM_0
 10
338.94859037977432
 20
259.54767788729322
 30
0.0
 11
338.94859037977432
 21
234.54769088729319
 31
0.0
  0
LINE
  5
3141
  8
AM_0
 10
336.94864037977447
 20
234.54769088729319
 30
0.0
 11
338.94859037977432
 21
234.54769088729319
 31
0.0
  0
LINE
  5
3142
  8
AM_0
 10
335.94862037977452
 20
247.04769188729321
 30
0.0
 11
335.94862037977452
 21
258.8506398872932
 31
0.0
  0
LINE
  5
3143
  8
AM_0
 10
331.94860037977452
 20
258.8506398872932
 30
0.0
 11
335.94862037977452
 21
258.8506398872932
 31
0.0
  0
LINE
  5
3144
  8
AM_0
 10
336.94864037977447
 20
259.54767788729322
 30
0.0
 11
338.94859037977432
 21
259.54767788729322
 31
0.0
  0
LINE
  5
3145
  8
AM_0
 10
346.94860037977452
 20
262.04769188729318
 30
0.0
 11
346.94860037977452
 21
259.04769188729318
 31
0.0
  0
LINE
  5
3146
  8
AM_0
 10
233.94865037977439
 20
273.04767488729323
 30
0.0
 11
212.94865037977439
 21
273.04767488729323
 31
0.0
  0
LINE
  5
3147
  8
0
 10
214.87885138636929
 20
284.21360794219572
 30
0.0
 11
233.94865037977439
 21
283.54767588729322
 31
0.0
  0
ARC
  5
3148
  8
0
 10
214.94865037977439
 20
286.212389596234
 30
0.0
 40
2.0
 50
180.0
 51
267.9999999999996
1001
GENIUS_GENOBJ-N-FIL_13
1002
{
1000
OWNER
1000
GEN
1002
}
1001
GENIUS_GENODEF_13
1002
{
1000
HIER
1070
     0
1002
}
1002
{
1000
MANEDIT
1070
     0
1002
}
1002
{
1000
NOSEL
1070
     0
1002
}
1002
{
1000
BEHIND
1070
     0
1002
}
1002
{
1000
OTHER
1070
     0
1002
}
1002
{
1000
REACTOR
1002
}
  0
LINE
  5
3149
  8
0
 10
202.94865037977439
 20
307.04767588729322
 30
0.0
 11
210.94865037977439
 21
307.04767588729322
 31
0.0
  0
ARC
  5
314A
  8
0
 10
210.94865037977439
 20
305.04767588729322
 30
0.0
 40
2.0
 50
0.0
 51
90.0
1001
GENIUS_GENOBJ-N-FIL_13
1002
{
1000
OWNER
1000
GEN
1002
}
1001
GENIUS_GENODEF_13
1002
{
1000
HIER
1070
     0
1002
}
1002
{
1000
MANEDIT
1070
     0
1002
}
1002
{
1000
NOSEL
1070
     0
1002
}
1002
{
1000
BEHIND
1070
     0
1002
}
1002
{
1000
OTHER
1070
     0
1002
}
1002
{
1000
REACTOR
1002
}
  0
LINE
  5
314B
  8
AM_0
 10
271.9486003797744
 20
275.84472188729319
 30
0.0
 11
302.26690037977448
 21
275.84472188729319
 31
0.0
  0
LINE
  5
314C
  8
AM_0
 10
271.94866037977442
 20
298.04766188729292
 30
0.0
 11
301.02715037977453
 21
298.80910688729318
 31
0.0
  0
ARC
  5
314D
  8
AM_0
 10
259.9486003797744
 20
288.73021988729317
 30
0.0
 40
5.0000001000000003
 50
271.4999999999992
 51
0.0
  0
ARC
  5
314E
  8
AM_0
 10
261.94867037977423
 20
276.71480588729321
 30
0.0
 40
2.00000007
 50
90.000003000000945
 51
180.00001000000091
  0
ARC
  5
314F
  8
AM_0
 10
261.94867037977423
 20
272.54201588729302
 30
0.0
 40
2.00000007
 50
179.9999899999988
 51
270.0
  0
LINE
  5
3150
  8
AM_0
 10
233.94865037977439
 20
273.04766288729297
 30
0.0
 11
259.9486003797744
 21
273.04766288729297
 31
0.0
  0
LINE
  5
3151
  8
AM_0
 10
233.94865037977439
 20
283.0476618872932
 30
0.0
 11
260.07952037977441
 21
283.73192888729312
 31
0.0
  0
LINE
  5
3152
  8
AM_0
 10
264.9486703797744
 20
296.0476638872932
 30
0.0
 11
264.9486703797744
 21
280.71483788729302
 31
0.0
  0
ARC
  5
3153
  8
AM_0
 10
262.9486003797744
 20
268.54201688729302
 30
0.0
 40
2.00000007
 50
0.0
 51
90.000003000000945
  0
LINE
  5
3154
  8
AM_0
 10
261.94867037977423
 20
270.54201788729318
 30
0.0
 11
262.9486003797744
 21
270.54201788729318
 31
0.0
  0
ARC
  5
3155
  8
AM_0
 10
262.9486003797744
 20
280.71483788729302
 30
0.0
 40
2.00000007
 50
270.0
 51
0.0
  0
LINE
  5
3156
  8
AM_0
 10
261.94867037977423
 20
278.71483688729302
 30
0.0
 11
262.9486003797744
 21
278.71483688729302
 31
0.0
  0
LINE
  5
3157
  8
AM_0
 10
266.94865037977439
 20
298.04769488729329
 30
0.0
 11
271.9486003797744
 21
298.04769488729329
 31
0.0
  0
ARC
  5
3158
  8
AM_0
 10
266.94865037977439
 20
296.0476638872932
 30
0.0
 40
2.00000007
 50
90.000003000000945
 51
180.00001000000091
  0
LINE
  5
3159
  8
AM_0
 10
335.94862037977452
 20
285.67229588729322
 30
0.0
 11
335.94862037977452
 21
317.04764888729312
 31
0.0
  0
LINE
  5
315A
  8
AM_0
 10
321.94864037977447
 20
288.99935288729318
 30
0.0
 11
321.94864037977447
 21
329.76707888729322
 31
0.0
  0
ARC
  5
315B
  8
AM_0
 10
319.40470037977451
 20
286.70482988729322
 30
0.0
 40
3.0
 50
22.483536000001401
 51
90.000003000000945
  0
ARC
  5
315C
  8
AM_0
 10
324.94864037977459
 20
288.99935288729318
 30
0.0
 40
3.0
 50
179.9999899999988
 51
270.0
  0
LINE
  5
315D
  8
AM_0
 10
305.39680037977422
 20
286.77636188729292
 30
0.0
 11
322.43407037977431
 21
286.77636188729292
 31
0.0
  0
LINE
  5
315E
  8
AM_0
 10
305.94862037977452
 20
289.7048298872931
 30
0.0
 11
319.40470037977451
 21
289.7048298872931
 31
0.0
  0
LINE
  5
315F
  8
AM_0
 10
303.94864037977459
 20
293.28133688729321
 30
0.0
 11
320.27776037977418
 21
301.35115988729308
 31
0.0
  0
ARC
  5
3160
  8
AM_0
 10
300.94867037977423
 20
301.80809888729323
 30
0.0
 40
3.0
 50
271.4999999999992
 51
0.0
  0
ARC
  5
3161
  8
AM_0
 10
305.94862037977452
 20
291.70482788729322
 30
0.0
 40
2.00000007
 50
179.9999899999988
 51
270.0
  0
ARC
  5
3162
  8
AM_0
 10
318.94864037977447
 20
304.04064488729318
 30
0.0
 40
3.0
 50
296.29842999999852
 51
0.0
  0
LINE
  5
3163
  8
AM_0
 10
332.66086037977431
 20
279.27831488729322
 30
0.0
 11
335.94862037977452
 21
275.36010188729318
 31
0.0
  0
ARC
  5
3164
  8
AM_0
 10
333.94864037977447
 20
273.07640888729321
 30
0.0
 40
3.0
 50
0.0
 51
39.999999000000287
  0
LINE
  5
3165
  8
AM_0
 10
335.94862037977452
 20
275.36010188729318
 30
0.0
 11
336.24676037977417
 21
275.00478488729323
 31
0.0
  0
LINE
  5
3166
  8
AM_0
 10
331.94860037977452
 20
285.67229588729322
 30
0.0
 11
335.94862037977452
 21
285.67229588729322
 31
0.0
  0
ARC
  5
3167
  8
AM_0
 10
330.36274037977449
 20
277.34993888729321
 30
0.0
 40
3.0
 50
39.999999000000287
 51
58.08679700000102
  0
LINE
  5
3168
  8
AM_0
 10
323.87881037977462
 20
331.76585888729312
 30
0.0
 11
331.94860037977452
 21
332.04767888729322
 31
0.0
  0
LINE
  5
3169
  8
AM_0
 10
309.2741203797745
 20
316.11860888729308
 30
0.0
 11
319.05334037977423
 21
316.46009888729321
 31
0.0
  0
ARC
  5
316A
  8
AM_0
 10
308.94862037977452
 20
311.12165888729322
 30
0.0
 40
5.0000001000000003
 50
91.999998000000545
 51
180.00001000000091
  0
ARC
  5
316B
  8
AM_0
 10
318.94864037977447
 20
319.45826888729317
 30
0.0
 40
3.0
 50
272.0000000000004
 51
0.0
  0
ARC
  5
316C
  8
AM_0
 10
322.94860037977452
 20
313.8290088872933
 30
0.0
 40
3.0
 50
0.0
 51
90.000003000000945
  0
ARC
  5
316D
  8
AM_0
 10
323.94862037977452
 20
329.76707888729322
 30
0.0
 40
2.00000007
 50
91.999998000000545
 51
180.00001000000091
  0
LINE
  5
316E
  8
AM_0
 10
331.94860037977452
 20
317.04764888729312
 30
0.0
 11
335.94862037977452
 21
317.04764888729312
 31
0.0
  0
LINE
  5
316F
  8
AM_0
 10
461.29913470366199
 20
277.04769188729318
 30
0.0
 11
461.29913470366199
 21
247.04769188729321
 31
0.0
  0
LINE
  5
3170
  8
AM_0
 10
631.29910870366211
 20
277.04769188729318
 30
0.0
 11
631.29910870366211
 21
247.04769188729321
 31
0.0
  0
LINE
  5
3171
  8
AM_0
 10
493.73767270366199
 20
271.79167988729318
 30
0.0
 11
490.86267070366227
 21
266.81203688729329
 31
0.0
  0
LINE
  5
3172
  8
AM_0
 10
485.11267270366199
 20
266.81200688729302
 30
0.0
 11
482.23767070366227
 21
271.7916498872932
 31
0.0
  0
LINE
  5
3173
  8
AM_0
 10
610.36061470366212
 20
271.79161988729322
 30
0.0
 11
607.48561570366246
 21
266.81194388729318
 31
0.0
  0
LINE
  5
3174
  8
AM_0
 10
601.73561470366212
 20
266.81194388729318
 30
0.0
 11
598.86061570366235
 21
271.79161988729322
 31
0.0
  0
ARC
  5
3175
  8
AM_0
 10
604.61056870366235
 20
271.79167988729318
 30
0.0
 40
11.000000399999999
 50
311.14394000000038
 51
94.843180000001766
  0
ARC
  5
3176
  8
AM_0
 10
487.9876717036621
 20
271.79167988729318
 30
0.0
 40
11.000000399999999
 50
85.156818000000143
 51
228.85605999999939
  0
ARC
  5
3177
  8
AM_0
 10
546.29910670366235
 20
247.04769188729321
 30
0.0
 40
52.000007999999987
 50
137.75566999999961
 51
174.78408999999971
  0
ARC
  5
3178
  8
AM_0
 10
546.29910670366235
 20
247.04769188729321
 30
0.0
 40
52.000007999999987
 50
5.215907700001436
 51
42.244334000000627
  0
ARC
  5
3179
  8
AM_0
 10
546.29910670366235
 20
247.04769188729321
 30
0.0
 40
66.000003000000007
 50
168.1228399999984
 51
0.0000100179138904
  0
ARC
  5
317A
  8
AM_0
 10
546.29910670366235
 20
247.04769188729321
 30
0.0
 40
70.000001999999995
 50
164.5475099999986
 51
0.0000100179138904
  0
ARC
  5
317B
  8
AM_0
 10
546.29910670366235
 20
247.04769188729321
 30
0.0
 40
33.0
 50
0.0
 51
180.00001000000091
  0
ARC
  5
317C
  8
AM_0
 10
575.34521770366234
 20
268.31557688729322
 30
0.0
 40
3.0
 50
135.0
 51
216.2120599999985
  0
ARC
  5
317D
  8
AM_0
 10
517.25300770366221
 20
268.31557688729322
 30
0.0
 40
3.0
 50
323.7879400000013
 51
45.00000099999918
  0
ARC
  5
317E
  8
AM_0
 10
546.29910670366235
 20
247.04769188729321
 30
0.0
 40
26.500002599999998
 50
270.0
 51
90.000003000000945
  0
ARC
  5
317F
  8
AM_0
 10
546.29910670366235
 20
247.04769188729321
 30
0.0
 40
26.500002599999998
 50
90.000003000000945
 51
270.0
  0
CIRCLE
  5
3180
  8
AM_0
 10
487.9876717036621
 20
271.79167988729318
 30
0.0
 40
4.9796462999999971
  0
CIRCLE
  5
3181
  8
AM_0
 10
604.61061370366224
 20
271.79161988729322
 30
0.0
 40
4.9796462999999971
  0
LINE
  5
3182
  8
ﾁｭｳｼﾝｾﾝ
 10
546.29910670366235
 20
336.5530495761605
 30
0.0
 11
546.29910670366235
 21
144.0568346381009
 31
0.0
  0
LINE
  5
3183
  8
AM_0
 10
589.84839370366228
 20
164.5476588872931
 30
0.0
 11
619.05806470366224
 21
164.5476588872931
 31
0.0
  0
LINE
  5
3184
  8
AM_0
 10
584.29912270366208
 20
222.0476748872932
 30
0.0
 11
605.33301070366224
 21
222.0476748872932
 31
0.0
  0
LINE
  5
3185
  8
ﾁｭｳｼﾝｾﾝ
 10
459.62760717888813
 20
247.04769188729321
 30
0.0
 11
634.45022000724316
 21
247.04769188729321
 31
0.0
  0
LINE
  5
3186
  8
AM_0
 10
461.2991047036619
 20
217.047661887293
 30
0.0
 11
463.55387470366202
 21
174.02429888729321
 31
0.0
  0
ARC
  5
3187
  8
AM_0
 10
473.54016070366242
 20
174.5476608872932
 30
0.0
 40
10.000000199999979
 50
183.00000999999941
 51
270.0
  0
LINE
  5
3188
  8
AM_0
 10
378.94864037977442
 20
262.04769188729318
 30
0.0
 11
378.94864037977442
 21
235.0476918872931
 31
0.0
  0
LINE
  5
3189
  8
AM_0
 10
461.29913470366199
 20
217.04769188729321
 30
0.0
 11
461.29913470366199
 21
247.04769188729321
 31
0.0
  0
CIRCLE
  5
318A
  8
AM_0
 10
475.58844070366229
 20
176.33698088729321
 30
0.0
 40
6.0000002999999991
  0
ARC
  5
318B
  8
ﾁｭｳｼﾝｾﾝ1
 10
546.29910670366235
 20
247.04769188729321
 30
0.0
 40
100.0000109999999
 50
217.75737999999939
 51
232.63991999999891
  0
LINE
  5
318C
  8
ﾁｭｳｼﾝｾﾝ1
 10
466.59977470366198
 20
167.34831788729301
 30
0.0
 11
485.29501270366228
 21
186.04355588729311
 31
0.0
  0
LINE
  5
318D
  8
AM_0
 10
505.34790070366199
 20
169.0476738872932
 30
0.0
 11
587.25032470366239
 21
169.0476738872932
 31
0.0
  0
ARC
  5
318E
  8
AM_0
 10
546.29910670366235
 20
227.06726377849839
 30
0.0
 40
80.0
 50
249.48149963151749
 51
290.51850036848219
  0
LINE
  5
318F
  8
AM_0
 10
518.17182970366218
 20
152.1425388872932
 30
0.0
 11
574.42639570366225
 21
152.1425388872932
 31
0.0
  0
LINE
  5
3190
  8
AM_0
 10
473.54016070366242
 20
164.5476588872931
 30
0.0
 11
502.74981670366242
 21
164.5476588872931
 31
0.0
  0
ARC
  5
3191
  8
AM_0
 10
546.29910670366235
 20
227.06726377849839
 30
0.0
 40
80.0
 50
231.39766634156521
 51
245.53118966062041
  0
ARC
  5
3192
  8
AM_0
 10
518.17182970366218
 20
159.14255288729319
 30
0.0
 40
7.0000007999999987
 50
164.919440000001
 51
270.0
  0
CIRCLE
  5
3193
  8
AM_0
 10
518.17182970366218
 20
159.14255288729319
 30
0.0
 40
4.9796462999999971
  0
LINE
  5
3194
  8
AM_0
 10
515.29684570366203
 20
154.16289188729311
 30
0.0
 11
512.42184670366191
 21
159.14255288729319
 31
0.0
  0
LINE
  5
3195
  8
AM_0
 10
523.92184570366203
 20
159.142537887293
 30
0.0
 11
521.04684670366203
 21
154.16289188729311
 31
0.0
  0
LINE
  5
3196
  8
AM_0
 10
521.04681670366233
 20
154.1629098872931
 30
0.0
 11
515.29684570366203
 21
154.1629098872931
 31
0.0
  0
LINE
  5
3197
  8
AM_0
 10
512.42181670366233
 20
159.14255288729319
 30
0.0
 11
515.29681570366165
 21
164.12219888729311
 31
0.0
  0
LINE
  5
3198
  8
AM_0
 10
502.74981670366242
 20
164.5476738872932
 30
0.0
 11
505.34790070366199
 21
169.0476738872932
 31
0.0
  0
ARC
  5
3199
  8
AM_0
 10
546.29910670366235
 20
227.04767588729311
 30
0.0
 40
71.000000999999983
 50
234.7757899999998
 51
238.4932699999984
  0
ARC
  5
319A
  8
AM_0
 10
506.58160570366221
 20
162.25166888729311
 30
0.0
 40
5.0000001000000003
 50
344.9836399999993
 51
56.872542999999951
  0
LINE
  5
319B
  8
AM_0
 10
523.92183070366218
 20
159.142537887293
 30
0.0
 11
521.04683170366229
 21
164.12219888729311
 31
0.0
  0
LINE
  5
319C
  8
AM_0
 10
521.04681670366233
 20
164.12219888729311
 30
0.0
 11
515.29684570366203
 21
164.12219888729311
 31
0.0
  0
LINE
  5
319D
  8
AM_0
 10
580.17641170366221
 20
159.142537887293
 30
0.0
 11
577.3014097036621
 21
154.16289188729311
 31
0.0
  0
ARC
  5
319E
  8
AM_0
 10
574.42639570366225
 20
159.14255288729319
 30
0.0
 40
7.0000007999999987
 50
270.00001999999853
 51
15.0805590000001
  0
CIRCLE
  5
319F
  8
AM_0
 10
574.42639570366225
 20
159.14255288729319
 30
0.0
 40
4.9796462999999971
  0
LINE
  5
31A0
  8
AM_0
 10
571.55140870366222
 20
154.16287688729301
 30
0.0
 11
568.67639470366225
 21
159.142537887293
 31
0.0
  0
ARC
  5
31A1
  8
AM_0
 10
546.29910670366235
 20
227.06726377849839
 30
0.0
 40
80.0
 50
294.46882733189608
 51
308.6023336584347
  0
LINE
  5
31A2
  8
AM_0
 10
577.30139470366225
 20
154.1629098872931
 30
0.0
 11
571.55140870366222
 21
154.1629098872931
 31
0.0
  0
LINE
  5
31A3
  8
AM_0
 10
580.17641170366221
 20
159.142537887293
 30
0.0
 11
577.30139470366225
 21
164.12218388729301
 31
0.0
  0
LINE
  5
31A4
  8
AM_0
 10
568.67639470366225
 20
159.14255288729319
 30
0.0
 11
571.55139370366214
 21
164.12219888729311
 31
0.0
  0
LINE
  5
31A5
  8
AM_0
 10
577.30139470366225
 20
164.12219888729311
 30
0.0
 11
571.55140870366222
 21
164.12219888729311
 31
0.0
  0
LINE
  5
31A6
  8
AM_0
 10
589.84840870366224
 20
164.5476588872931
 30
0.0
 11
587.25032470366239
 21
169.0476738872932
 31
0.0
  0
ARC
  5
31A7
  8
AM_0
 10
546.29910670366235
 20
227.04767588729311
 30
0.0
 40
71.000000999999983
 50
301.5067199999998
 51
305.22421000000008
  0
ARC
  5
31A8
  8
AM_0
 10
586.01661970366229
 20
162.25166888729311
 30
0.0
 40
5.0000001000000003
 50
121.5067300000014
 51
195.0163499999997
  0
LINE
  5
31A9
  8
ﾁｭｳｼﾝｾﾝ
 10
590.61998367959961
 20
227.0536441414213
 30
0.0
 11
501.97822972772508
 21
227.0927899238317
 31
0.0
  0
ARC
  5
31AA
  8
AM_0
 10
508.2991027036623
 20
227.04767588729311
 30
0.0
 40
5.0000001000000003
 50
270.0
 51
0.0
  0
ARC
  5
31AB
  8
AM_0
 10
491.29910470366178
 20
225.0476748872932
 30
0.0
 40
3.0
 50
270.0
 51
0.0
  0
ARC
  5
31AC
  8
AM_0
 10
487.2652297036621
 20
225.0476748872932
 30
0.0
 40
3.0
 50
200.43878000000001
 51
270.0
  0
LINE
  5
31AD
  8
AM_0
 10
508.2991027036623
 20
222.0476748872932
 30
0.0
 11
487.2652297036621
 21
222.0476748872932
 31
0.0
  0
ARC
  5
31AE
  8
AM_0
 10
483.49783270366231
 20
242.04767588729311
 30
0.0
 40
3.0
 50
90.000003000000945
 51
184.55206999999891
  0
ARC
  5
31AF
  8
AM_0
 10
491.29910470366178
 20
242.04767588729311
 30
0.0
 40
3.0
 50
0.0
 51
90.000003000000945
  0
LINE
  5
31B0
  8
AM_0
 10
494.29910470366201
 20
242.04767588729311
 30
0.0
 11
494.29910470366201
 21
225.0476748872932
 31
0.0
  0
LINE
  5
31B1
  8
AM_0
 10
483.49783270366231
 20
245.0476758872932
 30
0.0
 11
491.29910470366178
 21
245.0476758872932
 31
0.0
  0
ARC
  5
31B2
  8
AM_0
 10
483.49783270366231
 20
252.04767788729319
 30
0.0
 40
3.0
 50
175.44793000000081
 51
270.0
  0
ARC
  5
31B3
  8
AM_0
 10
479.01385570366199
 20
256.88101988729312
 30
0.0
 40
2.00000007
 50
351.68541000000101
 51
79.999998000001099
  0
LINE
  5
31B4
  8
AM_0
 10
479.36117470366219
 20
258.85062488729312
 30
0.0
 11
479.36117470366219
 21
258.85062488729312
 31
0.0
  0
ARC
  5
31B5
  8
AM_0
 10
479.01385570366199
 20
256.88101988729312
 30
0.0
 40
2.00000007
 50
79.999998000001099
 51
171.6854100000009
  0
LINE
  5
31B6
  8
AM_0
 10
483.49783270366231
 20
249.04767788729319
 30
0.0
 11
491.52685570366219
 21
249.04767788729319
 31
0.0
  0
ARC
  5
31B7
  8
AM_0
 10
491.52685570366219
 20
252.04767788729319
 30
0.0
 40
3.0
 50
270.0
 51
354.78408999999971
  0
LINE
  5
31B8
  8
AM_0
 10
490.86267070366227
 20
266.81203688729329
 30
0.0
 11
485.11267270366199
 21
266.81203688729329
 31
0.0
  0
ARC
  5
31B9
  8
AM_0
 10
478.7763367036622
 20
261.24884888729321
 30
0.0
 40
3.0
 50
348.12283999999852
 51
48.856062999999523
  0
LINE
  5
31BA
  8
AM_0
 10
513.29910370366224
 20
247.04769188729321
 30
0.0
 11
513.29910370366224
 21
227.04767588729311
 31
0.0
  0
ARC
  5
31BB
  8
AM_0
 10
584.29912270366208
 20
227.04767588729311
 30
0.0
 40
5.0000001000000003
 50
179.9999899999988
 51
270.0
  0
ARC
  5
31BC
  8
AM_0
 10
546.29910670366235
 20
247.04769188729321
 30
0.0
 40
12.00000029999998
 50
109.47121999999951
 51
70.528788999999293
  0
CIRCLE
  5
31BD
  8
AM_0
 10
546.29910670366235
 20
247.04769188729321
 30
0.0
 40
3.0
  0
CIRCLE
  5
31BE
  8
AM_5
 10
546.29910670366235
 20
247.04769188729321
 30
0.0
 40
4.000000199999997
  0
LINE
  5
31BF
  8
AM_0
 10
542.29908970366239
 20
255.0476778872933
 30
0.0
 11
550.29909070366239
 21
255.0476778872933
 31
0.0
  0
LINE
  5
31C0
  8
AM_0
 10
542.29908970366239
 20
262.04769188729318
 30
0.0
 11
550.29909070366239
 21
262.04769188729318
 31
0.0
  0
LINE
  5
31C1
  8
AM_0
 10
542.29908970366239
 20
262.04769188729318
 30
0.0
 11
542.29908970366239
 21
255.0476778872933
 31
0.0
  0
LINE
  5
31C2
  8
AM_0
 10
550.29909070366239
 20
262.04769188729318
 30
0.0
 11
550.29909070366239
 21
255.0476778872933
 31
0.0
  0
LINE
  5
31C3
  8
AM_0
 10
579.29910670366223
 20
247.04769188729321
 30
0.0
 11
579.29910670366223
 21
227.04767588729311
 31
0.0
  0
CIRCLE
  5
31C4
  8
AM_0
 10
617.00978470366215
 20
176.33698088729321
 30
0.0
 40
6.0000002999999991
  0
LINE
  5
31C5
  8
AM_0
 10
631.29912370366196
 20
217.047661887293
 30
0.0
 11
629.04436270366239
 21
174.02429888729321
 31
0.0
  0
ARC
  5
31C6
  8
AM_0
 10
619.05806470366224
 20
174.5476608872932
 30
0.0
 40
10.000000199999979
 50
270.0
 51
357.00000000000091
  0
ARC
  5
31C7
  8
AM_0
 10
605.33301070366224
 20
225.0476748872932
 30
0.0
 40
3.0
 50
270.0
 51
339.56121999999971
  0
ARC
  5
31C8
  8
AM_0
 10
601.2991207036622
 20
225.0476748872932
 30
0.0
 40
3.0
 50
179.9999899999988
 51
270.0
  0
LINE
  5
31C9
  8
AM_0
 10
631.29910870366211
 20
217.04769188729321
 30
0.0
 11
631.29910870366211
 21
247.04769188729321
 31
0.0
  0
ARC
  5
31CA
  8
AM_0
 10
609.10039270366224
 20
242.04767588729311
 30
0.0
 40
3.0
 50
355.44793000000089
 51
90.000003000000945
  0
ARC
  5
31CB
  8
AM_0
 10
601.2991207036622
 20
242.04767588729311
 30
0.0
 40
3.0
 50
90.000003000000945
 51
180.00001000000091
  0
LINE
  5
31CC
  8
AM_0
 10
598.29912070366231
 20
242.04767588729311
 30
0.0
 11
598.29912070366231
 21
225.0476748872932
 31
0.0
  0
LINE
  5
31CD
  8
AM_0
 10
609.10039270366224
 20
245.0476758872932
 30
0.0
 11
601.2991207036622
 21
245.0476758872932
 31
0.0
  0
ARC
  5
31CE
  8
AM_0
 10
613.58436970366188
 20
256.88101988729312
 30
0.0
 40
2.00000007
 50
99.999999999998593
 51
188.31458999999879
  0
ARC
  5
31CF
  8
AM_0
 10
546.29910670366235
 20
247.04769188729321
 30
0.0
 40
66.000003000000007
 50
0.0
 51
11.877162000000419
  0
LINE
  5
31D0
  8
AM_0
 10
609.10039270366224
 20
249.04767788729319
 30
0.0
 11
601.0713697036623
 21
249.04767788729319
 31
0.0
  0
ARC
  5
31D1
  8
AM_0
 10
601.0713697036623
 20
252.04767788729319
 30
0.0
 40
3.0
 50
185.21591000000021
 51
270.0
  0
ARC
  5
31D2
  8
AM_0
 10
609.10039270366224
 20
252.04767788729319
 30
0.0
 40
3.0
 50
270.0
 51
4.5520714000013554
  0
LINE
  5
31D3
  8
AM_0
 10
607.48561570366246
 20
266.81197388729322
 30
0.0
 11
601.73561470366212
 21
266.81197388729322
 31
0.0
  0
ARC
  5
31D4
  8
AM_0
 10
613.8219037036622
 20
261.24884888729321
 30
0.0
 40
3.0
 50
131.14394000000021
 51
191.87716000000131
  0
ARC
  5
31D5
  8
AM_0
 10
546.29910670366235
 20
247.04769188729321
 30
0.0
 40
70.000001999999995
 50
0.0
 51
15.45248699999985
  0
ARC
  5
31D6
  8
AM_0
 10
613.58436970366188
 20
256.88101988729312
 30
0.0
 40
2.00000007
 50
8.314587399999116
 51
99.999999999998593
  0
LINE
  5
31D7
  8
AM_0
 10
613.23708070366229
 20
258.85062488729312
 30
0.0
 11
613.23708070366229
 21
258.85062488729312
 31
0.0
  0
LINE
  5
31D8
  8
AM_0
 10
576.29912170366208
 20
332.04767888729322
 30
0.0
 11
619.56853270366207
 21
329.78003888729319
 31
0.0
  0
ARC
  5
31D9
  8
AM_0
 10
546.29910670366235
 20
247.04769188729321
 30
0.0
 40
66.000003000000007
 50
34.109954000000712
 51
145.8900399999994
  0
ARC
  5
31DA
  8
AM_0
 10
546.29910670366235
 20
247.04769188729321
 30
0.0
 40
70.000001999999995
 50
30.534626999999471
 51
149.46537000000041
  0
ARC
  5
31DB
  8
AM_0
 10
594.56584570366215
 20
287.53624988729308
 30
0.0
 40
3.0
 50
39.991611000000759
 51
135.0
  0
LINE
  5
31DC
  8
AM_0
 10
461.29913470366199
 20
277.04766188729309
 30
0.0
 11
463.56677470366191
 21
320.31707888729312
 31
0.0
  0
ARC
  5
31DD
  8
AM_0
 10
473.55306970366229
 20
319.79372888729318
 30
0.0
 40
10.000000199999979
 50
92.999998999998411
 51
176.99999000000011
  0
LINE
  5
31DE
  8
AM_0
 10
516.29910370366224
 20
332.04767888729322
 30
0.0
 11
546.29910670366235
 21
332.04767888729322
 31
0.0
  0
ARC
  5
31DF
  8
AM_0
 10
498.032379703662
 20
287.53624988729308
 30
0.0
 40
3.0
 50
45.00000099999918
 51
140.0083900000005
  0
ARC
  5
31E0
  8
AM_0
 10
491.76803770366217
 20
287.67229688729321
 30
0.0
 40
2.00000007
 50
143.31458000000069
 51
235.00001000000159
  0
LINE
  5
31E1
  8
AM_0
 10
490.86267070366227
 20
276.77132588729319
 30
0.0
 11
485.11267270366199
 21
276.77132588729319
 31
0.0
  0
LINE
  5
31E2
  8
AM_0
 10
482.23764070366201
 20
271.79167988729318
 30
0.0
 11
485.11267270366199
 21
276.77132588729319
 31
0.0
  0
LINE
  5
31E3
  8
AM_0
 10
493.73770270366242
 20
271.7916498872932
 30
0.0
 11
490.86267070366227
 21
276.77132588729319
 31
0.0
  0
ARC
  5
31E4
  8
AM_0
 10
491.76803770366217
 20
287.67229688729321
 30
0.0
 40
2.00000007
 50
234.9999999999998
 51
323.31458999999938
  0
ARC
  5
31E5
  8
AM_0
 10
489.16967770366227
 20
285.74169488729308
 30
0.0
 40
3.0
 50
265.1568200000014
 51
325.89004999999969
  0
LINE
  5
31E6
  8
AM_0
 10
490.6208797036623
 20
286.03399088729321
 30
0.0
 11
490.6208797036623
 21
286.03399088729321
 31
0.0
  0
LINE
  5
31E7
  8
AM_0
 10
503.68923970366228
 20
293.19307988729321
 30
0.0
 11
522.90986770366203
 21
273.97246688729302
 31
0.0
  0
LINE
  5
31E8
  8
AM_0
 10
500.15371870366232
 20
289.65752588729322
 30
0.0
 11
519.37433170366239
 21
270.4369128872932
 31
0.0
  0
ARC
  5
31E9
  8
AM_0
 10
525.03119170366233
 20
276.09377588729302
 30
0.0
 40
3.0
 50
225.0
 51
306.21205999999847
  0
ARC
  5
31EA
  8
AM_0
 10
505.81054870366228
 20
295.31438588729321
 30
0.0
 40
3.0
 50
129.9916099999993
 51
225.0
  0
LINE
  5
31EB
  8
AM_0
 10
516.29911870366232
 20
332.04767888729322
 30
0.0
 11
473.02969270366191
 21
329.78000888729321
 31
0.0
  0
CIRCLE
  5
31EC
  8
AM_0
 10
475.58844070366229
 20
317.75834888729321
 30
0.0
 40
6.0000002999999991
  0
ARC
  5
31ED
  8
AM_0
 10
551.2991197036622
 20
309.84893888729317
 30
0.0
 40
3.0
 50
85.447927000001329
 51
180.00001000000091
  0
ARC
  5
31EE
  8
AM_0
 10
541.29910570366224
 20
309.84893888729317
 30
0.0
 40
3.0
 50
0.0
 51
94.552070999998918
  0
ARC
  5
31EF
  8
AM_0
 10
546.29910670366235
 20
247.04769188729321
 30
0.0
 40
52.000007999999987
 50
47.755664999999908
 51
84.784094000000906
  0
ARC
  5
31F0
  8
AM_0
 10
541.29910570366224
 20
301.81993988729317
 30
0.0
 40
3.0
 50
275.21591000000029
 51
0.0
  0
ARC
  5
31F1
  8
AM_0
 10
546.29909160339696
 20
247.04769188729321
 30
0.0
 40
52.000007999999987
 50
95.215910999999693
 51
132.24432999999581
  0
LINE
  5
31F2
  8
AM_0
 10
544.29910570366224
 20
309.84893888729317
 30
0.0
 11
544.29910570366224
 21
301.81993988729317
 31
0.0
  0
ARC
  5
31F3
  8
AM_0
 10
551.2991197036622
 20
301.81993988729317
 30
0.0
 40
3.0
 50
179.9999899999988
 51
264.78408999999971
  0
LINE
  5
31F4
  8
AM_0
 10
548.29911970366197
 20
309.84893888729317
 30
0.0
 11
548.29911970366197
 21
301.81993988729317
 31
0.0
  0
LINE
  5
31F5
  8
AM_0
 10
592.44452170366208
 20
289.65755588729292
 30
0.0
 11
573.22389670366215
 21
270.4369128872932
 31
0.0
  0
LINE
  5
31F6
  8
AM_0
 10
588.90898570366232
 20
293.19307988729321
 30
0.0
 11
569.68834270366222
 21
273.97243688729321
 31
0.0
  0
ARC
  5
31F7
  8
AM_0
 10
567.5670337036621
 20
276.09377588729302
 30
0.0
 40
3.0
 50
233.78794000000141
 51
315.0
  0
ARC
  5
31F8
  8
AM_0
 10
586.78767670366221
 20
295.31438588729321
 30
0.0
 40
3.0
 50
315.0
 51
50.008388000000352
  0
LINE
  5
31F9
  8
AM_0
 10
576.29910670366223
 20
332.04767888729322
 30
0.0
 11
546.29910670366235
 21
332.04767888729322
 31
0.0
  0
LINE
  5
31FA
  8
AM_0
 10
631.29910870366211
 20
277.04766188729309
 30
0.0
 11
629.03145370366224
 21
320.31707888729312
 31
0.0
  0
ARC
  5
31FB
  8
ﾁｭｳｼﾝｾﾝ1
 10
546.29910670366235
 20
247.04769188729321
 30
0.0
 40
100.0000109999999
 50
37.757374999999172
 51
52.639915999999452
  0
LINE
  5
31FC
  8
ﾁｭｳｼﾝｾﾝ1
 10
626.11623070366215
 20
326.86478888729317
 30
0.0
 11
607.26285070366237
 21
308.01140888729321
 31
0.0
  0
ARC
  5
31FD
  8
AM_0
 10
600.83020570366227
 20
287.67229688729321
 30
0.0
 40
2.00000007
 50
305.0
 51
36.685414000000087
  0
LINE
  5
31FE
  8
AM_0
 10
607.48561570366246
 20
276.77126588729323
 30
0.0
 11
601.73561470366212
 21
276.77126588729323
 31
0.0
  0
LINE
  5
31FF
  8
AM_0
 10
598.86061570366235
 20
271.79158988729318
 30
0.0
 11
601.73561470366212
 21
276.77126588729323
 31
0.0
  0
LINE
  5
3200
  8
AM_0
 10
610.36061470366212
 20
271.79158988729318
 30
0.0
 11
607.48561570366246
 21
276.77126588729323
 31
0.0
  0
ARC
  5
3201
  8
AM_0
 10
603.42856270366235
 20
285.74169488729308
 30
0.0
 40
3.0
 50
214.1099600000004
 51
274.84317999999843
  0
ARC
  5
3202
  8
AM_0
 10
600.83020570366227
 20
287.67229688729321
 30
0.0
 40
2.00000007
 50
216.68541999999911
 51
305.0
  0
LINE
  5
3203
  8
AM_0
 10
601.97736070366204
 20
286.03399088729321
 30
0.0
 11
601.97736070366204
 21
286.03399088729321
 31
0.0
  0
ARC
  5
3204
  8
AM_0
 10
619.04517070366205
 20
319.79372888729318
 30
0.0
 40
10.000000199999979
 50
3.0000000999988461
 51
86.999999000000216
  0
CIRCLE
  5
3205
  8
AM_0
 10
617.00978470366215
 20
317.75834888729321
 30
0.0
 40
6.0000002999999991
  0
LINE
  5
3207
  8
0
 10
202.9486703797746
 20
392.82018744089652
 30
0.0
 11
202.9486703797746
 21
552.82018744089646
 31
0.0
1001
GENIUS_GENOREF_13
1005
2F5A
  0
LINE
  5
3208
  8
0
 10
212.9486703797744
 20
550.8201874408968
 30
0.0
 11
212.9486703797744
 21
394.82018744089652
 31
0.0
1001
GENIUS_GENOREF_13
1005
2F5A
  0
LINE
  5
3209
  8
0
 10
214.87887138636941
 20
415.65425538599402
 30
0.0
 11
233.9486703797744
 21
416.32018744089652
 31
0.0
  0
LINE
  5
320A
  8
AM_0
 10
233.9486703797744
 20
426.82017044089667
 30
0.0
 11
212.9486703797744
 21
426.82017044089667
 31
0.0
  0
ARC
  5
320B
  8
0
 10
210.9486703797744
 20
394.82018744089652
 30
0.0
 40
2.0
 50
270.0
 51
0.0
1001
GENIUS_GENOBJ-N-FIL_13
1002
{
1000
OWNER
1000
GEN
1002
}
1001
GENIUS_GENODEF_13
1002
{
1000
HIER
1070
     0
1002
}
1002
{
1000
MANEDIT
1070
     0
1002
}
1002
{
1000
NOSEL
1070
     0
1002
}
1002
{
1000
BEHIND
1070
     0
1002
}
1002
{
1000
OTHER
1070
     0
1002
}
1002
{
1000
REACTOR
1002
}
  0
LINE
  5
320C
  8
0
 10
202.9486703797746
 20
392.82018744089652
 30
0.0
 11
210.9486703797744
 21
392.82018744089652
 31
0.0
  0
ARC
  5
320D
  8
0
 10
214.9486703797744
 20
413.65547373195568
 30
0.0
 40
2.0
 50
92.000000000000341
 51
180.0
1001
GENIUS_GENOBJ-N-FIL_13
1002
{
1000
OWNER
1000
GEN
1002
}
1001
GENIUS_GENODEF_13
1002
{
1000
HIER
1070
     0
1002
}
1002
{
1000
MANEDIT
1070
     0
1002
}
1002
{
1000
NOSEL
1070
     0
1002
}
1002
{
1000
BEHIND
1070
     0
1002
}
1002
{
1000
OTHER
1070
     0
1002
}
1002
{
1000
REACTOR
1002
}
  0
LINE
  5
320E
  8
AM_0
 10
233.9486703797744
 20
518.82018644089658
 30
0.0
 11
212.9486703797744
 21
518.82018644089658
 31
0.0
  0
LINE
  5
320F
  8
AM_0
 10
233.9486703797744
 20
440.8827454408966
 30
0.0
 11
212.9486703797744
 21
440.8827454408966
 31
0.0
  0
LINE
  5
3210
  8
AM_0
 10
233.9486703797744
 20
504.75762644089667
 30
0.0
 11
212.9486703797744
 21
504.75762644089667
 31
0.0
  0
LINE
  5
3211
  8
0
 10
214.87887138636941
 20
529.98611949579913
 30
0.0
 11
233.9486703797744
 21
529.3201874408968
 31
0.0
  0
ARC
  5
3212
  8
0
 10
214.9486703797744
 20
531.98490114983747
 30
0.0
 40
2.0
 50
180.0
 51
267.9999999999996
1001
GENIUS_GENOBJ-N-FIL_13
1002
{
1000
OWNER
1000
GEN
1002
}
1001
GENIUS_GENODEF_13
1002
{
1000
HIER
1070
     0
1002
}
1002
{
1000
MANEDIT
1070
     0
1002
}
1002
{
1000
NOSEL
1070
     0
1002
}
1002
{
1000
BEHIND
1070
     0
1002
}
1002
{
1000
OTHER
1070
     0
1002
}
1002
{
1000
REACTOR
1002
}
  0
LINE
  5
3213
  8
0
 10
202.9486703797746
 20
552.82018744089646
 30
0.0
 11
210.9486703797744
 21
552.82018744089646
 31
0.0
  0
ARC
  5
3214
  8
0
 10
210.9486703797744
 20
550.8201874408968
 30
0.0
 40
2.0
 50
0.0
 51
90.0
1001
GENIUS_GENOBJ-N-FIL_13
1002
{
1000
OWNER
1000
GEN
1002
}
1001
GENIUS_GENODEF_13
1002
{
1000
HIER
1070
     0
1002
}
1002
{
1000
MANEDIT
1070
     0
1002
}
1002
{
1000
NOSEL
1070
     0
1002
}
1002
{
1000
BEHIND
1070
     0
1002
}
1002
{
1000
OTHER
1070
     0
1002
}
1002
{
1000
REACTOR
1002
}
  0
ARC
  5
3216
  8
ﾁｭｳｼﾝｾﾝ1
 10
546.29910670366235
 20
247.04769188729321
 30
0.0
 40
100.0000109999999
 50
127.3600840000004
 51
142.2426250000008
  0
LINE
  5
3217
  8
ﾁｭｳｼﾝｾﾝ1
 10
466.48198270366203
 20
326.86478888729317
 30
0.0
 11
485.33536270366233
 21
308.01140888729321
 31
0.0
  0
ARC
  5
3218
  8
ﾁｭｳｼﾝｾﾝ1
 10
546.29910670366235
 20
247.04769188729321
 30
0.0
 40
100.0000109999999
 50
307.36008000000078
 51
322.2426200000005
  0
LINE
  5
3219
  8
ﾁｭｳｼﾝｾﾝ1
 10
625.99843870366249
 20
167.34831788729301
 30
0.0
 11
607.30320070366224
 21
186.04355588729311
 31
0.0
  0
TEXT
  5
33F7
  8
AM_0
 10
456.81711157013382
 20
498.66452104298787
 30
0.0
 40
10.0
  1
VX02-040AF~VX02-060AF
  0
ENDSEC
  0
EOF
