  0
SECTION
  2
HEADER
  9
$ACADVER
  1
AC1009
  9
$INSBASE
 10
0.0
 20
0.0
 30
0.0
  9
$EXTMIN
 10
193.045511550323
 20
141.00170899780929
 30
-0.0000000000112498
  9
$EXTMAX
 10
651.79394706489256
 20
555.07988529298007
 30
0.0000000000002956
  9
$LIMMIN
 10
0.0
 20
0.0
  9
$LIMMAX
 10
853.5
 20
555.00000000000011
  9
$ORTHOMODE
 70
     0
  9
$REGENMODE
 70
     1
  9
$FILLMODE
 70
     1
  9
$QTEXTMODE
 70
     0
  9
$MIRRTEXT
 70
     1
  9
$DRAGMODE
 70
     2
  9
$LTSCALE
 40
3.0
  9
$OSMODE
 70
   551
  9
$ATTMODE
 70
     1
  9
$TEXTSIZE
 40
2.5
  9
$TRACEWID
 40
1.0
  9
$TEXTSTYLE
  7
STANDARD
  9
$CLAYER
  8
AM_0
  9
$CELTYPE
  6
BYLAYER
  9
$CECOLOR
 62
   256
  9
$DIMSCALE
 40
1.0
  9
$DIMASZ
 40
2.5
  9
$DIMEXO
 40
1.0
  9
$DIMDLI
 40
8.0
  9
$DIMRND
 40
0.0
  9
$DIMDLE
 40
0.0
  9
$DIMEXE
 40
0.6
  9
$DIMTP
 40
0.1
  9
$DIMTM
 40
0.1
  9
$DIMTXT
 40
2.5
  9
$DIMCEN
 40
0.0
  9
$DIMTSZ
 40
0.0
  9
$DIMTOL
 70
     0
  9
$DIMLIM
 70
     0
  9
$DIMTIH
 70
     0
  9
$DIMTOH
 70
     0
  9
$DIMSE1
 70
     0
  9
$DIMSE2
 70
     0
  9
$DIMTAD
 70
     1
  9
$DIMZIN
 70
     8
  9
$DIMBLK
  1

  9
$DIMASO
 70
     1
  9
$DIMSHO
 70
     1
  9
$DIMPOST
  1

  9
$DIMAPOST
  1
"
  9
$DIMALT
 70
     0
  9
$DIMALTD
 70
     2
  9
$DIMALTF
 40
0.0393701
  9
$DIMLFAC
 40
1.0
  9
$DIMTOFL
 70
     1
  9
$DIMTVP
 40
0.0
  9
$DIMTIX
 70
     0
  9
$DIMSOXD
 70
     0
  9
$DIMSAH
 70
     0
  9
$DIMBLK1
  1

  9
$DIMBLK2
  1

  9
$DIMSTYLE
  2
AM_ISO
  9
$DIMCLRD
 70
   256
  9
$DIMCLRE
 70
   256
  9
$DIMCLRT
 70
     4
  9
$DIMTFAC
 40
0.71
  9
$DIMGAP
 40
0.8
  9
$LUNITS
 70
     2
  9
$LUPREC
 70
     2
  9
$SKETCHINC
 40
1.0
  9
$FILLETRAD
 40
15.0
  9
$AUNITS
 70
     0
  9
$AUPREC
 70
     0
  9
$MENU
  1
.
  9
$ELEVATION
 40
0.0
  9
$PELEVATION
 40
0.0
  9
$THICKNESS
 40
0.0
  9
$LIMCHECK
 70
     0
  9
$BLIPMODE
 70
     0
  9
$CHAMFERA
 40
6.0
  9
$CHAMFERB
 40
3.0
  9
$SKPOLY
 70
     0
  9
$TDCREATE
 40
2452065.7447439241
  9
$TDUPDATE
 40
2458543.6993888658
  9
$TDINDWG
 40
0.12685
  9
$TDUSRTIMER
 40
0.1268495833
  9
$USRTIMER
 70
     1
  9
$ANGBASE
 50
0.0
  9
$ANGDIR
 70
     0
  9
$PDMODE
 70
     0
  9
$PDSIZE
 40
0.0
  9
$PLINEWID
 40
0.0
  9
$COORDS
 70
     1
  9
$SPLFRAME
 70
     0
  9
$SPLINETYPE
 70
     6
  9
$SPLINESEGS
 70
     8
  9
$ATTDIA
 70
     1
  9
$ATTREQ
 70
     1
  9
$HANDLING
 70
     1
  9
$HANDSEED
  5
3893
  9
$SURFTAB1
 70
     6
  9
$SURFTAB2
 70
     6
  9
$SURFTYPE
 70
     6
  9
$SURFU
 70
     6
  9
$SURFV
 70
     6
  9
$UCSNAME
  2

  9
$UCSORG
 10
0.0
 20
0.0
 30
0.0
  9
$UCSXDIR
 10
1.0
 20
0.0
 30
0.0
  9
$UCSYDIR
 10
0.0
 20
1.0
 30
0.0
  9
$PUCSNAME
  2

  9
$PUCSORG
 10
0.0
 20
0.0
 30
0.0
  9
$PUCSXDIR
 10
1.0
 20
0.0
 30
0.0
  9
$PUCSYDIR
 10
0.0
 20
1.0
 30
0.0
  9
$USERI1
 70
     0
  9
$USERI2
 70
     0
  9
$USERI3
 70
     0
  9
$USERI4
 70
     0
  9
$USERI5
 70
     0
  9
$USERR1
 40
0.0
  9
$USERR2
 40
0.0
  9
$USERR3
 40
0.0
  9
$USERR4
 40
0.0
  9
$USERR5
 40
0.0
  9
$WORLDVIEW
 70
     1
  9
$SHADEDGE
 70
     3
  9
$SHADEDIF
 70
    70
  9
$TILEMODE
 70
     1
  9
$MAXACTVP
 70
    64
  9
$PLIMCHECK
 70
     0
  9
$PEXTMIN
 10
1.0000000000000000E+020
 20
1.0000000000000000E+020
 30
1.0000000000000000E+020
  9
$PEXTMAX
 10
-1.0000000000000000E+020
 20
-1.0000000000000000E+020
 30
-1.0000000000000000E+020
  9
$PLIMMIN
 10
0.0
 20
0.0
  9
$PLIMMAX
 10
420.0
 20
297.0
  9
$UNITMODE
 70
     0
  9
$VISRETAIN
 70
     1
  9
$PLINEGEN
 70
     0
  9
$PSLTSCALE
 70
     1
  0
ENDSEC
  0
SECTION
  2
TABLES
  0
TABLE
  2
VPORT
 70
     1
  0
VPORT
  2
*ACTIVE
 70
     0
 10
0.0
 20
0.0
 11
1.0
 21
1.0
 12
422.41972930760761
 22
348.04079714539478
 13
0.0
 23
0.0
 14
7.5
 24
7.5
 15
30.0
 25
30.0
 16
0.0
 26
0.0
 36
1.0
 17
0.0
 27
0.0
 37
0.0
 40
416.92081823770059
 41
1.7571592210767459
 42
50.0
 43
0.0
 44
0.0
 50
0.0
 51
0.0
 71
     0
 72
   100
 73
     1
 74
     3
 75
     0
 76
     0
 77
     0
 78
     0
  0
ENDTAB
  0
TABLE
  2
LTYPE
 70
    25
  0
LTYPE
  2
CONTINUOUS
 70
     0
  3
Solid line
 72
    65
 73
     0
 40
0.0
  0
LTYPE
  2
AM_ISO02W050
 70
     0
  3
__ __ __ __ __ __ __ __ __ __ __ __ __ __ __
 72
    65
 73
     2
 40
7.5
 49
6.0
 49
-1.5
  0
LTYPE
  2
AM_ISO08W050
 70
     0
  3
____ . ____ . ____ . ____ . ____ . ____ . ____
 72
    65
 73
     4
 40
18.0
 49
12.0
 49
-1.5
 49
3.0
 49
-1.5
  0
LTYPE
  2
AM_ISO09W050
 70
     0
  3
_____ . . _____ . . _____ . . ____ .. ____
 72
    65
 73
     6
 40
22.5
 49
12.0
 49
-1.5
 49
3.0
 49
-1.5
 49
3.0
 49
-1.5
  0
LTYPE
  2
AMCONSTR
 70
     0
  3
_______________________
 72
    65
 73
     2
 40
9999.0
 49
9999.0
 49
0.0
  0
LTYPE
  2
AM_ISO08W050X2
 70
     0
  3
__ . __ . __ . __ . __ . __
 72
    65
 73
     4
 40
9.0
 49
6.0
 49
-0.75
 49
1.5
 49
-0.75
  0
LTYPE
  2
AM_ISO02W050X2
 70
     0
  3
 _ _ _ _ _ _ _ _ _ _ _ _
 72
    65
 73
     2
 40
3.75
 49
3.0
 49
-0.75
  0
LTYPE
  2
AMZIGZAG
 70
     0
  3
/\/-/\/-/\/-/\/-/\/-/\/
 72
    65
 73
     2
 40
11.000099999999991
 49
0.0001
 49
-11.0
  0
LTYPE
  2
ACISOWELD
 70
     0
  3
_ _ _ _ _
 72
    65
 73
     2
 40
2.0
 49
2.0
 49
-1.0
  0
LTYPE
  2
ACISOTGB
 70
     0
  3
__ . . __ . .
 72
    65
 73
     6
 40
9.0
 49
4.0
 49
-1.0
 49
1.0
 49
-1.0
 49
1.0
 49
-1.0
  0
LTYPE
  2
ACISOTGL
 70
     0
  3
_ _ _ _ _
 72
    65
 73
     2
 40
3.0
 49
2.0
 49
-1.0
  0
LTYPE
  2
CENTER
 70
     0
  3
__ . __
 72
    65
 73
     4
 40
7.0
 49
4.0
 49
-1.0
 49
1.0
 49
-1.0
  0
LTYPE
  2
PHANTOM2
 70
     0
  3
Phantom (.5x) ___ _ _ ___ _ _ ___ _ _ ___ _ _
 72
    65
 73
     6
 40
31.75
 49
15.875
 49
-3.174999999999998
 49
3.174999999999998
 49
-3.174999999999998
 49
3.174999999999998
 49
-3.174999999999998
  0
LTYPE
  2
ACANSTGBM
 70
     0
  3
__ . . __ . .
 72
    65
 73
     6
 40
9.0
 49
4.0
 49
-1.0
 49
1.0
 49
-1.0
 49
1.0
 49
-1.0
  0
LTYPE
  2
ACANSTGLM
 70
     0
  3
_ _ _ _ _
 72
    65
 73
     2
 40
3.0
 49
2.0
 49
-1.0
  0
LTYPE
  2
GEN7
 70
     0
  3
____ . ____ . ____ . ____ . ____ . ____ . ____
 72
    65
 73
     4
 40
14.25
 49
9.75
 49
-1.5
 49
1.5
 49
-1.5
  0
LTYPE
  2
GEN7A
 70
     0
  3
__ . __ . __
 72
    65
 73
     4
 40
7.375
 49
4.75
 49
-0.875
 49
0.875
 49
-0.875
  0
LTYPE
  2
ACJISTGB
 70
     0
  3
__ . . __ . .
 72
    65
 73
     6
 40
9.0
 49
4.0
 49
-1.0
 49
1.0
 49
-1.0
 49
1.0
 49
-1.0
  0
LTYPE
  2
ACJISTGL
 70
     0
  3
_ _ _ _ _
 72
    65
 73
     2
 40
3.0
 49
2.0
 49
-1.0
  0
LTYPE
  2
HIDDEN
 70
     0
  3
Hidden __ __ __ __ __ __ __ __ __ __ __ __ __ _
 72
    65
 73
     2
 40
0.375
 49
0.25
 49
-0.125
  0
LTYPE
  2
CENTER2
 70
     0
  3
Center (.5x) ___ _ ___ _ ___ _ ___ _ ___ _ ___
 72
    65
 73
     4
 40
1.125
 49
0.75
 49
-0.125
 49
0.125
 49
-0.125
  0
LTYPE
  2
HIDDEN2
 70
     0
  3
Hidden (.5x) _ _ _ _ _ _ _ _ _ _ _ _ _ _ _ _ _
 72
    65
 73
     2
 40
0.1875
 49
0.125
 49
-0.0625
  0
LTYPE
  2
AMZIGZAG2
 70
     0
  3
/\/-/\/-/\/-/\/-/\/-/\/
 72
    65
 73
     2
 40
0.4401
 49
0.0001
 49
-0.4400000000000003
  0
LTYPE
  2
ACANSTGB
 70
     0
  3
__ . . __ . .
 72
    65
 73
     6
 40
0.35433070866
 49
0.15748031496
 49
-0.03937007874
 49
0.03937007874
 49
-0.03937007874
 49
0.03937007874
 49
-0.03937007874
  0
LTYPE
  2
ACANSTGL
 70
     0
  3
_ _ _ _ _
 72
    65
 73
     2
 40
0.11811023622
 49
0.07874015748
 49
-0.03937007874
  0
ENDTAB
  0
TABLE
  2
LAYER
 70
     6
  0
LAYER
  2
0
 70
     0
 62
     7
  6
CONTINUOUS
  0
LAYER
  2
AM_0
 70
     0
 62
     7
  6
CONTINUOUS
  0
LAYER
  2
AM_5
 70
     0
 62
     2
  6
CONTINUOUS
  0
LAYER
  2
DEFPOINTS
 70
     0
 62
     7
  6
CONTINUOUS
  0
LAYER
  2
ﾁｭｳｼﾝｾﾝ
 70
     0
 62
     1
  6
GEN7
  0
LAYER
  2
ﾁｭｳｼﾝｾﾝ1
 70
     0
 62
     1
  6
GEN7A
  0
ENDTAB
  0
TABLE
  2
STYLE
 70
     9
  0
STYLE
  2
STANDARD
 70
     0
 40
0.0
 41
0.8299999999999999
 50
0.0
 71
     0
 42
2.5
  3
txt.shx
  4
bigfont.shx
  0
STYLE
  2
ANNOTATIVE
 70
     0
 40
0.0
 41
1.0
 50
0.0
 71
     0
 42
0.2
  3
txt
  4

  0
STYLE
  2

 70
     1
 40
0.0
 41
1.0
 50
0.0
 71
     0
 42
2.5
  3
ltypeshp.shx
  4

  0
STYLE
  2
ACISOTS
 70
     0
 40
1.0
 41
1.0
 50
0.0
 71
     0
 42
2.5
  3
isocp.shx
  4
extfont.shx
  0
STYLE
  2
ACISOGDT
 70
     0
 40
0.0
 41
1.0
 50
0.0
 71
     0
 42
2.5
  3
amgdt.shx
  4

  0
STYLE
  2
ACANSTS
 70
     0
 40
1.0
 41
1.0
 50
0.0
 71
     0
 42
2.5
  3
romans.shx
  4
bigfont.shx
  0
STYLE
  2
ACANSGDT
 70
     0
 40
0.0
 41
1.0
 50
0.0
 71
     0
 42
2.5
  3
amgdt.shx
  4

  0
STYLE
  2
ACJISTS
 70
     0
 40
1.0
 41
1.0
 50
0.0
 71
     0
 42
2.5
  3
isocp.shx
  4
bigfont.shx
  0
STYLE
  2
ACJISGDT
 70
     0
 40
0.0
 41
1.0
 50
0.0
 71
     0
 42
2.5
  3
amgdt.shx
  4

  0
ENDTAB
  0
TABLE
  2
VIEW
 70
     6
  0
VIEW
  2
AM_VIEW1
 70
     0
 40
277.49999999999989
 10
249.64779005524841
 20
416.24999999999989
 41
499.2955801104971
 11
0.0
 21
0.0
 31
1.0
 12
0.0
 22
0.0
 32
0.0
 42
50.0
 43
0.0
 44
0.0
 50
0.0
 71
     0
  0
VIEW
  2
AM_VIEW2
 70
     0
 40
277.49999999999989
 10
603.85220994475117
 20
416.24999999999989
 41
499.2955801104971
 11
0.0
 21
0.0
 31
1.0
 12
0.0
 22
0.0
 32
0.0
 42
50.0
 43
0.0
 44
0.0
 50
0.0
 71
     0
  0
VIEW
  2
AM_VIEW3
 70
     0
 40
277.49999999999989
 10
249.64779005524841
 20
138.7499999999998
 41
499.2955801104971
 11
0.0
 21
0.0
 31
1.0
 12
0.0
 22
0.0
 32
0.0
 42
50.0
 43
0.0
 44
0.0
 50
0.0
 71
     0
  0
VIEW
  2
AM_VIEW4
 70
     0
 40
277.49999999999989
 10
603.85220994475117
 20
138.7499999999998
 41
499.2955801104971
 11
0.0
 21
0.0
 31
1.0
 12
0.0
 22
0.0
 32
0.0
 42
50.0
 43
0.0
 44
0.0
 50
0.0
 71
     0
  0
VIEW
  2
AM_VIEW5
 70
     0
 40
277.49999999999989
 10
426.75
 20
277.49999999999989
 41
499.2955801104971
 11
0.0
 21
0.0
 31
1.0
 12
0.0
 22
0.0
 32
0.0
 42
50.0
 43
0.0
 44
0.0
 50
0.0
 71
     0
  0
VIEW
  2
AM_VIEW6
 70
     0
 40
554.99445000000014
 10
426.75
 20
277.49999999999989
 41
998.5811743093924
 11
0.0
 21
0.0
 31
1.0
 12
0.0
 22
0.0
 32
0.0
 42
50.0
 43
0.0
 44
0.0
 50
0.0
 71
     0
  0
ENDTAB
  0
TABLE
  2
UCS
 70
     0
  0
ENDTAB
  0
TABLE
  2
APPID
 70
    96
  0
APPID
  2
ACAD
 70
     0
  0
APPID
  2
ACADANNOTATIVE
 70
     0
  0
APPID
  2
MCAD_NO_VIS
 70
     0
  0
APPID
  2
ACAD_TEMP_GRAPHIC
 70
     0
  0
APPID
  2
ACATTRIBSERVICES
 70
     0
  0
APPID
  2
GENIUS_GENREC_14
 70
     0
  0
APPID
  2
GENIUS_GENOBJ-N-REC_13
 70
     0
  0
APPID
  2
GENIUS_GENODEF_13
 70
     0
  0
APPID
  2
GENIUS_GENOLIS_13
 70
     0
  0
APPID
  2
GENIUS_GENOBJ-N-TIT_13
 70
     0
  0
APPID
  2
GENIUS_GENOENT_13
 70
     0
  0
APPID
  2
GENIUS_GENTITLE_13
 70
     0
  0
APPID
  2
GENIUS_GENOREF_13
 70
     0
  0
APPID
  2
GENIUS_GENSCREG_15
 70
     0
  0
APPID
  2
GENIUS_GENOBJ-N-SDF_13
 70
     0
  0
APPID
  2
GENIUS_GENFIL_13
 70
     0
  0
APPID
  2
GENIUS_GENOBJ-N-CHA_13
 70
     0
  0
APPID
  2
GENIUS_GENDTOL_13
 70
     0
  0
APPID
  2
GENIUS_GENOBJ-N-FIL_13
 70
     0
  0
APPID
  2
AD_DRAW
 70
     0
  0
APPID
  2
DESIGNERASSEMBLIES
 70
     0
  0
APPID
  2
ASURF_PCURVE_APPNAME
 70
     0
  0
APPID
  2
GENIUS_GE3SECT_13
 70
     0
  0
APPID
  2
GENIUS_GENCFG_13
 70
     0
  0
APPID
  2
GENIUS_GE3CFG0_13
 70
     0
  0
APPID
  2
GENIUS_GENCFG0_13
 70
     0
  0
APPID
  2
GENIUS_GENCFG1_13
 70
     0
  0
APPID
  2
GENIUS_GENCFG2_13
 70
     0
  0
APPID
  2
GENIUS_GENCFG3_13
 70
     0
  0
APPID
  2
GENIUS_GENCFG4_13
 70
     0
  0
APPID
  2
GENIUS_GEVCFG0_13
 70
     0
  0
APPID
  2
GENIUS_GENHINW_13
 70
     0
  0
APPID
  2
GENIUS_FIRSTVISTXT_14
 70
     0
  0
APPID
  2
GENIUS_GENOBJ-N-LEADER_13
 70
     0
  0
APPID
  2
GEV_VCCNULL_SWITCH_OFF
 70
     0
  0
APPID
  2
GENIUS_GEFCFG0_13
 70
     0
  0
APPID
  2
GENIUS_GENZVEED_13
 70
     0
  0
APPID
  2
GENIUS_GENSCREG_13
 70
     0
  0
APPID
  2
GENIUS_DUMCFG0_13
 70
     0
  0
APPID
  2
GEVID936201362
 70
     0
  0
APPID
  2
GEVDC
 70
     0
  0
APPID
  2
GEVCON
 70
     0
  0
APPID
  2
VCC
 70
     0
  0
APPID
  2
GEVPT
 70
     0
  0
APPID
  2
GEVIT
 70
     0
  0
APPID
  2
GENBH
 70
     0
  0
APPID
  2
GEVMK
 70
     0
  0
APPID
  2
GENIUS_GENBH_13
 70
     0
  0
APPID
  2
GENIUS_GENOBJ-NBEHI-BHF_13
 70
     0
  0
APPID
  2
GENIUS_GENOBJ-NBEHI-BHB_13
 70
     0
  0
APPID
  2
GENIUS_GENOBJ-F-DESC_13
 70
     0
  0
APPID
  2
GENIUS_GEFDESC_14
 70
     0
  0
APPID
  2
GENIUS_GENOBJ-F-PART_13
 70
     0
  0
APPID
  2
GENIUS_GEFSTDP_13
 70
     0
  0
APPID
  2
GENIUS_GEFPARTINS_13
 70
     0
  0
APPID
  2
GENIUS_GENTRA_14
 70
     0
  0
APPID
  2
GENIUS_GENINF13_13
 70
     0
  0
APPID
  2
GENIUS_GENOBJ-N-INFOPT_13
 70
     0
  0
APPID
  2
GENIUS_GENOBJ-N-RSSYM_13
 70
     0
  0
APPID
  2
GENIUS_GENSYMENT_13
 70
     0
  0
APPID
  2
GENIUS_GENSCSYM_13
 70
     0
  0
APPID
  2
GENIUS_GEFINFNAM_13
 70
     0
  0
APPID
  2
GENIUS_GENOBJ-N-CEN_13
 70
     0
  0
APPID
  2
GENIUS_GENOBJ-N-CRS_13
 70
     0
  0
APPID
  2
GENIUS_GENOBJ-N-CRC_13
 70
     0
  0
APPID
  2
GENIUS_GENCRC_14
 70
     0
  0
APPID
  2
GEVID942827039
 70
     0
  0
APPID
  2
GEVID942827040
 70
     0
  0
APPID
  2
GEVID942827041
 70
     0
  0
APPID
  2
GENIUS_GENOBJ-F-SCPASSM_13
 70
     0
  0
APPID
  2
GENIUS_GENDIMSH_14
 70
     0
  0
APPID
  2
GEVID942827042
 70
     0
  0
APPID
  2
GEVID946020473
 70
     0
  0
APPID
  2
GEVID946020474
 70
     0
  0
APPID
  2
GEVID946020475
 70
     0
  0
APPID
  2
GENIUS_GENOBJ-N-HTC_13
 70
     0
  0
APPID
  2
GENIUS_GENHATCH_13
 70
     0
  0
APPID
  2
GEVID948854295
 70
     0
  0
APPID
  2
GEVID939402019
 70
     0
  0
APPID
  2
GEVID952919491
 70
     0
  0
APPID
  2
GEVID952919492
 70
     0
  0
APPID
  2
GENIUS_GEFWELD_13
 70
     0
  0
APPID
  2
GENIUS_GENOBJ-F-WELS_13
 70
     0
  0
APPID
  2
GEVID952919493
 70
     0
  0
APPID
  2
GENIUS_GENOBJ-N-RSBK_13
 70
     0
  0
APPID
  2
GENIUS_GENOBJ-N-LIB_13
 70
     0
  0
APPID
  2
GENIUS_GENSCALE_13
 70
     0
  0
APPID
  2
GEVID986376691
 70
     0
  0
APPID
  2
DCO15
 70
     0
  0
APPID
  2
ACAD_DSTYLE_DIMBREAK
 70
     0
  0
APPID
  2
ACAD_DSTYLE_DIMJAG
 70
     0
  0
APPID
  2
ACAD_NAV_VCDISPLAY
 70
     0
  0
APPID
  2
ACADANNOPO
 70
     0
  0
APPID
  2
ACAD_EXEMPT_FROM_CAD_STANDARDS
 70
     0
  0
APPID
  2
ACAD_MLEADERVER
 70
     0
  0
APPID
  2
ACAD_DSTYLE_DIMINSPECT
 70
     0
  0
ENDTAB
  0
TABLE
  2
DIMSTYLE
 70
    23
  0
DIMSTYLE
  2
STANDARD
 70
     0
  3

  4

  5

  6

  7

 40
1.0
 41
0.18
 42
0.0625
 43
0.38
 44
0.18
 45
0.0
 46
0.0
 47
0.0
 48
0.0
140
0.18
141
0.09
142
0.0
143
25.399999999999999
144
1.0
145
0.0
146
1.0
147
0.09
 71
     0
 72
     0
 73
     1
 74
     1
 75
     0
 76
     0
 77
     0
 78
     0
170
     0
171
     2
172
     0
173
     0
174
     0
175
     0
176
     0
177
     0
178
     0
  0
DIMSTYLE
  2
ANNOTATIVE
 70
     0
  3

  4

  5

  6

  7

 40
1.0
 41
0.18
 42
0.0625
 43
0.38
 44
0.18
 45
0.0
 46
0.0
 47
0.0
 48
0.0
140
0.18
141
0.09
142
0.0
143
25.399999999999999
144
1.0
145
0.0
146
1.0
147
0.09
 71
     0
 72
     0
 73
     1
 74
     1
 75
     0
 76
     0
 77
     0
 78
     0
170
     0
171
     2
172
     0
173
     0
174
     0
175
     0
176
     0
177
     0
178
     0
  0
DIMSTYLE
  2
AM_ISO
 70
     0
  3

  4
"
  5

  6

  7

 40
1.0
 41
2.5
 42
1.0
 43
8.0
 44
0.6
 45
0.0
 46
0.0
 47
0.1
 48
0.1
140
2.5
141
0.0
142
0.0
143
0.0393701
144
1.0
145
0.0
146
0.71
147
0.8
 71
     0
 72
     0
 73
     0
 74
     0
 75
     0
 76
     0
 77
     1
 78
     8
170
     0
171
     2
172
     1
173
     0
174
     0
175
     0
176
   256
177
   256
178
     4
  0
DIMSTYLE
  2
AM_ISO$3
 70
     0
  3

  4
"
  5

  6

  7

 40
1.0
 41
2.5
 42
1.0
 43
8.0
 44
0.6
 45
0.0
 46
0.0
 47
0.1
 48
0.1
140
2.5
141
0.0
142
0.0
143
0.0393701
144
1.0
145
0.0
146
0.71
147
0.8
 71
     0
 72
     0
 73
     0
 74
     1
 75
     0
 76
     0
 77
     1
 78
     8
170
     0
171
     2
172
     0
173
     0
174
     0
175
     0
176
   256
177
   256
178
     4
  0
DIMSTYLE
  2
AM_ISO$4
 70
     0
  3

  4
"
  5

  6

  7

 40
1.0
 41
2.5
 42
1.0
 43
8.0
 44
0.6
 45
0.0
 46
0.0
 47
0.1
 48
0.1
140
2.5
141
0.0
142
0.0
143
0.0393701
144
1.0
145
0.0
146
0.71
147
0.8
 71
     0
 72
     0
 73
     0
 74
     1
 75
     0
 76
     0
 77
     1
 78
     8
170
     0
171
     2
172
     0
173
     0
174
     0
175
     0
176
   256
177
   256
178
     4
  0
DIMSTYLE
  2
AM_ISO$6
 70
     0
  3

  4
"
  5

  6

  7

 40
1.0
 41
2.5
 42
1.0
 43
8.0
 44
0.6
 45
0.0
 46
0.0
 47
0.1
 48
0.1
140
2.5
141
0.0
142
0.0
143
0.0393701
144
1.0
145
0.0
146
0.71
147
0.8
 71
     0
 72
     0
 73
     0
 74
     0
 75
     0
 76
     0
 77
     0
 78
     8
170
     0
171
     2
172
     1
173
     0
174
     0
175
     0
176
   256
177
   256
178
     4
  0
DIMSTYLE
  2
AM_ISO$7
 70
     0
  3

  4
"
  5

  6

  7

 40
1.0
 41
2.5
 42
1.0
 43
8.0
 44
0.6
 45
0.0
 46
0.0
 47
0.1
 48
0.1
140
2.5
141
0.0
142
0.0
143
0.0393701
144
1.0
145
0.0
146
0.71
147
0.8
 71
     0
 72
     0
 73
     0
 74
     0
 75
     0
 76
     0
 77
     1
 78
     8
170
     0
171
     2
172
     1
173
     0
174
     0
175
     0
176
   256
177
   256
178
     4
  0
DIMSTYLE
  2
AM_ISO$SF
 70
     0
  3

  4
"
  5

  6

  7

 40
1.0
 41
2.5
 42
1.0
 43
10.0
 44
1.0
 45
0.0
 46
0.0
 47
0.1
 48
0.1
140
3.5
141
0.0
142
0.0
143
0.0393701
144
1.0
145
0.0
146
0.71
147
1.5
 71
     0
 72
     0
 73
     0
 74
     0
 75
     1
 76
     1
 77
     1
 78
     8
170
     0
171
     2
172
     1
173
     0
174
     0
175
     0
176
   256
177
   256
178
     2
  0
DIMSTYLE
  2
AM_ISO$SH
 70
     0
  3

  4
"
  5

  6

  7

 40
1.0
 41
2.5
 42
1.0
 43
10.0
 44
1.0
 45
0.0
 46
0.0
 47
0.1
 48
0.1
140
3.5
141
0.0
142
0.0
143
0.0393701
144
2.0
145
0.0
146
0.71
147
1.5
 71
     0
 72
     0
 73
     0
 74
     0
 75
     1
 76
     1
 77
     1
 78
     8
170
     0
171
     2
172
     1
173
     1
174
     0
175
     0
176
   256
177
   256
178
     2
  0
DIMSTYLE
  2
AM_JIS
 70
     0
  3

  4
"
  5

  6

  7

 40
1.0
 41
2.5
 42
1.0
 43
7.0
 44
1.0
 45
0.0
 46
0.0
 47
0.1
 48
0.1000000001
140
2.5
141
0.0
142
0.0
143
0.0393701
144
1.0
145
0.0
146
0.71
147
1.0
 71
     0
 72
     0
 73
     0
 74
     0
 75
     0
 76
     0
 77
     3
 78
     8
170
     0
171
     2
172
     1
173
     0
174
     0
175
     0
176
   256
177
   256
178
     4
  0
DIMSTYLE
  2
AM_JIS$3
 70
     0
  3

  4
"
  5

  6

  7

 40
1.0
 41
2.5
 42
1.0
 43
7.0
 44
1.0
 45
0.0
 46
0.0
 47
0.1
 48
0.1000000001
140
2.5
141
0.0
142
0.0
143
0.0393701
144
1.0
145
0.0
146
0.71
147
1.0
 71
     0
 72
     0
 73
     0
 74
     1
 75
     0
 76
     0
 77
     3
 78
     8
170
     0
171
     2
172
     0
173
     0
174
     0
175
     0
176
   256
177
   256
178
     4
  0
DIMSTYLE
  2
AM_JIS$4
 70
     0
  3

  4
"
  5

  6

  7

 40
1.0
 41
2.5
 42
1.0
 43
7.0
 44
1.0
 45
0.0
 46
0.0
 47
0.1
 48
0.1000000001
140
2.5
141
0.0
142
0.0
143
0.0393701
144
1.0
145
0.0
146
0.71
147
1.0
 71
     0
 72
     0
 73
     0
 74
     0
 75
     0
 76
     0
 77
     3
 78
     8
170
     0
171
     2
172
     0
173
     0
174
     0
175
     0
176
   256
177
   256
178
     4
  0
DIMSTYLE
  2
AM_JIS$6
 70
     0
  3

  4
"
  5

  6

  7

 40
1.0
 41
2.5
 42
1.0
 43
7.0
 44
1.0
 45
0.0
 46
0.0
 47
0.1
 48
0.1000000001
140
2.5
141
0.0
142
0.0
143
0.0393701
144
1.0
145
0.0
146
0.71
147
1.0
 71
     0
 72
     0
 73
     0
 74
     0
 75
     0
 76
     0
 77
     0
 78
     8
170
     0
171
     2
172
     1
173
     0
174
     0
175
     0
176
   256
177
   256
178
     4
  0
DIMSTYLE
  2
AM_JIS$7
 70
     0
  3

  4
"
  5

  6

  7

 40
1.0
 41
2.5
 42
1.0
 43
7.0
 44
1.0
 45
0.0
 46
0.0
 47
0.1
 48
0.1000000001
140
2.5
141
0.0
142
0.0
143
0.0393701
144
1.0
145
0.0
146
0.71
147
1.0
 71
     0
 72
     0
 73
     0
 74
     0
 75
     0
 76
     0
 77
     3
 78
     8
170
     0
171
     2
172
     1
173
     0
174
     0
175
     0
176
   256
177
   256
178
     4
  0
DIMSTYLE
  2
AM_JIS$SF
 70
     0
  3

  4
"
  5

  6

  7

 40
1.0
 41
2.5
 42
1.0
 43
10.0
 44
1.0
 45
0.0
 46
0.0
 47
0.1
 48
0.1
140
3.5
141
0.0
142
0.0
143
0.0393701
144
1.0
145
0.0
146
0.71
147
1.5
 71
     0
 72
     0
 73
     0
 74
     0
 75
     1
 76
     1
 77
     3
 78
     8
170
     0
171
     2
172
     1
173
     0
174
     0
175
     0
176
   256
177
   256
178
     4
  0
DIMSTYLE
  2
AM_JIS$SH
 70
     0
  3

  4
"
  5

  6

  7

 40
1.0
 41
2.5
 42
1.0
 43
10.0
 44
1.0
 45
0.0
 46
0.0
 47
0.1
 48
0.1
140
3.5
141
0.0
142
0.0
143
0.0393701
144
1.0
145
0.0
146
0.71
147
1.5
 71
     0
 72
     0
 73
     0
 74
     0
 75
     1
 76
     0
 77
     3
 78
     8
170
     0
171
     2
172
     1
173
     1
174
     0
175
     0
176
   256
177
   256
178
     4
  0
DIMSTYLE
  2
AM_ANSI
 70
     0
  3

  4
mm
  5

  6

  7

 40
1.0
 41
0.1
 42
0.05
 43
0.5
 44
0.1
 45
0.0
 46
0.0
 47
0.1
 48
0.1
140
0.12
141
0.0
142
0.0
143
25.399999999999999
144
1.0
145
0.0
146
0.71
147
0.06
 71
     0
 72
     0
 73
     1
 74
     1
 75
     0
 76
     0
 77
     0
 78
     7
170
     0
171
     2
172
     0
173
     0
174
     0
175
     0
176
   256
177
   256
178
     2
  0
DIMSTYLE
  2
AM_ANSI$3
 70
     0
  3

  4
mm
  5

  6

  7

 40
1.0
 41
0.1
 42
0.05
 43
0.5
 44
0.1
 45
0.0
 46
0.0
 47
0.1
 48
0.1
140
0.12
141
0.0
142
0.0
143
25.399999999999999
144
1.0
145
0.0
146
0.71
147
0.06
 71
     0
 72
     0
 73
     1
 74
     1
 75
     0
 76
     0
 77
     0
 78
     7
170
     0
171
     2
172
     0
173
     0
174
     0
175
     0
176
   256
177
   256
178
     2
  0
DIMSTYLE
  2
AM_ANSI$4
 70
     0
  3

  4
mm
  5

  6

  7

 40
1.0
 41
0.1
 42
0.05
 43
0.5
 44
0.1
 45
0.0
 46
0.0
 47
0.1
 48
0.1
140
0.12
141
0.0
142
0.0
143
25.399999999999999
144
1.0
145
0.0
146
0.71
147
0.06
 71
     0
 72
     0
 73
     1
 74
     1
 75
     0
 76
     0
 77
     0
 78
     7
170
     0
171
     2
172
     0
173
     0
174
     0
175
     0
176
   256
177
   256
178
     2
  0
DIMSTYLE
  2
AM_ANSI$7
 70
     0
  3

  4
mm
  5

  6

  7

 40
1.0
 41
0.1
 42
0.05
 43
0.5
 44
0.1
 45
0.0
 46
0.0
 47
0.1
 48
0.1
140
0.24
141
0.0
142
0.0
143
25.399999999999999
144
1.0
145
0.0
146
0.71
147
0.06
 71
     0
 72
     0
 73
     1
 74
     1
 75
     0
 76
     0
 77
     0
 78
     7
170
     0
171
     2
172
     0
173
     0
174
     0
175
     0
176
   256
177
   256
178
     2
  0
DIMSTYLE
  2
AM_ANSI$SF
 70
     0
  3

  4
mm
  5

  6

  7

 40
1.0
 41
0.1
 42
0.05
 43
0.5
 44
0.1
 45
0.0
 46
0.0
 47
0.1
 48
0.1
140
0.12
141
0.0
142
0.0
143
25.399999999999999
144
1.0
145
0.0
146
0.71
147
0.06
 71
     0
 72
     0
 73
     1
 74
     1
 75
     1
 76
     1
 77
     0
 78
     7
170
     0
171
     2
172
     0
173
     0
174
     0
175
     0
176
   256
177
   256
178
     2
  0
DIMSTYLE
  2
AM_ANSI$SH
 70
     0
  3

  4
mm
  5

  6

  7

 40
1.0
 41
0.1
 42
0.05
 43
0.5
 44
0.1
 45
0.0
 46
0.0
 47
0.1
 48
0.1
140
0.12
141
0.0
142
0.0
143
25.399999999999999
144
1.0
145
0.0
146
0.71
147
0.06
 71
     0
 72
     0
 73
     1
 74
     1
 75
     1
 76
     1
 77
     0
 78
     7
170
     0
171
     2
172
     0
173
     1
174
     0
175
     0
176
   256
177
   256
178
     2
  0
DIMSTYLE
  2
AM_ISO$0
 70
     0
  3

  4
"
  5

  6

  7

 40
1.0
 41
2.5
 42
1.0
 43
8.0
 44
0.6
 45
0.0
 46
0.0
 47
0.1
 48
0.1
140
2.5
141
0.0
142
0.0
143
0.0393701
144
1.0
145
0.0
146
0.71
147
0.8
 71
     0
 72
     0
 73
     0
 74
     0
 75
     0
 76
     0
 77
     1
 78
     8
170
     0
171
     2
172
     1
173
     0
174
     0
175
     0
176
   256
177
   256
178
     4
  0
ENDTAB
  0
ENDSEC
  0
SECTION
  2
BLOCKS
  0
BLOCK
  8
0
  2
$MODEL_SPACE
 70
     0
 10
0.0
 20
0.0
 30
0.0
  3
$MODEL_SPACE
  1

  0
ENDBLK
  5
35B7
  8
0
  0
BLOCK
 67
     1
  8
0
  2
$PAPER_SPACE
 70
     0
 10
0.0
 20
0.0
 30
0.0
  3
$PAPER_SPACE
  1

  0
ENDBLK
  5
35B3
 67
     1
  8
0
  0
BLOCK
  8
0
  2
GENAXEH
 70
     0
 10
0.0
 20
0.0
 30
0.0
  3
GENAXEH
  1

  0
LINE
  5
318E
  8
0
 10
-1.0
 20
0.0
 30
0.0
 11
1.0
 21
0.0
 31
0.0
  0
ENDBLK
  5
318F
  8
0
  0
BLOCK
  8
0
  2
_OPEN30
 70
     0
 10
0.0
 20
0.0
 30
0.0
  3
_OPEN30
  1

  0
LINE
  5
3192
  8
0
 62
     0
 10
-1.0
 20
0.26794919
 30
0.0
 11
0.0
 21
0.0
 31
0.0
  0
LINE
  5
3193
  8
0
 62
     0
 10
0.0
 20
0.0
 30
0.0
 11
-1.0
 21
-0.26794919
 31
0.0
  0
LINE
  5
3194
  8
0
 62
     0
 10
0.0
 20
0.0
 30
0.0
 11
-1.0
 21
0.0
 31
0.0
  0
ENDBLK
  5
3195
  8
0
  0
BLOCK
  8
0
  2
_NONE
 70
     0
 10
0.0
 20
0.0
 30
0.0
  3
_NONE
  1

  0
ENDBLK
  5
3198
  8
0
  0
BLOCK
  8
0
  2
_ACMFILLEDHALF
 70
     0
 10
0.0
 20
0.0
 30
0.0
  3
_ACMFILLEDHALF
  1

  0
TRACE
  5
34B3
  8
AM_0
 62
     0
 10
-0.8
 20
0.0
 30
0.0
 11
-1.0
 21
0.166666666
 31
0.0
 12
0.0
 22
0.0
 32
0.0
 13
0.0
 23
0.0
 33
0.0
  0
LINE
  5
34B4
  8
AM_0
 62
     0
 10
-1.0
 20
0.0
 30
0.0
 11
-0.8
 21
0.0
 31
0.0
  0
ENDBLK
  5
34B2
  8
0
  0
BLOCK
  8
0
  2
*D9
 70
     1
 10
0.0
 20
0.0
 30
0.0
  3
*D9
  1

  0
LINE
  5
37DE
  8
AM_5
 10
331.9486203797747
 20
329.99580960416228
 30
0.0
 11
331.9486203797747
 21
489.1157424655006
 31
0.0
  0
LINE
  5
37DF
  8
AM_5
 10
378.94866037977448
 20
261.9958236041623
 30
0.0
 11
378.94866037977448
 21
489.1157424655006
 31
0.0
  0
LINE
  5
37E0
  8
AM_5
 10
334.4486203797747
 20
488.51574246550052
 30
0.0
 11
376.44866037977448
 21
488.51574246550052
 31
0.0
  0
SOLID
  5
37E1
  8
AM_5
 10
334.4486203797747
 20
488.93240913216732
 30
0.0
 11
334.4486203797747
 21
488.09907579883389
 31
0.0
 12
331.9486203797747
 22
488.51574246550052
 32
0.0
 13
331.9486203797747
 23
488.51574246550052
 33
0.0
  0
SOLID
  5
37E2
  8
AM_5
 10
376.44866037977448
 20
488.93240913216732
 30
0.0
 11
376.44866037977448
 21
488.09907579883389
 31
0.0
 12
378.94866037977448
 22
488.51574246550052
 32
0.0
 13
378.94866037977448
 23
488.51574246550052
 33
0.0
  0
INSERT
  5
37E3
  8
AM_0
  2
*U10
 10
0.0
 20
0.0
 30
0.0
  0
POINT
  5
37E4
  8
DEFPOINTS
 62
     0
 10
331.9486203797747
 20
328.99580960416228
 30
0.0
  0
POINT
  5
37E5
  8
DEFPOINTS
 62
     0
 10
378.94866037977448
 20
260.9958236041623
 30
0.0
  0
POINT
  5
37E6
  8
DEFPOINTS
 62
     0
 10
378.94866037977448
 20
488.51574246550052
 30
0.0
  0
ENDBLK
  5
37C1
  8
0
  0
BLOCK
  8
0
  2
*U10
 70
     1
 10
0.0
 20
0.0
 30
0.0
  3
*U10
  1

  0
TEXT
  5
3890
  8
AM_5
 62
     4
 10
353.7194737131079
 20
489.31574246550048
 30
0.0
 40
2.5
  1
47
 41
0.8299999999999999
  0
ENDBLK
  5
3892
  8
0
  0
ENDSEC
  0
SECTION
  2
ENTITIES
  0
LINE
  5
319A
  8
ﾁｭｳｼﾝｾﾝ
 10
193.0531869671473
 20
470.04802906901813
 30
0.0
 11
385.16833037977449
 21
470.04802906901813
 31
0.0
  0
LINE
  5
319B
  8
AM_0
 10
338.94867037977451
 20
485.04802906901818
 30
0.0
 11
338.94867037977451
 21
455.04802906901801
 31
0.0
  0
LINE
  5
319C
  8
AM_0
 10
378.94864037977447
 20
484.04802906901767
 30
0.0
 11
378.94864037977447
 21
456.04802906901818
 31
0.0
  0
LINE
  5
319D
  8
AM_0
 10
336.94864037977447
 20
444.51368906901803
 30
0.0
 11
336.94864037977447
 21
495.58232906901799
 31
0.0
  0
LINE
  5
319E
  8
AM_0
 10
303.94864037977459
 20
540.43699906901804
 30
0.0
 11
303.94864037977459
 21
399.65904906901812
 31
0.0
  0
LINE
  5
319F
  8
AM_0
 10
331.94864037977447
 20
385.04802906901801
 30
0.0
 11
331.94864037977447
 21
555.04805906901811
 31
0.0
  0
LINE
  5
31A0
  8
AM_0
 10
325.94864037977447
 20
403.26667906901798
 30
0.0
 11
325.94864037977447
 21
536.82936906901807
 31
0.0
  0
LINE
  5
31A1
  8
AM_0
 10
335.94867037977451
 20
540.04802906901818
 30
0.0
 11
335.94867037977451
 21
400.04802906901767
 31
0.0
  0
LINE
  5
31A2
  8
AM_0
 10
233.9486703797744
 20
413.54802906901801
 30
0.0
 11
233.9486703797744
 21
526.54802906901818
 31
0.0
  0
LINE
  5
31A3
  8
AM_0
 10
264.9486703797744
 20
401.17964906901801
 30
0.0
 11
264.9486703797744
 21
538.9163990690181
 31
0.0
  0
LINE
  5
31A4
  8
AM_0
 10
271.94864037977442
 20
541.04802906901796
 30
0.0
 11
271.94864037977442
 21
399.04802906901801
 31
0.0
  0
LINE
  5
31A5
  8
AM_0
 10
306.8701503797746
 20
396.66008906901811
 30
0.0
 11
319.02719037977459
 21
396.34175906901811
 31
0.0
  0
LINE
  5
31A6
  8
AM_0
 10
319.49145037977462
 20
411.37016906901817
 30
0.0
 11
306.40585037977462
 21
419.09919906901803
 31
0.0
  0
LINE
  5
31A7
  8
AM_0
 10
304.94864037977447
 20
422.34990906901811
 30
0.0
 11
319.94864037977447
 21
422.34990906901811
 31
0.0
  0
LINE
  5
31A8
  8
AM_0
 10
319.49148037977449
 20
407.88594906901812
 30
0.0
 11
306.4057903797746
 21
415.61500906901801
 31
0.0
  0
LINE
  5
31A9
  8
AM_0
 10
233.9486703797744
 20
438.10808906901809
 30
0.0
 11
264.9486703797744
 21
438.10808906901809
 31
0.0
  0
LINE
  5
31AA
  8
AM_0
 10
261.94864037977447
 20
404.83674906901803
 30
0.0
 11
262.9486703797744
 21
404.83674906901803
 31
0.0
  0
LINE
  5
31AB
  8
AM_0
 10
233.9486703797744
 20
424.04771906901823
 30
0.0
 11
264.9486703797744
 21
424.04771906901823
 31
0.0
  0
LINE
  5
31AC
  8
AM_0
 10
259.9486703797744
 20
413.36717906901811
 30
0.0
 11
233.94870037977441
 21
414.04802906901818
 31
0.0
  0
LINE
  5
31AD
  8
AM_0
 10
259.94864037977447
 20
406.83674906901808
 30
0.0
 11
259.94864037977447
 21
422.04771906901772
 31
0.0
  0
ARC
  5
31AE
  8
AM_0
 10
261.94864037977447
 20
406.83674906901808
 30
0.0
 40
2.0
 50
180.00001000000091
 51
270.0
  0
ARC
  5
31AF
  8
AM_0
 10
257.94864037977447
 20
422.04771906901772
 30
0.0
 40
2.0
 50
0.0
 51
90.000003000000945
  0
LINE
  5
31B0
  8
AM_0
 10
302.97226037977453
 20
398.23561906901801
 30
0.0
 11
271.94864037977442
 21
399.04799906901809
 31
0.0
  0
ARC
  5
31B1
  8
AM_0
 10
266.9486703797744
 20
401.17964906901801
 30
0.0
 40
2.0
 50
180.00001000000091
 51
268.5000000000004
  0
LINE
  5
31B2
  8
AM_0
 10
271.9486703797744
 20
399.04802906901801
 30
0.0
 11
266.89633037977461
 21
399.18031906901803
 31
0.0
  0
ARC
  5
31B3
  8
AM_0
 10
262.9486703797744
 20
402.83674906901808
 30
0.0
 40
2.0
 50
0.0
 51
90.000003000000945
  0
ARC
  5
31B4
  8
AM_0
 10
306.94864037977447
 20
399.65904906901812
 30
0.0
 40
3.0
 50
179.9999899999988
 51
268.50000999999872
  0
ARC
  5
31B5
  8
AM_0
 10
302.89371037977452
 20
395.23665906901812
 30
0.0
 40
3.0
 50
47.481952000001627
 51
88.499997000000747
  0
ARC
  5
31B6
  8
AM_0
 10
308.94864037977447
 20
419.92009906901791
 30
0.0
 40
5.0
 50
179.9999899999988
 51
239.431710000001
  0
ARC
  5
31B7
  8
AM_0
 10
304.94864037977447
 20
423.34990906901771
 30
0.0
 40
1.0
 50
179.9999899999988
 51
270.0
  0
ARC
  5
31B8
  8
AM_0
 10
308.94864037977447
 20
423.40434906901811
 30
0.0
 40
5.0
 50
179.9999899999988
 51
239.431710000001
  0
LINE
  5
31B9
  8
AM_0
 10
321.94864037977447
 20
428.09636906901812
 30
0.0
 11
321.94864037977447
 21
387.32863906901798
 31
0.0
  0
ARC
  5
31BA
  8
AM_0
 10
323.94867037977451
 20
387.32863906901798
 30
0.0
 40
2.0
 50
179.9999899999988
 51
268.00000999999861
  0
LINE
  5
31BB
  8
AM_0
 10
323.87881037977451
 20
385.32982906901799
 30
0.0
 11
331.94861037977449
 21
385.04802906901801
 31
0.0
  0
LINE
  5
31BC
  8
AM_0
 10
338.94867037977451
 20
456.04802906901818
 30
0.0
 11
378.94864037977447
 21
456.04802906901818
 31
0.0
  0
LINE
  5
31BD
  8
AM_0
 10
331.94864037977447
 20
400.04802906901767
 30
0.0
 11
335.94867037977451
 21
400.04802906901767
 31
0.0
  0
ARC
  5
31BE
  8
AM_0
 10
316.94864037977447
 20
407.06505906901799
 30
0.0
 40
5.0
 50
0.0
 51
59.431709000000481
  0
ARC
  5
31BF
  8
AM_0
 10
322.94864037977447
 20
403.26667906901798
 30
0.0
 40
3.0
 50
270.0
 51
0.0
  0
ARC
  5
31C0
  8
AM_0
 10
318.94864037977447
 20
393.34276906901817
 30
0.0
 40
3.0
 50
0.0
 51
88.499997000000747
  0
ARC
  5
31C1
  8
AM_0
 10
316.94864037977447
 20
403.58079906901798
 30
0.0
 40
5.0
 50
0.0
 51
59.431709000000481
  0
ARC
  5
31C2
  8
AM_0
 10
319.94864037977447
 20
420.34990906901811
 30
0.0
 40
2.0
 50
0.0
 51
90.000003000000945
  0
ARC
  5
31C3
  8
AM_0
 10
324.94864037977459
 20
428.09636906901812
 30
0.0
 40
3.0
 50
90.000003000000945
 51
180.00001000000091
  0
ARC
  5
31C4
  8
AM_0
 10
335.94864037977447
 20
444.51368906901803
 30
0.0
 40
1.0
 50
272.0000000000004
 51
0.0
  0
LINE
  5
31C5
  8
AM_0
 10
335.94867037977451
 20
443.51310906901767
 30
0.0
 11
335.98355037977461
 21
443.51433906901798
 31
0.0
  0
LINE
  5
31C6
  8
AM_0
 10
336.94864037977447
 20
455.04802906901801
 30
0.0
 11
338.94867037977451
 21
455.04802906901801
 31
0.0
  0
LINE
  5
31C7
  8
AM_0
 10
304.94864037977447
 20
517.74614906901809
 30
0.0
 11
319.94864037977447
 21
517.74614906901809
 31
0.0
  0
LINE
  5
31C8
  8
AM_0
 10
306.87012037977451
 20
543.43596906901814
 30
0.0
 11
319.0271603797745
 21
543.75432906901813
 31
0.0
  0
LINE
  5
31C9
  8
AM_0
 10
319.49148037977449
 20
528.72587906901811
 30
0.0
 11
306.40582037977453
 21
520.99681906901799
 31
0.0
  0
LINE
  5
31CA
  8
AM_0
 10
319.49148037977449
 20
532.21010906901813
 30
0.0
 11
306.40582037977453
 21
524.48103906901815
 31
0.0
  0
ARC
  5
31CB
  8
AM_0
 10
266.9486703797744
 20
538.9163990690181
 30
0.0
 40
2.0
 50
91.500001000001546
 51
180.00001000000091
  0
LINE
  5
31CC
  8
AM_0
 10
233.9486703797744
 20
501.98796906901811
 30
0.0
 11
264.9486703797744
 21
501.98796906901811
 31
0.0
  0
LINE
  5
31CD
  8
AM_0
 10
261.94864037977447
 20
535.25932906901801
 30
0.0
 11
262.9486703797744
 21
535.25932906901801
 31
0.0
  0
LINE
  5
31CE
  8
AM_0
 10
233.9486703797744
 20
516.04832906901811
 30
0.0
 11
264.9486703797744
 21
516.04832906901811
 31
0.0
  0
LINE
  5
31CF
  8
AM_0
 10
259.9486703797744
 20
526.72883906901814
 30
0.0
 11
233.94870037977441
 21
526.04802906901796
 31
0.0
  0
LINE
  5
31D0
  8
AM_0
 10
259.94864037977447
 20
533.25932906901812
 30
0.0
 11
259.94864037977447
 21
518.048329069018
 31
0.0
  0
ARC
  5
31D1
  8
AM_0
 10
257.94864037977447
 20
518.048329069018
 30
0.0
 40
2.0
 50
270.0
 51
0.0
  0
ARC
  5
31D2
  8
AM_0
 10
261.94864037977447
 20
533.25932906901812
 30
0.0
 40
2.0
 50
90.000003000000945
 51
180.00001000000091
  0
ARC
  5
31D3
  8
AM_0
 10
262.9486703797744
 20
537.25932906901812
 30
0.0
 40
2.0
 50
270.0
 51
0.0
  0
ARC
  5
31D4
  8
AM_0
 10
308.94864037977447
 20
516.69169906901811
 30
0.0
 40
5.0
 50
120.5682899999989
 51
180.00001000000091
  0
ARC
  5
31D5
  8
AM_0
 10
308.94864037977447
 20
520.17595906901818
 30
0.0
 40
5.0
 50
120.5682899999989
 51
180.00001000000091
  0
ARC
  5
31D6
  8
AM_0
 10
304.94864037977447
 20
516.7461490690182
 30
0.0
 40
1.0
 50
90.000003000000945
 51
180.00001000000091
  0
LINE
  5
31D7
  8
AM_0
 10
302.9722303797746
 20
541.86039906901794
 30
0.0
 11
271.94864037977442
 21
541.04802906901796
 31
0.0
  0
LINE
  5
31D8
  8
AM_0
 10
271.94864037977442
 20
541.04802906901796
 30
0.0
 11
266.89633037977461
 21
540.91572906901774
 31
0.0
  0
ARC
  5
31D9
  8
AM_0
 10
302.89371037977452
 20
544.85936906901804
 30
0.0
 40
3.0
 50
271.4999999999992
 51
312.51811999999887
  0
ARC
  5
31DA
  8
AM_0
 10
306.94864037977447
 20
540.43699906901804
 30
0.0
 40
3.0
 50
91.500001000001546
 51
180.00001000000091
  0
ARC
  5
31DB
  8
AM_0
 10
322.94864037977447
 20
536.82936906901807
 30
0.0
 40
3.0
 50
0.0
 51
90.000003000000945
  0
LINE
  5
31DC
  8
AM_0
 10
321.94864037977447
 20
511.99968906901802
 30
0.0
 11
321.94864037977447
 21
552.76741906901816
 31
0.0
  0
LINE
  5
31DD
  8
AM_0
 10
338.94867037977451
 20
484.04802906901767
 30
0.0
 11
378.94864037977447
 21
484.04802906901767
 31
0.0
  0
LINE
  5
31DE
  8
AM_0
 10
346.94864037977442
 20
474.04799906901809
 30
0.0
 11
378.94864037977447
 21
474.04799906901809
 31
0.0
  0
LINE
  5
31DF
  8
AM_0
 10
346.94864037977442
 20
466.04802906901801
 30
0.0
 11
378.94864037977447
 21
466.04802906901801
 31
0.0
  0
ARC
  5
31E0
  8
AM_0
 10
346.94864037977442
 20
470.04799906901809
 30
0.0
 40
3.9999962
 50
90.000003000000945
 51
270.0
  0
LINE
  5
31E1
  8
AM_0
 10
346.94864037977442
 20
474.04799906901809
 30
0.0
 11
346.94864037977442
 21
466.04802906901801
 31
0.0
  0
LINE
  5
31E2
  8
AM_0
 10
336.94864037977447
 20
485.04802906901818
 30
0.0
 11
338.94867037977451
 21
485.04802906901818
 31
0.0
  0
ARC
  5
31E3
  8
AM_0
 10
335.94864037977447
 20
495.58232906901799
 30
0.0
 40
1.0
 50
0.0
 51
87.999999999999659
  0
LINE
  5
31E4
  8
AM_0
 10
335.94867037977451
 20
496.58293906901798
 30
0.0
 11
335.98352037977452
 21
496.58171906901811
 31
0.0
  0
LINE
  5
31E5
  8
AM_0
 10
331.94864037977447
 20
540.04802906901818
 30
0.0
 11
335.94867037977451
 21
540.04802906901818
 31
0.0
  0
ARC
  5
31E6
  8
AM_0
 10
324.94864037977459
 20
511.99968906901802
 30
0.0
 40
3.0
 50
179.9999899999988
 51
270.0
  0
ARC
  5
31E7
  8
AM_0
 10
319.94864037977447
 20
519.7461490690182
 30
0.0
 40
2.0
 50
270.0
 51
0.0
  0
ARC
  5
31E8
  8
AM_0
 10
316.94864037977447
 20
533.03099906901821
 30
0.0
 40
5.0
 50
300.56828999999891
 51
0.0
  0
ARC
  5
31E9
  8
AM_0
 10
316.94864037977447
 20
536.51524906901807
 30
0.0
 40
5.0
 50
300.56828999999891
 51
0.0
  0
ARC
  5
31EA
  8
AM_0
 10
323.94867037977451
 20
552.76741906901816
 30
0.0
 40
2.0
 50
91.999998000000545
 51
180.00001000000091
  0
ARC
  5
31EB
  8
AM_0
 10
318.94864037977447
 20
546.75328906901814
 30
0.0
 40
3.0
 50
271.4999999999992
 51
0.0
  0
LINE
  5
31EC
  8
AM_0
 10
323.87881037977451
 20
554.76625906901813
 30
0.0
 11
331.94864037977447
 21
555.04805906901811
 31
0.0
  0
LINE
  5
31F0
  8
ﾁｭｳｼﾝｾﾝ
 10
382.66113037977442
 20
243.9958226041623
 30
0.0
 11
243.05204871059601
 21
243.9958226041623
 31
0.0
  0
LINE
  5
31F1
  8
AM_0
 10
336.94866037977448
 20
218.04648260416209
 30
0.0
 11
336.94866037977448
 21
270.02453960416238
 31
0.0
  0
LINE
  5
31F2
  8
AM_0
 10
325.9486203797747
 20
179.7144476041623
 30
0.0
 11
325.9486203797747
 21
310.77713960416241
 31
0.0
  0
LINE
  5
31F3
  8
AM_0
 10
303.94866037977448
 20
308.06978960416228
 30
0.0
 11
303.94866037977448
 21
262.8406736041623
 31
0.0
  0
LINE
  5
31F4
  8
AM_0
 10
331.9486203797747
 20
161.49577460416231
 30
0.0
 11
331.9486203797747
 21
328.99580960416228
 31
0.0
  0
LINE
  5
31F5
  8
AM_0
 10
264.9486903797744
 20
265.4901476041623
 30
0.0
 11
264.9486903797744
 21
154.99578860416199
 31
0.0
  0
LINE
  5
31F6
  8
AM_0
 10
271.94862037977452
 20
294.99582560416218
 30
0.0
 11
271.94862037977452
 21
150.4957886041621
 31
0.0
  0
LINE
  5
31F7
  8
AM_0
 10
233.9486703797744
 20
167.9957906041621
 30
0.0
 11
233.9486703797744
 21
279.99582260416207
 31
0.0
  0
LINE
  5
31F8
  8
AM_0
 10
259.94862037977452
 20
273.66293660416238
 30
0.0
 11
259.94862037977452
 21
254.02383860416211
 31
0.0
  0
LINE
  5
31F9
  8
0
 10
212.9486703797744
 20
301.995806604162
 30
0.0
 11
212.9486703797744
 21
145.99580660416211
 31
0.0
1001
GENIUS_GENOREF_13
1005
2E7B
  0
LINE
  5
31FA
  8
0
 10
202.9486703797746
 20
143.99580660416211
 30
0.0
 11
202.9486703797746
 21
303.995806604162
 31
0.0
1001
GENIUS_GENOREF_13
1005
2E7B
  0
LINE
  5
31FB
  8
AM_0
 10
233.9486703797744
 20
255.93324560416229
 30
0.0
 11
212.9486703797744
 21
255.93324560416229
 31
0.0
  0
LINE
  5
31FC
  8
AM_0
 10
233.9486703797744
 20
177.9957896041623
 30
0.0
 11
212.9486703797744
 21
177.9957896041623
 31
0.0
  0
LINE
  5
31FD
  8
AM_0
 10
233.9486703797744
 20
192.05836460416231
 30
0.0
 11
212.9486703797744
 21
192.05836460416231
 31
0.0
  0
LINE
  5
31FE
  8
0
 10
214.87887138636941
 20
166.8298745492595
 30
0.0
 11
233.9486703797744
 21
167.49580660416211
 31
0.0
  0
LINE
  5
31FF
  8
ﾁｭｳｼﾝｾﾝ
 10
193.0531869671473
 20
223.99580660416211
 30
0.0
 11
269.5472000164101
 21
223.99580660416211
 31
0.0
  0
LINE
  5
3200
  8
0
 10
202.9486703797746
 20
143.99580660416211
 30
0.0
 11
210.9486703797744
 21
143.99580660416211
 31
0.0
  0
ARC
  5
3201
  8
0
 10
210.9486703797744
 20
145.99580660416211
 30
0.0
 40
2.0
 50
270.0
 51
0.0
1001
GENIUS_GENOBJ-N-FIL_13
1002
{
1000
OWNER
1000
GEN
1002
}
1001
GENIUS_GENODEF_13
1002
{
1000
HIER
1070
     0
1002
}
1002
{
1000
MANEDIT
1070
     0
1002
}
1002
{
1000
NOSEL
1070
     0
1002
}
1002
{
1000
BEHIND
1070
     0
1002
}
1002
{
1000
OTHER
1070
     0
1002
}
1002
{
1000
REACTOR
1002
}
  0
ARC
  5
3202
  8
0
 10
214.9486703797744
 20
164.83109289522139
 30
0.0
 40
2.0
 50
92.000000000000341
 51
180.0
1001
GENIUS_GENOBJ-N-FIL_13
1002
{
1000
OWNER
1000
GEN
1002
}
1001
GENIUS_GENODEF_13
1002
{
1000
HIER
1070
     0
1002
}
1002
{
1000
MANEDIT
1070
     0
1002
}
1002
{
1000
NOSEL
1070
     0
1002
}
1002
{
1000
BEHIND
1070
     0
1002
}
1002
{
1000
OTHER
1070
     0
1002
}
1002
{
1000
REACTOR
1002
}
  0
ARC
  5
3203
  8
AM_0
 10
322.9486203797747
 20
179.7144476041623
 30
0.0
 40
3.0
 50
270.0
 51
0.0
  0
LINE
  5
3204
  8
AM_0
 10
335.9486403797747
 20
243.9958226041623
 30
0.0
 11
335.9486403797747
 21
173.99579060416229
 31
0.0
  0
LINE
  5
3205
  8
AM_0
 10
321.94866037977448
 20
163.77636860416209
 30
0.0
 11
321.94866037977448
 21
196.8414626041621
 31
0.0
  0
LINE
  5
3206
  8
AM_0
 10
271.94862037977452
 20
161.1257186041623
 30
0.0
 11
307.94862037977452
 21
161.1257186041623
 31
0.0
  0
LINE
  5
3207
  8
AM_0
 10
271.94862037977452
 20
150.4957886041621
 30
0.0
 11
307.94868037977432
 21
148.99578860416199
 31
0.0
  0
ARC
  5
3208
  8
AM_0
 10
261.9486903797744
 20
152.4957896041621
 30
0.0
 40
2.00000007
 50
179.9999899999988
 51
270.0
  0
LINE
  5
3209
  8
AM_0
 10
259.94862037977452
 20
174.78004760416221
 30
0.0
 11
264.9486903797744
 21
174.78004760416221
 31
0.0
  0
LINE
  5
320A
  8
AM_0
 10
259.94862037977452
 20
172.78004660416229
 30
0.0
 11
259.94862037977452
 21
152.4957896041621
 31
0.0
  0
LINE
  5
320B
  8
AM_0
 10
233.9486703797744
 20
167.9957906041621
 30
0.0
 11
257.02716037977473
 21
167.39146460416231
 31
0.0
  0
ARC
  5
320C
  8
AM_0
 10
256.9486203797747
 20
164.39248760416211
 30
0.0
 40
3.0
 50
0.0
 51
88.499997000000747
  0
ARC
  5
320D
  8
AM_0
 10
257.9486703797744
 20
172.78004660416229
 30
0.0
 40
2.00000007
 50
0.0
 51
90.000003000000945
  0
LINE
  5
320E
  8
AM_0
 10
261.9486903797744
 20
150.4957886041621
 30
0.0
 11
271.94862037977452
 21
150.4957886041621
 31
0.0
  0
LINE
  5
320F
  8
AM_0
 10
266.9486703797744
 20
152.9957906041621
 30
0.0
 11
271.94862037977452
 21
152.9957906041621
 31
0.0
  0
ARC
  5
3210
  8
AM_0
 10
266.9486703797744
 20
154.99578860416199
 30
0.0
 40
2.00000007
 50
179.9999899999988
 51
270.0
  0
LINE
  5
3211
  8
AM_0
 10
323.87886037977432
 20
161.7775886041623
 30
0.0
 11
331.94865037977422
 21
161.4957896041623
 31
0.0
  0
LINE
  5
3212
  8
AM_0
 10
307.94862037977452
 20
164.40626660416211
 30
0.0
 11
307.94862037977452
 21
148.99578860416199
 31
0.0
  0
LINE
  5
3213
  8
AM_0
 10
308.92248037977453
 20
165.40592960416231
 30
0.0
 11
321.94866037977448
 21
165.7470266041621
 31
0.0
  0
ARC
  5
3214
  8
AM_0
 10
308.9486403797747
 20
164.40626660416211
 30
0.0
 40
1.0000000199999981
 50
91.500001000001546
 51
180.00001000000091
  0
ARC
  5
3215
  8
AM_0
 10
323.9486403797747
 20
163.77636860416209
 30
0.0
 40
2.00000007
 50
179.9999899999988
 51
268.00000999999861
  0
LINE
  5
3216
  8
AM_0
 10
331.9486203797747
 20
173.99579060416229
 30
0.0
 11
335.9486403797747
 21
173.99579060416229
 31
0.0
  0
LINE
  5
3217
  8
AM_0
 10
233.9486703797744
 20
177.995804604162
 30
0.0
 11
264.9486903797744
 21
177.995804604162
 31
0.0
  0
LINE
  5
3218
  8
AM_0
 10
233.9486703797744
 20
192.05877860416231
 30
0.0
 11
264.9486903797744
 21
192.05877860416231
 31
0.0
  0
LINE
  5
3219
  8
AM_0
 10
259.94862037977452
 20
252.0238526041623
 30
0.0
 11
264.9486903797744
 21
252.0238526041623
 31
0.0
  0
LINE
  5
321A
  8
AM_0
 10
233.9486703797744
 20
255.9328046041623
 30
0.0
 11
259.94862037977452
 21
255.9328046041623
 31
0.0
  0
ARC
  5
321B
  8
AM_0
 10
257.9486703797744
 20
254.02383860416211
 30
0.0
 40
2.00000007
 50
270.0
 51
0.0
  0
ARC
  5
321C
  8
AM_0
 10
324.94866037977448
 20
196.8414626041621
 30
0.0
 40
3.0
 50
90.000003000000945
 51
180.00001000000091
  0
ARC
  5
321D
  8
AM_0
 10
333.94866037977448
 20
218.04648260416209
 30
0.0
 40
3.0
 50
311.81031000000121
 51
0.0
  0
LINE
  5
321E
  8
AM_0
 10
308.9486403797747
 20
257.84065760416229
 30
0.0
 11
323.17941037977448
 21
257.84065760416229
 31
0.0
  0
ARC
  5
321F
  8
AM_0
 10
308.9486403797747
 20
262.8406736041623
 30
0.0
 40
5.0000001000000003
 50
179.9999899999988
 51
270.0
  0
LINE
  5
3222
  8
AM_0
 10
335.9486403797747
 20
243.9958226041623
 30
0.0
 11
335.9486403797747
 21
255.7987706041624
 31
0.0
  0
LINE
  5
3223
  8
AM_0
 10
331.9486203797747
 20
255.7987706041624
 30
0.0
 11
335.9486403797747
 21
255.7987706041624
 31
0.0
  0
LINE
  5
3226
  8
AM_0
 10
233.9486703797744
 20
269.99580560416211
 30
0.0
 11
212.9486703797744
 21
269.99580560416211
 31
0.0
  0
LINE
  5
3227
  8
0
 10
214.87887138636941
 20
281.16173865906501
 30
0.0
 11
233.9486703797744
 21
280.49580660416211
 31
0.0
  0
ARC
  5
3228
  8
0
 10
214.9486703797744
 20
283.16052031310312
 30
0.0
 40
2.0
 50
180.0
 51
267.9999999999996
1001
GENIUS_GENOBJ-N-FIL_13
1002
{
1000
OWNER
1000
GEN
1002
}
1001
GENIUS_GENODEF_13
1002
{
1000
HIER
1070
     0
1002
}
1002
{
1000
MANEDIT
1070
     0
1002
}
1002
{
1000
NOSEL
1070
     0
1002
}
1002
{
1000
BEHIND
1070
     0
1002
}
1002
{
1000
OTHER
1070
     0
1002
}
1002
{
1000
REACTOR
1002
}
  0
LINE
  5
3229
  8
0
 10
202.9486703797746
 20
303.995806604162
 30
0.0
 11
210.9486703797744
 21
303.995806604162
 31
0.0
  0
ARC
  5
322A
  8
0
 10
210.9486703797744
 20
301.995806604162
 30
0.0
 40
2.0
 50
0.0
 51
90.0
1001
GENIUS_GENOBJ-N-FIL_13
1002
{
1000
OWNER
1000
GEN
1002
}
1001
GENIUS_GENODEF_13
1002
{
1000
HIER
1070
     0
1002
}
1002
{
1000
MANEDIT
1070
     0
1002
}
1002
{
1000
NOSEL
1070
     0
1002
}
1002
{
1000
BEHIND
1070
     0
1002
}
1002
{
1000
OTHER
1070
     0
1002
}
1002
{
1000
REACTOR
1002
}
  0
LINE
  5
322B
  8
AM_0
 10
271.94862037977452
 20
272.79285260416231
 30
0.0
 11
302.2669203797746
 21
272.79285260416231
 31
0.0
  0
LINE
  5
322C
  8
AM_0
 10
271.94868037977449
 20
294.99579260416232
 30
0.0
 11
301.0271703797747
 21
295.75723760416213
 31
0.0
  0
ARC
  5
322D
  8
AM_0
 10
259.94862037977452
 20
285.67835060416218
 30
0.0
 40
5.0000001000000003
 50
271.4999999999992
 51
0.0
  0
ARC
  5
322E
  8
AM_0
 10
261.9486903797744
 20
273.66293660416238
 30
0.0
 40
2.00000007
 50
90.000003000000945
 51
180.00001000000091
  0
ARC
  5
322F
  8
AM_0
 10
261.9486903797744
 20
269.49014660416231
 30
0.0
 40
2.00000007
 50
179.9999899999988
 51
270.0
  0
LINE
  5
3230
  8
AM_0
 10
233.9486703797744
 20
269.99579360416232
 30
0.0
 11
259.94862037977452
 21
269.99579360416232
 31
0.0
  0
LINE
  5
3231
  8
AM_0
 10
233.9486703797744
 20
279.99579260416232
 30
0.0
 11
260.07954037977453
 21
280.68005960416241
 31
0.0
  0
LINE
  5
3232
  8
AM_0
 10
264.9486903797744
 20
292.99579460416231
 30
0.0
 11
264.9486903797744
 21
277.66296860416202
 31
0.0
  0
ARC
  5
3233
  8
AM_0
 10
262.9486203797747
 20
265.4901476041623
 30
0.0
 40
2.00000007
 50
0.0
 51
90.000003000000945
  0
LINE
  5
3234
  8
AM_0
 10
261.9486903797744
 20
267.49014860416241
 30
0.0
 11
262.9486203797747
 21
267.49014860416241
 31
0.0
  0
ARC
  5
3235
  8
AM_0
 10
262.9486203797747
 20
277.66296860416202
 30
0.0
 40
2.00000007
 50
270.0
 51
0.0
  0
LINE
  5
3236
  8
AM_0
 10
261.9486903797744
 20
275.66296760416208
 30
0.0
 11
262.9486203797747
 21
275.66296760416208
 31
0.0
  0
LINE
  5
3237
  8
AM_0
 10
266.9486703797744
 20
294.99582560416218
 30
0.0
 11
271.94862037977452
 21
294.99582560416218
 31
0.0
  0
ARC
  5
3238
  8
AM_0
 10
266.9486703797744
 20
292.99579460416231
 30
0.0
 40
2.00000007
 50
90.000003000000945
 51
180.00001000000091
  0
LINE
  5
3239
  8
AM_0
 10
335.9486403797747
 20
282.62042660416199
 30
0.0
 11
335.9486403797747
 21
313.99577960416218
 31
0.0
  0
LINE
  5
323A
  8
AM_0
 10
321.94866037977448
 20
285.94748360416241
 30
0.0
 11
321.94866037977448
 21
326.715209604162
 31
0.0
  0
ARC
  5
323B
  8
AM_0
 10
319.40472037977452
 20
283.65296060416227
 30
0.0
 40
3.0
 50
22.483536000001401
 51
90.000003000000945
  0
ARC
  5
323C
  8
AM_0
 10
324.94866037977448
 20
285.94748360416241
 30
0.0
 40
3.0
 50
179.9999899999988
 51
270.0
  0
LINE
  5
323D
  8
AM_0
 10
305.39682037977451
 20
283.72449260416232
 30
0.0
 11
322.4340903797746
 21
283.72449260416232
 31
0.0
  0
LINE
  5
323E
  8
AM_0
 10
305.94864037977447
 20
286.65296060416227
 30
0.0
 11
319.40472037977452
 21
286.65296060416227
 31
0.0
  0
LINE
  5
323F
  8
AM_0
 10
303.94866037977448
 20
290.22946760416232
 30
0.0
 11
320.27778037977453
 21
298.29929060416202
 31
0.0
  0
ARC
  5
3240
  8
AM_0
 10
300.94869037977452
 20
298.756229604162
 30
0.0
 40
3.0
 50
271.4999999999992
 51
0.0
  0
ARC
  5
3241
  8
AM_0
 10
305.94864037977447
 20
288.65295860416228
 30
0.0
 40
2.00000007
 50
179.9999899999988
 51
270.0
  0
ARC
  5
3242
  8
AM_0
 10
318.94866037977459
 20
300.9887756041623
 30
0.0
 40
3.0
 50
296.29842999999852
 51
0.0
  0
LINE
  5
3243
  8
AM_0
 10
332.66088037977448
 20
276.226445604162
 30
0.0
 11
335.9486403797747
 21
272.30823260416241
 31
0.0
  0
ARC
  5
3244
  8
AM_0
 10
333.94866037977448
 20
270.02453960416238
 30
0.0
 40
3.0
 50
0.0
 51
39.999999000000287
  0
LINE
  5
3245
  8
AM_0
 10
335.9486403797747
 20
272.30823260416241
 30
0.0
 11
336.24678037977452
 21
271.95291560416211
 31
0.0
  0
LINE
  5
3246
  8
AM_0
 10
331.9486203797747
 20
282.62042660416199
 30
0.0
 11
335.9486403797747
 21
282.62042660416199
 31
0.0
  0
ARC
  5
3247
  8
AM_0
 10
330.36276037977461
 20
274.29806960416198
 30
0.0
 40
3.0
 50
39.999999000000287
 51
58.08679700000102
  0
LINE
  5
3248
  8
AM_0
 10
323.87883037977463
 20
328.71398960416218
 30
0.0
 11
331.9486203797747
 21
328.99580960416228
 31
0.0
  0
LINE
  5
3249
  8
AM_0
 10
309.27414037977462
 20
313.06673960416231
 30
0.0
 11
319.05336037977452
 21
313.40822960416227
 31
0.0
  0
ARC
  5
324A
  8
AM_0
 10
308.9486403797747
 20
308.06978960416228
 30
0.0
 40
5.0000001000000003
 50
91.999998000000545
 51
180.00001000000091
  0
ARC
  5
324B
  8
AM_0
 10
318.94866037977459
 20
316.40639960416217
 30
0.0
 40
3.0
 50
272.0000000000004
 51
0.0
  0
ARC
  5
324C
  8
AM_0
 10
322.9486203797747
 20
310.77713960416241
 30
0.0
 40
3.0
 50
0.0
 51
90.000003000000945
  0
ARC
  5
324D
  8
AM_0
 10
323.9486403797747
 20
326.715209604162
 30
0.0
 40
2.00000007
 50
91.999998000000545
 51
180.00001000000091
  0
LINE
  5
324E
  8
AM_0
 10
331.9486203797747
 20
313.99577960416218
 30
0.0
 11
335.9486403797747
 21
313.99577960416218
 31
0.0
  0
LINE
  5
324F
  8
AM_0
 10
460.29447757524531
 20
273.99582260416207
 30
0.0
 11
460.29447757524531
 21
243.9958226041623
 31
0.0
  0
LINE
  5
3250
  8
AM_0
 10
630.29445157524515
 20
273.99582260416207
 30
0.0
 11
630.29445157524515
 21
243.9958226041623
 31
0.0
  0
LINE
  5
3251
  8
AM_0
 10
492.73301557524519
 20
268.73981060416207
 30
0.0
 11
489.85801357524502
 21
263.76016760416212
 31
0.0
  0
LINE
  5
3252
  8
AM_0
 10
484.10801557524479
 20
263.76013760416231
 30
0.0
 11
481.23301357524531
 21
268.73978060416232
 31
0.0
  0
LINE
  5
3253
  8
AM_0
 10
609.35595757524516
 20
268.73975060416228
 30
0.0
 11
606.48095857524527
 21
263.7600746041623
 31
0.0
  0
LINE
  5
3254
  8
AM_0
 10
600.73095757524527
 20
263.7600746041623
 30
0.0
 11
597.8559585752455
 21
268.73975060416228
 31
0.0
  0
ARC
  5
3255
  8
AM_0
 10
603.6059115752455
 20
268.73981060416207
 30
0.0
 40
11.000000399999999
 50
311.14394000000038
 51
94.843180000001766
  0
ARC
  5
3256
  8
AM_0
 10
486.98301457524531
 20
268.73981060416207
 30
0.0
 40
11.000000399999999
 50
85.156818000000143
 51
228.85605999999939
  0
ARC
  5
3257
  8
AM_0
 10
545.29444957524515
 20
243.9958226041623
 30
0.0
 40
52.000007999999987
 50
137.75566999999961
 51
174.78408999999971
  0
ARC
  5
3258
  8
AM_0
 10
545.29444957524515
 20
243.9958226041623
 30
0.0
 40
52.000007999999987
 50
5.215907700001436
 51
42.244334000000627
  0
ARC
  5
3259
  8
AM_0
 10
545.29444957524515
 20
243.9958226041623
 30
0.0
 40
66.000003000000007
 50
168.1228399999984
 51
0.0000100179138904
  0
ARC
  5
325A
  8
AM_0
 10
545.29444957524515
 20
243.9958226041623
 30
0.0
 40
70.000001999999995
 50
164.5475099999986
 51
0.0000100179138904
  0
ARC
  5
325B
  8
AM_0
 10
545.29444957524515
 20
243.9958226041623
 30
0.0
 40
33.0
 50
0.0
 51
180.00001000000091
  0
ARC
  5
325C
  8
AM_0
 10
574.34056057524549
 20
265.26370760416199
 30
0.0
 40
3.0
 50
135.0
 51
216.2120599999985
  0
ARC
  5
325D
  8
AM_0
 10
516.24835057524524
 20
265.26370760416199
 30
0.0
 40
3.0
 50
323.7879400000013
 51
45.00000099999918
  0
ARC
  5
325E
  8
AM_0
 10
545.29444957524515
 20
243.9958226041623
 30
0.0
 40
26.500002599999998
 50
270.0
 51
90.000003000000945
  0
ARC
  5
325F
  8
AM_0
 10
545.29444957524515
 20
243.9958226041623
 30
0.0
 40
26.500002599999998
 50
90.000003000000945
 51
270.0
  0
CIRCLE
  5
3260
  8
AM_0
 10
486.98301457524531
 20
268.73981060416207
 30
0.0
 40
4.9796462999999971
  0
CIRCLE
  5
3261
  8
AM_0
 10
603.60595657524516
 20
268.73975060416228
 30
0.0
 40
4.9796462999999971
  0
LINE
  5
3262
  8
ﾁｭｳｼﾝｾﾝ
 10
545.29444957524515
 20
333.50118029302962
 30
0.0
 11
545.29444957524515
 21
141.00496535496981
 31
0.0
  0
LINE
  5
3263
  8
AM_0
 10
588.8437365752452
 20
161.4957896041623
 30
0.0
 11
618.05340757524516
 21
161.4957896041623
 31
0.0
  0
LINE
  5
3264
  8
AM_0
 10
583.29446557524534
 20
218.99580560416209
 30
0.0
 11
604.32835357524516
 21
218.99580560416209
 31
0.0
  0
LINE
  5
3265
  8
ﾁｭｳｼﾝｾﾝ
 10
458.62295005047122
 20
243.9958226041623
 30
0.0
 11
633.44556287882642
 21
243.9958226041623
 31
0.0
  0
LINE
  5
3266
  8
AM_0
 10
460.2944475752451
 20
213.9957926041622
 30
0.0
 11
462.54921757524522
 21
170.9724296041621
 31
0.0
  0
ARC
  5
3267
  8
AM_0
 10
472.53550357524517
 20
171.49579160416209
 30
0.0
 40
10.000000199999979
 50
183.00000999999941
 51
270.0
  0
LINE
  5
3269
  8
AM_0
 10
460.29447757524531
 20
213.9958226041623
 30
0.0
 11
460.29447757524531
 21
243.9958226041623
 31
0.0
  0
CIRCLE
  5
326A
  8
AM_0
 10
474.58378357524498
 20
173.2851116041623
 30
0.0
 40
6.0000002999999991
  0
ARC
  5
326B
  8
ﾁｭｳｼﾝｾﾝ1
 10
545.29444957524515
 20
243.9958226041623
 30
0.0
 40
100.0000109999999
 50
217.75737999999939
 51
232.63991999999891
  0
LINE
  5
326C
  8
ﾁｭｳｼﾝｾﾝ1
 10
465.59511757524513
 20
164.29644860416209
 30
0.0
 11
484.29035557524548
 21
182.99168660416231
 31
0.0
  0
LINE
  5
326D
  8
AM_0
 10
504.3432435752452
 20
165.99580460416209
 30
0.0
 11
586.24566757524519
 21
165.99580460416209
 31
0.0
  0
ARC
  5
326E
  8
AM_0
 10
545.29444957524515
 20
224.01539449536719
 30
0.0
 40
80.0
 50
249.48149963151749
 51
290.51850036848219
  0
LINE
  5
326F
  8
AM_0
 10
517.16717257524533
 20
149.09066960416209
 30
0.0
 11
573.4217385752454
 21
149.09066960416209
 31
0.0
  0
LINE
  5
3270
  8
AM_0
 10
472.53550357524517
 20
161.4957896041623
 30
0.0
 11
501.74515957524528
 21
161.4957896041623
 31
0.0
  0
ARC
  5
3271
  8
AM_0
 10
545.29444957524515
 20
224.01539449536719
 30
0.0
 40
80.0
 50
231.39766634156521
 51
245.53118966062041
  0
ARC
  5
3272
  8
AM_0
 10
517.16717257524533
 20
156.09068360416231
 30
0.0
 40
7.0000007999999987
 50
164.919440000001
 51
270.0
  0
CIRCLE
  5
3273
  8
AM_0
 10
517.16717257524533
 20
156.09068360416231
 30
0.0
 40
4.9796462999999971
  0
LINE
  5
3274
  8
AM_0
 10
514.29218857524529
 20
151.1110226041622
 30
0.0
 11
511.41718957524512
 21
156.09068360416231
 31
0.0
  0
LINE
  5
3275
  8
AM_0
 10
522.91718857524495
 20
156.090668604162
 30
0.0
 11
520.04218957524517
 21
151.1110226041622
 31
0.0
  0
LINE
  5
3276
  8
AM_0
 10
520.04215957524525
 20
151.1110406041621
 30
0.0
 11
514.29218857524529
 21
151.1110406041621
 31
0.0
  0
LINE
  5
3277
  8
AM_0
 10
511.41715957524548
 20
156.09068360416231
 30
0.0
 11
514.29215857524514
 21
161.07032960416231
 31
0.0
  0
LINE
  5
3278
  8
AM_0
 10
501.74515957524528
 20
161.495804604162
 30
0.0
 11
504.3432435752452
 21
165.99580460416209
 31
0.0
  0
ARC
  5
3279
  8
AM_0
 10
545.29444957524515
 20
223.99580660416211
 30
0.0
 40
71.000000999999983
 50
234.7757899999998
 51
238.4932699999984
  0
ARC
  5
327A
  8
AM_0
 10
505.5769485752453
 20
159.19979960416231
 30
0.0
 40
5.0000001000000003
 50
344.9836399999993
 51
56.872542999999951
  0
LINE
  5
327B
  8
AM_0
 10
522.91717357524487
 20
156.090668604162
 30
0.0
 11
520.04217457524533
 21
161.07032960416231
 31
0.0
  0
LINE
  5
327C
  8
AM_0
 10
520.04215957524525
 20
161.07032960416231
 30
0.0
 11
514.29218857524529
 21
161.07032960416231
 31
0.0
  0
LINE
  5
327D
  8
AM_0
 10
579.17175457524536
 20
156.090668604162
 30
0.0
 11
576.29675257524514
 21
151.1110226041622
 31
0.0
  0
ARC
  5
327E
  8
AM_0
 10
573.4217385752454
 20
156.09068360416231
 30
0.0
 40
7.0000007999999987
 50
270.00001999999853
 51
15.0805590000001
  0
CIRCLE
  5
327F
  8
AM_0
 10
573.4217385752454
 20
156.09068360416231
 30
0.0
 40
4.9796462999999971
  0
LINE
  5
3280
  8
AM_0
 10
570.54675157524525
 20
151.11100760416201
 30
0.0
 11
567.67173757524529
 21
156.090668604162
 31
0.0
  0
ARC
  5
3281
  8
AM_0
 10
545.29444957524515
 20
224.01539449536719
 30
0.0
 40
80.0
 50
294.46882733189608
 51
308.6023336584347
  0
LINE
  5
3282
  8
AM_0
 10
576.29673757524517
 20
151.1110406041621
 30
0.0
 11
570.54675157524525
 21
151.1110406041621
 31
0.0
  0
LINE
  5
3283
  8
AM_0
 10
579.17175457524536
 20
156.090668604162
 30
0.0
 11
576.29673757524517
 21
161.07031460416221
 31
0.0
  0
LINE
  5
3284
  8
AM_0
 10
567.67173757524529
 20
156.09068360416231
 30
0.0
 11
570.54673657524495
 21
161.07032960416231
 31
0.0
  0
LINE
  5
3285
  8
AM_0
 10
576.29673757524517
 20
161.07032960416231
 30
0.0
 11
570.54675157524525
 21
161.07032960416231
 31
0.0
  0
LINE
  5
3286
  8
AM_0
 10
588.84375157524516
 20
161.4957896041623
 30
0.0
 11
586.24566757524519
 21
165.99580460416209
 31
0.0
  0
ARC
  5
3287
  8
AM_0
 10
545.29444957524515
 20
223.99580660416211
 30
0.0
 40
71.000000999999983
 50
301.5067199999998
 51
305.22421000000008
  0
ARC
  5
3288
  8
AM_0
 10
585.01196257524532
 20
159.19979960416231
 30
0.0
 40
5.0000001000000003
 50
121.5067300000014
 51
195.0163499999997
  0
LINE
  5
3289
  8
ﾁｭｳｼﾝｾﾝ
 10
584.13435154759975
 20
223.99580660416211
 30
0.0
 11
506.45454760289073
 21
223.99580660416211
 31
0.0
  0
ARC
  5
328A
  8
AM_0
 10
507.29444557524528
 20
223.99580660416211
 30
0.0
 40
5.0000001000000003
 50
270.0
 51
0.0
  0
ARC
  5
328B
  8
AM_0
 10
490.2944475752451
 20
221.99580560416209
 30
0.0
 40
3.0
 50
270.0
 51
0.0
  0
ARC
  5
328C
  8
AM_0
 10
486.26057257524531
 20
221.99580560416209
 30
0.0
 40
3.0
 50
200.43878000000001
 51
270.0
  0
LINE
  5
328D
  8
AM_0
 10
507.29444557524528
 20
218.99580560416209
 30
0.0
 11
486.26057257524531
 21
218.99580560416209
 31
0.0
  0
ARC
  5
328E
  8
AM_0
 10
482.49317557524517
 20
238.99580660416211
 30
0.0
 40
3.0
 50
90.000003000000945
 51
184.55206999999891
  0
ARC
  5
328F
  8
AM_0
 10
490.2944475752451
 20
238.99580660416211
 30
0.0
 40
3.0
 50
0.0
 51
90.000003000000945
  0
LINE
  5
3290
  8
AM_0
 10
493.2944475752451
 20
238.99580660416211
 30
0.0
 11
493.2944475752451
 21
221.99580560416209
 31
0.0
  0
LINE
  5
3291
  8
AM_0
 10
482.49317557524517
 20
241.99580660416211
 30
0.0
 11
490.2944475752451
 21
241.99580660416211
 31
0.0
  0
ARC
  5
3292
  8
AM_0
 10
482.49317557524517
 20
248.99580860416231
 30
0.0
 40
3.0
 50
175.44793000000081
 51
270.0
  0
ARC
  5
3293
  8
AM_0
 10
478.00919857524491
 20
253.82915060416221
 30
0.0
 40
2.00000007
 50
351.68541000000101
 51
79.999998000001099
  0
LINE
  5
3294
  8
AM_0
 10
478.35651757524511
 20
255.7987556041623
 30
0.0
 11
478.35651757524511
 21
255.7987556041623
 31
0.0
  0
ARC
  5
3295
  8
AM_0
 10
478.00919857524491
 20
253.82915060416221
 30
0.0
 40
2.00000007
 50
79.999998000001099
 51
171.6854100000009
  0
LINE
  5
3296
  8
AM_0
 10
482.49317557524517
 20
245.99580860416231
 30
0.0
 11
490.52219857524528
 21
245.99580860416231
 31
0.0
  0
ARC
  5
3297
  8
AM_0
 10
490.52219857524528
 20
248.99580860416231
 30
0.0
 40
3.0
 50
270.0
 51
354.78408999999971
  0
LINE
  5
3298
  8
AM_0
 10
489.85801357524502
 20
263.76016760416212
 30
0.0
 11
484.10801557524479
 21
263.76016760416212
 31
0.0
  0
ARC
  5
3299
  8
AM_0
 10
477.77167957524529
 20
258.1969796041621
 30
0.0
 40
3.0
 50
348.12283999999852
 51
48.856062999999523
  0
LINE
  5
329A
  8
AM_0
 10
512.29444657524516
 20
243.9958226041623
 30
0.0
 11
512.29444657524516
 21
223.99580660416211
 31
0.0
  0
ARC
  5
329B
  8
AM_0
 10
583.29446557524534
 20
223.99580660416211
 30
0.0
 40
5.0000001000000003
 50
179.9999899999988
 51
270.0
  0
LINE
  5
32A3
  8
AM_0
 10
578.29444957524515
 20
243.9958226041623
 30
0.0
 11
578.29444957524515
 21
223.99580660416211
 31
0.0
  0
CIRCLE
  5
32A4
  8
AM_0
 10
616.0051275752453
 20
173.2851116041623
 30
0.0
 40
6.0000002999999991
  0
LINE
  5
32A5
  8
AM_0
 10
630.29446657524534
 20
213.9957926041622
 30
0.0
 11
628.03970557524531
 21
170.9724296041621
 31
0.0
  0
ARC
  5
32A6
  8
AM_0
 10
618.05340757524516
 20
171.49579160416209
 30
0.0
 40
10.000000199999979
 50
270.0
 51
357.00000000000091
  0
ARC
  5
32A7
  8
AM_0
 10
604.32835357524516
 20
221.99580560416209
 30
0.0
 40
3.0
 50
270.0
 51
339.56121999999971
  0
ARC
  5
32A8
  8
AM_0
 10
600.29446357524523
 20
221.99580560416209
 30
0.0
 40
3.0
 50
179.9999899999988
 51
270.0
  0
LINE
  5
32A9
  8
AM_0
 10
630.29445157524515
 20
213.9958226041623
 30
0.0
 11
630.29445157524515
 21
243.9958226041623
 31
0.0
  0
ARC
  5
32AA
  8
AM_0
 10
608.09573557524516
 20
238.99580660416211
 30
0.0
 40
3.0
 50
355.44793000000089
 51
90.000003000000945
  0
ARC
  5
32AB
  8
AM_0
 10
600.29446357524523
 20
238.99580660416211
 30
0.0
 40
3.0
 50
90.000003000000945
 51
180.00001000000091
  0
LINE
  5
32AC
  8
AM_0
 10
597.29446357524523
 20
238.99580660416211
 30
0.0
 11
597.29446357524523
 21
221.99580560416209
 31
0.0
  0
LINE
  5
32AD
  8
AM_0
 10
608.09573557524516
 20
241.99580660416211
 30
0.0
 11
600.29446357524523
 21
241.99580660416211
 31
0.0
  0
ARC
  5
32AE
  8
AM_0
 10
612.57971257524514
 20
253.82915060416221
 30
0.0
 40
2.00000007
 50
99.999999999998593
 51
188.31458999999879
  0
ARC
  5
32AF
  8
AM_0
 10
545.29444957524515
 20
243.9958226041623
 30
0.0
 40
66.000003000000007
 50
0.0
 51
11.877162000000419
  0
LINE
  5
32B0
  8
AM_0
 10
608.09573557524516
 20
245.99580860416231
 30
0.0
 11
600.06671257524511
 21
245.99580860416231
 31
0.0
  0
ARC
  5
32B1
  8
AM_0
 10
600.06671257524511
 20
248.99580860416231
 30
0.0
 40
3.0
 50
185.21591000000021
 51
270.0
  0
ARC
  5
32B2
  8
AM_0
 10
608.09573557524516
 20
248.99580860416231
 30
0.0
 40
3.0
 50
270.0
 51
4.5520714000013554
  0
LINE
  5
32B3
  8
AM_0
 10
606.48095857524527
 20
263.76010460416228
 30
0.0
 11
600.73095757524527
 21
263.76010460416228
 31
0.0
  0
ARC
  5
32B4
  8
AM_0
 10
612.81724657524535
 20
258.1969796041621
 30
0.0
 40
3.0
 50
131.14394000000021
 51
191.87716000000131
  0
ARC
  5
32B5
  8
AM_0
 10
545.29444957524515
 20
243.9958226041623
 30
0.0
 40
70.000001999999995
 50
0.0
 51
15.45248699999985
  0
ARC
  5
32B6
  8
AM_0
 10
612.57971257524514
 20
253.82915060416221
 30
0.0
 40
2.00000007
 50
8.314587399999116
 51
99.999999999998593
  0
LINE
  5
32B7
  8
AM_0
 10
612.23242357524521
 20
255.7987556041623
 30
0.0
 11
612.23242357524521
 21
255.7987556041623
 31
0.0
  0
LINE
  5
32B8
  8
AM_0
 10
575.29446457524523
 20
328.99580960416228
 30
0.0
 11
618.56387557524533
 21
326.7281696041623
 31
0.0
  0
ARC
  5
32B9
  8
AM_0
 10
545.29444957524515
 20
243.9958226041623
 30
0.0
 40
66.000003000000007
 50
34.109954000000712
 51
145.8900399999994
  0
ARC
  5
32BA
  8
AM_0
 10
545.29444957524515
 20
243.9958226041623
 30
0.0
 40
70.000001999999995
 50
30.534626999999471
 51
149.46537000000041
  0
ARC
  5
32BB
  8
AM_0
 10
593.5611885752453
 20
284.48438060416231
 30
0.0
 40
3.0
 50
39.991611000000759
 51
135.0
  0
LINE
  5
32BC
  8
AM_0
 10
460.29447757524531
 20
273.99579260416232
 30
0.0
 11
462.56211757524528
 21
317.26520960416218
 31
0.0
  0
ARC
  5
32BD
  8
AM_0
 10
472.54841257524549
 20
316.74185960416241
 30
0.0
 40
10.000000199999979
 50
92.999998999998368
 51
176.99999000000011
  0
LINE
  5
32BE
  8
AM_0
 10
515.29444657524527
 20
328.99580960416228
 30
0.0
 11
545.29444957524515
 21
328.99580960416228
 31
0.0
  0
ARC
  5
32BF
  8
AM_0
 10
497.02772257524521
 20
284.48438060416231
 30
0.0
 40
3.0
 50
45.00000099999918
 51
140.0083900000005
  0
ARC
  5
32C0
  8
AM_0
 10
490.76338057524521
 20
284.62042760416227
 30
0.0
 40
2.00000007
 50
143.31458000000069
 51
235.00001000000159
  0
LINE
  5
32C1
  8
AM_0
 10
489.85801357524502
 20
273.7194566041623
 30
0.0
 11
484.10801557524479
 21
273.7194566041623
 31
0.0
  0
LINE
  5
32C2
  8
AM_0
 10
481.23298357524533
 20
268.73981060416207
 30
0.0
 11
484.10801557524479
 21
273.7194566041623
 31
0.0
  0
LINE
  5
32C3
  8
AM_0
 10
492.73304557524528
 20
268.73978060416232
 30
0.0
 11
489.85801357524502
 21
273.7194566041623
 31
0.0
  0
ARC
  5
32C4
  8
AM_0
 10
490.76338057524521
 20
284.62042760416227
 30
0.0
 40
2.00000007
 50
234.9999999999998
 51
323.31458999999938
  0
ARC
  5
32C5
  8
AM_0
 10
488.16502057524519
 20
282.68982560416231
 30
0.0
 40
3.0
 50
265.1568200000014
 51
325.89004999999969
  0
LINE
  5
32C6
  8
AM_0
 10
489.6162225752455
 20
282.98212160416227
 30
0.0
 11
489.6162225752455
 21
282.98212160416227
 31
0.0
  0
ARC
  5
32C7
  8
AM_0
 10
545.29443447498011
 20
243.9958226041623
 30
0.0
 40
52.000007999999987
 50
95.215910999999693
 51
132.24432999999581
  0
LINE
  5
32C8
  8
AM_0
 10
502.68458257524492
 20
290.14121060416232
 30
0.0
 11
521.90521057524495
 21
270.9205976041622
 31
0.0
  0
LINE
  5
32C9
  8
AM_0
 10
499.14906157524553
 20
286.60565660416199
 30
0.0
 11
518.3696745752452
 21
267.38504360416221
 31
0.0
  0
ARC
  5
32CA
  8
AM_0
 10
524.02653457524548
 20
273.04190660416202
 30
0.0
 40
3.0
 50
225.0
 51
306.21205999999847
  0
ARC
  5
32CB
  8
AM_0
 10
504.80589157524531
 20
292.26251660416227
 30
0.0
 40
3.0
 50
129.9916099999993
 51
225.0
  0
LINE
  5
32CC
  8
AM_0
 10
515.29446157524524
 20
328.99580960416228
 30
0.0
 11
472.02503557524528
 21
326.72813960416232
 31
0.0
  0
CIRCLE
  5
32CD
  8
AM_0
 10
474.58378357524498
 20
314.70647960416221
 30
0.0
 40
6.0000002999999991
  0
ARC
  5
32CE
  8
AM_0
 10
550.29446257524523
 20
306.797069604162
 30
0.0
 40
3.0
 50
85.447927000001329
 51
180.00001000000091
  0
ARC
  5
32CF
  8
AM_0
 10
540.29444857524527
 20
306.797069604162
 30
0.0
 40
3.0
 50
0.0
 51
94.552070999998918
  0
ARC
  5
32D0
  8
AM_0
 10
545.29444957524515
 20
243.9958226041623
 30
0.0
 40
52.000007999999987
 50
47.755664999999908
 51
84.784094000000906
  0
ARC
  5
32D1
  8
AM_0
 10
540.29444857524527
 20
298.76807060416201
 30
0.0
 40
3.0
 50
275.21591000000029
 51
0.0
  0
LINE
  5
32D2
  8
AM_0
 10
543.29444857524516
 20
306.797069604162
 30
0.0
 11
543.29444857524516
 21
298.76807060416201
 31
0.0
  0
ARC
  5
32D3
  8
AM_0
 10
550.29446257524523
 20
298.76807060416201
 30
0.0
 40
3.0
 50
179.9999899999988
 51
264.78408999999971
  0
LINE
  5
32D4
  8
AM_0
 10
547.29446257524523
 20
306.797069604162
 30
0.0
 11
547.29446257524523
 21
298.76807060416201
 31
0.0
  0
LINE
  5
32D5
  8
AM_0
 10
591.43986457524534
 20
286.60568660416232
 30
0.0
 11
572.21923957524552
 21
267.38504360416221
 31
0.0
  0
LINE
  5
32D6
  8
AM_0
 10
587.90432857524524
 20
290.14121060416232
 30
0.0
 11
568.68368557524525
 21
270.92056760416227
 31
0.0
  0
ARC
  5
32D7
  8
AM_0
 10
566.56237657524525
 20
273.04190660416202
 30
0.0
 40
3.0
 50
233.78794000000141
 51
315.0
  0
ARC
  5
32D8
  8
AM_0
 10
585.78301957524536
 20
292.26251660416227
 30
0.0
 40
3.0
 50
315.0
 51
50.008388000000352
  0
LINE
  5
32D9
  8
AM_0
 10
575.29444957524515
 20
328.99580960416228
 30
0.0
 11
545.29444957524515
 21
328.99580960416228
 31
0.0
  0
LINE
  5
32DA
  8
AM_0
 10
630.29445157524515
 20
273.99579260416232
 30
0.0
 11
628.02679657524516
 21
317.26520960416218
 31
0.0
  0
ARC
  5
32DB
  8
ﾁｭｳｼﾝｾﾝ1
 10
545.29444957524515
 20
243.9958226041623
 30
0.0
 40
100.0000109999999
 50
37.757374999999172
 51
52.639915999999452
  0
LINE
  5
32DC
  8
ﾁｭｳｼﾝｾﾝ1
 10
625.1115735752453
 20
323.812919604162
 30
0.0
 11
606.25819357524529
 21
304.95953960416227
 31
0.0
  0
ARC
  5
32DD
  8
AM_0
 10
599.82554857524497
 20
284.62042760416227
 30
0.0
 40
2.00000007
 50
305.0
 51
36.685414000000087
  0
LINE
  5
32DE
  8
AM_0
 10
606.48095857524527
 20
273.71939660416211
 30
0.0
 11
600.73095757524527
 21
273.71939660416211
 31
0.0
  0
LINE
  5
32DF
  8
AM_0
 10
597.8559585752455
 20
268.73972060416241
 30
0.0
 11
600.73095757524527
 21
273.71939660416211
 31
0.0
  0
LINE
  5
32E0
  8
AM_0
 10
609.35595757524516
 20
268.73972060416241
 30
0.0
 11
606.48095857524527
 21
273.71939660416211
 31
0.0
  0
ARC
  5
32E1
  8
AM_0
 10
602.42390557524516
 20
282.68982560416231
 30
0.0
 40
3.0
 50
214.1099600000004
 51
274.84317999999843
  0
ARC
  5
32E2
  8
AM_0
 10
599.82554857524497
 20
284.62042760416227
 30
0.0
 40
2.00000007
 50
216.68541999999911
 51
305.0
  0
LINE
  5
32E3
  8
AM_0
 10
600.9727035752453
 20
282.98212160416227
 30
0.0
 11
600.9727035752453
 21
282.98212160416227
 31
0.0
  0
ARC
  5
32E4
  8
AM_0
 10
618.04051357524531
 20
316.74185960416241
 30
0.0
 40
10.000000199999979
 50
3.0000000999988461
 51
86.999999000000216
  0
CIRCLE
  5
32E5
  8
AM_0
 10
616.0051275752453
 20
314.70647960416221
 30
0.0
 40
6.0000002999999991
  0
LINE
  5
32E7
  8
0
 10
202.9486703797746
 20
390.04802906901801
 30
0.0
 11
202.9486703797746
 21
550.04802906901796
 31
0.0
1001
GENIUS_GENOREF_13
1005
2FFA
  0
LINE
  5
32E8
  8
0
 10
212.9486703797744
 20
548.04802906901818
 30
0.0
 11
212.9486703797744
 21
392.04802906901801
 31
0.0
1001
GENIUS_GENOREF_13
1005
2FFA
  0
LINE
  5
32E9
  8
0
 10
214.87887138636941
 20
412.88209701411517
 30
0.0
 11
233.9486703797744
 21
413.54802906901801
 31
0.0
  0
LINE
  5
32EA
  8
AM_0
 10
233.9486703797744
 20
424.04801206901823
 30
0.0
 11
212.9486703797744
 21
424.04801206901823
 31
0.0
  0
LINE
  5
32EB
  8
0
 10
202.9486703797746
 20
390.04802906901801
 30
0.0
 11
210.9486703797744
 21
390.04802906901801
 31
0.0
  0
ARC
  5
32EC
  8
0
 10
210.9486703797744
 20
392.04802906901801
 30
0.0
 40
2.0
 50
270.0
 51
0.0
1001
GENIUS_GENOBJ-N-FIL_13
1002
{
1000
OWNER
1000
GEN
1002
}
1001
GENIUS_GENODEF_13
1002
{
1000
HIER
1070
     0
1002
}
1002
{
1000
MANEDIT
1070
     0
1002
}
1002
{
1000
NOSEL
1070
     0
1002
}
1002
{
1000
BEHIND
1070
     0
1002
}
1002
{
1000
OTHER
1070
     0
1002
}
1002
{
1000
REACTOR
1002
}
  0
ARC
  5
32ED
  8
0
 10
214.9486703797744
 20
410.88331536007718
 30
0.0
 40
2.0
 50
92.000000000000341
 51
180.0
1001
GENIUS_GENOBJ-N-FIL_13
1002
{
1000
OWNER
1000
GEN
1002
}
1001
GENIUS_GENODEF_13
1002
{
1000
HIER
1070
     0
1002
}
1002
{
1000
MANEDIT
1070
     0
1002
}
1002
{
1000
NOSEL
1070
     0
1002
}
1002
{
1000
BEHIND
1070
     0
1002
}
1002
{
1000
OTHER
1070
     0
1002
}
1002
{
1000
REACTOR
1002
}
  0
LINE
  5
32EE
  8
AM_0
 10
233.9486703797744
 20
516.04802806901807
 30
0.0
 11
212.9486703797744
 21
516.04802806901807
 31
0.0
  0
LINE
  5
32EF
  8
AM_0
 10
233.9486703797744
 20
438.1105870690181
 30
0.0
 11
212.9486703797744
 21
438.1105870690181
 31
0.0
  0
LINE
  5
32F0
  8
AM_0
 10
233.9486703797744
 20
501.98546806901822
 30
0.0
 11
212.9486703797744
 21
501.98546806901822
 31
0.0
  0
LINE
  5
32F1
  8
0
 10
214.87887138636941
 20
527.21396112392085
 30
0.0
 11
233.9486703797744
 21
526.54802906901818
 31
0.0
  0
ARC
  5
32F2
  8
0
 10
214.9486703797744
 20
529.21274277795885
 30
0.0
 40
2.0
 50
180.0
 51
267.9999999999996
1001
GENIUS_GENOBJ-N-FIL_13
1002
{
1000
OWNER
1000
GEN
1002
}
1001
GENIUS_GENODEF_13
1002
{
1000
HIER
1070
     0
1002
}
1002
{
1000
MANEDIT
1070
     0
1002
}
1002
{
1000
NOSEL
1070
     0
1002
}
1002
{
1000
BEHIND
1070
     0
1002
}
1002
{
1000
OTHER
1070
     0
1002
}
1002
{
1000
REACTOR
1002
}
  0
LINE
  5
32F3
  8
0
 10
202.9486703797746
 20
550.04802906901796
 30
0.0
 11
210.9486703797744
 21
550.04802906901796
 31
0.0
  0
ARC
  5
32F4
  8
0
 10
210.9486703797744
 20
548.04802906901818
 30
0.0
 40
2.0
 50
0.0
 51
90.0
1001
GENIUS_GENOBJ-N-FIL_13
1002
{
1000
OWNER
1000
GEN
1002
}
1001
GENIUS_GENODEF_13
1002
{
1000
HIER
1070
     0
1002
}
1002
{
1000
MANEDIT
1070
     0
1002
}
1002
{
1000
NOSEL
1070
     0
1002
}
1002
{
1000
BEHIND
1070
     0
1002
}
1002
{
1000
OTHER
1070
     0
1002
}
1002
{
1000
REACTOR
1002
}
  0
LINE
  5
32F6
  8
ﾁｭｳｼﾝｾﾝ1
 10
465.47732557524517
 20
323.812919604162
 30
0.0
 11
484.3307055752453
 21
304.95953960416227
 31
0.0
  0
ARC
  5
32F7
  8
ﾁｭｳｼﾝｾﾝ1
 10
545.29444957524515
 20
243.9958226041623
 30
0.0
 40
100.0000109999999
 50
127.3600840000004
 51
142.2426250000008
  0
LINE
  5
32F8
  8
ﾁｭｳｼﾝｾﾝ1
 10
624.99378157524541
 20
164.29644860416209
 30
0.0
 11
606.29854357524528
 21
182.99168660416231
 31
0.0
  0
ARC
  5
32F9
  8
ﾁｭｳｼﾝｾﾝ1
 10
545.29444957524515
 20
243.9958226041623
 30
0.0
 40
100.0000109999999
 50
307.36008000000078
 51
322.2426200000005
  0
TEXT
  5
34D8
  8
AM_0
 10
451.7896773195086
 20
495.81235944636262
 30
0.0
 40
10.0
  1
VX02-080AF~VX02-100AF
  0
LINE
  5
3754
  8
AM_0
 10
336.94866037977448
 20
258.9958226041623
 30
0.0
 11
338.94870037977438
 21
258.9958226041623
 31
0.0
  0
LINE
  5
3755
  8
AM_0
 10
378.94866037977448
 20
260.9958236041623
 30
0.0
 11
378.94866037977448
 21
229.9958216041623
 31
0.0
  0
LINE
  5
3756
  8
AM_0
 10
338.94870037977438
 20
258.9958226041623
 30
0.0
 11
338.94870037977438
 21
228.9958226041623
 31
0.0
  0
LINE
  5
3757
  8
AM_0
 10
338.94870037977438
 20
229.9958216041623
 30
0.0
 11
378.94866037977448
 21
229.9958216041623
 31
0.0
  0
LINE
  5
3758
  8
AM_0
 10
346.94865037977451
 20
260.9958236041623
 30
0.0
 11
378.94866037977448
 21
260.9958236041623
 31
0.0
  0
LINE
  5
3759
  8
AM_0
 10
338.94870037977438
 20
257.99583860416237
 30
0.0
 11
378.94866037977448
 21
257.99583860416237
 31
0.0
  0
LINE
  5
375A
  8
AM_0
 10
346.94865037977451
 20
260.9958236041623
 30
0.0
 11
346.94865037977451
 21
257.99583860416237
 31
0.0
  0
LINE
  5
375B
  8
AM_0
 10
336.94866037977448
 20
228.9958226041623
 30
0.0
 11
338.94870037977438
 21
228.9958226041623
 31
0.0
  0
ARC
  5
3768
  8
AM_0
 10
545.29444957524515
 20
243.9958226041623
 30
0.0
 40
14.000001299999999
 50
106.6015399999951
 51
73.398452000004994
  0
LINE
  5
3769
  8
AM_0
 10
549.29443357524485
 20
253.99582460416229
 30
0.0
 11
549.29443357524485
 21
260.9958236041623
 31
0.0
  0
LINE
  5
376A
  8
AM_0
 10
541.29445057524481
 20
253.99582460416229
 30
0.0
 11
541.29445057524481
 21
260.9958236041623
 31
0.0
  0
CIRCLE
  5
376B
  8
AM_5
 10
545.29444957524515
 20
243.9958226041623
 30
0.0
 40
4.000000199999997
  0
CIRCLE
  5
376C
  8
AM_0
 10
545.29444957524515
 20
243.9958226041623
 30
0.0
 40
3.0
  0
LINE
  5
376D
  8
AM_0
 10
541.29445057524481
 20
253.99582460416229
 30
0.0
 11
549.29443357524485
 21
253.99582460416229
 31
0.0
  0
LINE
  5
376E
  8
AM_0
 10
541.29445057524481
 20
260.9958236041623
 30
0.0
 11
549.29443357524485
 21
260.9958236041623
 31
0.0
  0
ENDSEC
  0
EOF
