  0
SECTION
  2
HEADER
  9
$ACADVER
  1
AC1009
  9
$INSBASE
 10
0.0
 20
0.0
 30
0.0
  9
$EXTMIN
 10
191.87340766712259
 20
150.8519937268029
 30
-0.0000000000112498
  9
$EXTMAX
 10
680.51049220330378
 20
591.76645549745604
 30
0.0000000000002956
  9
$LIMMIN
 10
0.0
 20
0.0
  9
$LIMMAX
 10
853.5
 20
555.00000000000011
  9
$ORTHOMODE
 70
     0
  9
$REGENMODE
 70
     1
  9
$FILLMODE
 70
     1
  9
$QTEXTMODE
 70
     0
  9
$MIRRTEXT
 70
     1
  9
$DRAGMODE
 70
     2
  9
$LTSCALE
 40
3.0
  9
$OSMODE
 70
   551
  9
$ATTMODE
 70
     1
  9
$TEXTSIZE
 40
2.5
  9
$TRACEWID
 40
1.0
  9
$TEXTSTYLE
  7
STANDARD
  9
$CLAYER
  8
AM_0
  9
$CELTYPE
  6
BYLAYER
  9
$CECOLOR
 62
   256
  9
$DIMSCALE
 40
1.0
  9
$DIMASZ
 40
2.5
  9
$DIMEXO
 40
1.0
  9
$DIMDLI
 40
8.0
  9
$DIMRND
 40
0.0
  9
$DIMDLE
 40
0.0
  9
$DIMEXE
 40
0.6
  9
$DIMTP
 40
0.1
  9
$DIMTM
 40
0.1
  9
$DIMTXT
 40
2.5
  9
$DIMCEN
 40
0.0
  9
$DIMTSZ
 40
0.0
  9
$DIMTOL
 70
     0
  9
$DIMLIM
 70
     0
  9
$DIMTIH
 70
     0
  9
$DIMTOH
 70
     0
  9
$DIMSE1
 70
     0
  9
$DIMSE2
 70
     0
  9
$DIMTAD
 70
     1
  9
$DIMZIN
 70
     8
  9
$DIMBLK
  1

  9
$DIMASO
 70
     1
  9
$DIMSHO
 70
     1
  9
$DIMPOST
  1

  9
$DIMAPOST
  1
"
  9
$DIMALT
 70
     0
  9
$DIMALTD
 70
     2
  9
$DIMALTF
 40
0.0393701
  9
$DIMLFAC
 40
1.0
  9
$DIMTOFL
 70
     1
  9
$DIMTVP
 40
0.0
  9
$DIMTIX
 70
     0
  9
$DIMSOXD
 70
     0
  9
$DIMSAH
 70
     0
  9
$DIMBLK1
  1

  9
$DIMBLK2
  1

  9
$DIMSTYLE
  2
AM_ISO
  9
$DIMCLRD
 70
   256
  9
$DIMCLRE
 70
   256
  9
$DIMCLRT
 70
     4
  9
$DIMTFAC
 40
0.71
  9
$DIMGAP
 40
0.8
  9
$LUNITS
 70
     2
  9
$LUPREC
 70
     2
  9
$SKETCHINC
 40
1.0
  9
$FILLETRAD
 40
15.0
  9
$AUNITS
 70
     0
  9
$AUPREC
 70
     0
  9
$MENU
  1
.
  9
$ELEVATION
 40
0.0
  9
$PELEVATION
 40
0.0
  9
$THICKNESS
 40
0.0
  9
$LIMCHECK
 70
     0
  9
$BLIPMODE
 70
     0
  9
$CHAMFERA
 40
6.0
  9
$CHAMFERB
 40
3.0
  9
$SKPOLY
 70
     0
  9
$TDCREATE
 40
2452065.7561353361
  9
$TDUPDATE
 40
2458541.536538044
  9
$TDINDWG
 40
0.1266068287
  9
$TDUSRTIMER
 40
0.1266068056
  9
$USRTIMER
 70
     1
  9
$ANGBASE
 50
0.0
  9
$ANGDIR
 70
     0
  9
$PDMODE
 70
     0
  9
$PDSIZE
 40
0.0
  9
$PLINEWID
 40
0.0
  9
$COORDS
 70
     1
  9
$SPLFRAME
 70
     0
  9
$SPLINETYPE
 70
     6
  9
$SPLINESEGS
 70
     8
  9
$ATTDIA
 70
     1
  9
$ATTREQ
 70
     1
  9
$HANDLING
 70
     1
  9
$HANDSEED
  5
331C
  9
$SURFTAB1
 70
     6
  9
$SURFTAB2
 70
     6
  9
$SURFTYPE
 70
     6
  9
$SURFU
 70
     6
  9
$SURFV
 70
     6
  9
$UCSNAME
  2

  9
$UCSORG
 10
0.0
 20
0.0
 30
0.0
  9
$UCSXDIR
 10
1.0
 20
0.0
 30
0.0
  9
$UCSYDIR
 10
0.0
 20
1.0
 30
0.0
  9
$PUCSNAME
  2

  9
$PUCSORG
 10
0.0
 20
0.0
 30
0.0
  9
$PUCSXDIR
 10
1.0
 20
0.0
 30
0.0
  9
$PUCSYDIR
 10
0.0
 20
1.0
 30
0.0
  9
$USERI1
 70
     0
  9
$USERI2
 70
     0
  9
$USERI3
 70
     0
  9
$USERI4
 70
     0
  9
$USERI5
 70
     0
  9
$USERR1
 40
0.0
  9
$USERR2
 40
0.0
  9
$USERR3
 40
0.0
  9
$USERR4
 40
0.0
  9
$USERR5
 40
0.0
  9
$WORLDVIEW
 70
     1
  9
$SHADEDGE
 70
     3
  9
$SHADEDIF
 70
    70
  9
$TILEMODE
 70
     1
  9
$MAXACTVP
 70
    64
  9
$PLIMCHECK
 70
     0
  9
$PEXTMIN
 10
1.0000000000000000E+020
 20
1.0000000000000000E+020
 30
1.0000000000000000E+020
  9
$PEXTMAX
 10
-1.0000000000000000E+020
 20
-1.0000000000000000E+020
 30
-1.0000000000000000E+020
  9
$PLIMMIN
 10
0.0
 20
0.0
  9
$PLIMMAX
 10
420.0
 20
297.0
  9
$UNITMODE
 70
     0
  9
$VISRETAIN
 70
     1
  9
$PLINEGEN
 70
     0
  9
$PSLTSCALE
 70
     1
  0
ENDSEC
  0
SECTION
  2
TABLES
  0
TABLE
  2
VPORT
 70
     1
  0
VPORT
  2
*ACTIVE
 70
     0
 10
0.0
 20
0.0
 11
1.0
 21
1.0
 12
436.19194993521319
 22
371.30922461212953
 13
0.0
 23
0.0
 14
7.5
 24
7.5
 15
30.0
 25
30.0
 16
0.0
 26
0.0
 36
1.0
 17
0.0
 27
0.0
 37
0.0
 40
443.94133450592079
 41
1.7571592210767459
 42
50.0
 43
0.0
 44
0.0
 50
0.0
 51
0.0
 71
     0
 72
   100
 73
     1
 74
     3
 75
     0
 76
     0
 77
     0
 78
     0
  0
ENDTAB
  0
TABLE
  2
LTYPE
 70
    26
  0
LTYPE
  2
CONTINUOUS
 70
     0
  3
Solid line
 72
    65
 73
     0
 40
0.0
  0
LTYPE
  2
AM_ISO02W050
 70
     0
  3
__ __ __ __ __ __ __ __ __ __ __ __ __ __ __
 72
    65
 73
     2
 40
7.5
 49
6.0
 49
-1.5
  0
LTYPE
  2
AM_ISO08W050
 70
     0
  3
____ . ____ . ____ . ____ . ____ . ____ . ____
 72
    65
 73
     4
 40
18.0
 49
12.0
 49
-1.5
 49
3.0
 49
-1.5
  0
LTYPE
  2
AM_ISO09W050
 70
     0
  3
_____ . . _____ . . _____ . . ____ .. ____
 72
    65
 73
     6
 40
22.5
 49
12.0
 49
-1.5
 49
3.0
 49
-1.5
 49
3.0
 49
-1.5
  0
LTYPE
  2
AMCONSTR
 70
     0
  3
_______________________
 72
    65
 73
     2
 40
9999.0
 49
9999.0
 49
0.0
  0
LTYPE
  2
AM_ISO08W050X2
 70
     0
  3
__ . __ . __ . __ . __ . __
 72
    65
 73
     4
 40
9.0
 49
6.0
 49
-0.75
 49
1.5
 49
-0.75
  0
LTYPE
  2
AM_ISO02W050X2
 70
     0
  3
 _ _ _ _ _ _ _ _ _ _ _ _
 72
    65
 73
     2
 40
3.75
 49
3.0
 49
-0.75
  0
LTYPE
  2
AMZIGZAG
 70
     0
  3
/\/-/\/-/\/-/\/-/\/-/\/
 72
    65
 73
     2
 40
11.000099999999991
 49
0.0001
 49
-11.0
  0
LTYPE
  2
ACISOWELD
 70
     0
  3
_ _ _ _ _
 72
    65
 73
     2
 40
2.0
 49
2.0
 49
-1.0
  0
LTYPE
  2
ACISOTGB
 70
     0
  3
__ . . __ . .
 72
    65
 73
     6
 40
9.0
 49
4.0
 49
-1.0
 49
1.0
 49
-1.0
 49
1.0
 49
-1.0
  0
LTYPE
  2
ACISOTGL
 70
     0
  3
_ _ _ _ _
 72
    65
 73
     2
 40
3.0
 49
2.0
 49
-1.0
  0
LTYPE
  2
CENTER
 70
     0
  3
__ . __
 72
    65
 73
     4
 40
7.0
 49
4.0
 49
-1.0
 49
1.0
 49
-1.0
  0
LTYPE
  2
PHANTOM2
 70
     0
  3
Phantom (.5x) ___ _ _ ___ _ _ ___ _ _ ___ _ _
 72
    65
 73
     6
 40
31.75
 49
15.875
 49
-3.174999999999998
 49
3.174999999999998
 49
-3.174999999999998
 49
3.174999999999998
 49
-3.174999999999998
  0
LTYPE
  2
ACANSTGBM
 70
     0
  3
__ . . __ . .
 72
    65
 73
     6
 40
9.0
 49
4.0
 49
-1.0
 49
1.0
 49
-1.0
 49
1.0
 49
-1.0
  0
LTYPE
  2
ACANSTGLM
 70
     0
  3
_ _ _ _ _
 72
    65
 73
     2
 40
3.0
 49
2.0
 49
-1.0
  0
LTYPE
  2
GEN7
 70
     0
  3
____ . ____ . ____ . ____ . ____ . ____ . ____
 72
    65
 73
     4
 40
14.25
 49
9.75
 49
-1.5
 49
1.5
 49
-1.5
  0
LTYPE
  2
GEN7A
 70
     0
  3
__ . __ . __
 72
    65
 73
     4
 40
7.375
 49
4.75
 49
-0.875
 49
0.875
 49
-0.875
  0
LTYPE
  2
ACJISTGB
 70
     0
  3
__ . . __ . .
 72
    65
 73
     6
 40
9.0
 49
4.0
 49
-1.0
 49
1.0
 49
-1.0
 49
1.0
 49
-1.0
  0
LTYPE
  2
ACJISTGL
 70
     0
  3
_ _ _ _ _
 72
    65
 73
     2
 40
3.0
 49
2.0
 49
-1.0
  0
LTYPE
  2
HIDDEN
 70
     0
  3
Hidden __ __ __ __ __ __ __ __ __ __ __ __ __ _
 72
    65
 73
     2
 40
0.375
 49
0.25
 49
-0.125
  0
LTYPE
  2
CENTER2
 70
     0
  3
Center (.5x) ___ _ ___ _ ___ _ ___ _ ___ _ ___
 72
    65
 73
     4
 40
1.125
 49
0.75
 49
-0.125
 49
0.125
 49
-0.125
  0
LTYPE
  2
HIDDEN2
 70
     0
  3
Hidden (.5x) _ _ _ _ _ _ _ _ _ _ _ _ _ _ _ _ _
 72
    65
 73
     2
 40
0.1875
 49
0.125
 49
-0.0625
  0
LTYPE
  2
AMZIGZAG2
 70
     0
  3
/\/-/\/-/\/-/\/-/\/-/\/
 72
    65
 73
     2
 40
0.4401
 49
0.0001
 49
-0.4400000000000002
  0
LTYPE
  2
ACANSTGB
 70
     0
  3
__ . . __ . .
 72
    65
 73
     6
 40
0.35433070866
 49
0.15748031496
 49
-0.03937007874
 49
0.03937007874
 49
-0.03937007874
 49
0.03937007874
 49
-0.03937007874
  0
LTYPE
  2
ACANSTGL
 70
     0
  3
_ _ _ _ _
 72
    65
 73
     2
 40
0.11811023622
 49
0.07874015748
 49
-0.03937007874
  0
ENDTAB
  0
TABLE
  2
LAYER
 70
     6
  0
LAYER
  2
0
 70
     0
 62
     7
  6
CONTINUOUS
  0
LAYER
  2
AM_0
 70
     0
 62
     7
  6
CONTINUOUS
  0
LAYER
  2
AM_5
 70
     0
 62
     2
  6
CONTINUOUS
  0
LAYER
  2
DEFPOINTS
 70
     0
 62
     7
  6
CONTINUOUS
  0
LAYER
  2
ﾁｭｳｼﾝｾﾝ
 70
     0
 62
     1
  6
GEN7
  0
LAYER
  2
ﾁｭｳｼﾝｾﾝ1
 70
     0
 62
     1
  6
GEN7A
  0
ENDTAB
  0
TABLE
  2
STYLE
 70
     9
  0
STYLE
  2
STANDARD
 70
     0
 40
0.0
 41
0.8299999999999999
 50
0.0
 71
     0
 42
2.5
  3
txt.shx
  4
bigfont.shx
  0
STYLE
  2
ANNOTATIVE
 70
     0
 40
0.0
 41
1.0
 50
0.0
 71
     0
 42
0.2
  3
txt
  4

  0
STYLE
  2

 70
     1
 40
0.0
 41
1.0
 50
0.0
 71
     0
 42
2.5
  3
ltypeshp.shx
  4

  0
STYLE
  2
ACISOTS
 70
     0
 40
1.0
 41
1.0
 50
0.0
 71
     0
 42
2.5
  3
isocp.shx
  4
extfont.shx
  0
STYLE
  2
ACISOGDT
 70
     0
 40
0.0
 41
1.0
 50
0.0
 71
     0
 42
2.5
  3
amgdt.shx
  4

  0
STYLE
  2
ACANSTS
 70
     0
 40
1.0
 41
1.0
 50
0.0
 71
     0
 42
2.5
  3
romans.shx
  4
bigfont.shx
  0
STYLE
  2
ACANSGDT
 70
     0
 40
0.0
 41
1.0
 50
0.0
 71
     0
 42
2.5
  3
amgdt.shx
  4

  0
STYLE
  2
ACJISTS
 70
     0
 40
1.0
 41
1.0
 50
0.0
 71
     0
 42
2.5
  3
isocp.shx
  4
bigfont.shx
  0
STYLE
  2
ACJISGDT
 70
     0
 40
0.0
 41
1.0
 50
0.0
 71
     0
 42
2.5
  3
amgdt.shx
  4

  0
ENDTAB
  0
TABLE
  2
VIEW
 70
     6
  0
VIEW
  2
AM_VIEW1
 70
     0
 40
277.49999999999989
 10
249.64779005524849
 20
416.24999999999989
 41
499.2955801104971
 11
0.0
 21
0.0
 31
1.0
 12
0.0
 22
0.0
 32
0.0
 42
50.0
 43
0.0
 44
0.0
 50
0.0
 71
     0
  0
VIEW
  2
AM_VIEW2
 70
     0
 40
277.49999999999989
 10
603.85220994475117
 20
416.24999999999989
 41
499.2955801104971
 11
0.0
 21
0.0
 31
1.0
 12
0.0
 22
0.0
 32
0.0
 42
50.0
 43
0.0
 44
0.0
 50
0.0
 71
     0
  0
VIEW
  2
AM_VIEW3
 70
     0
 40
277.49999999999989
 10
249.64779005524849
 20
138.7499999999998
 41
499.2955801104971
 11
0.0
 21
0.0
 31
1.0
 12
0.0
 22
0.0
 32
0.0
 42
50.0
 43
0.0
 44
0.0
 50
0.0
 71
     0
  0
VIEW
  2
AM_VIEW4
 70
     0
 40
277.49999999999989
 10
603.85220994475117
 20
138.7499999999998
 41
499.2955801104971
 11
0.0
 21
0.0
 31
1.0
 12
0.0
 22
0.0
 32
0.0
 42
50.0
 43
0.0
 44
0.0
 50
0.0
 71
     0
  0
VIEW
  2
AM_VIEW5
 70
     0
 40
277.5
 10
426.75
 20
277.49999999999989
 41
499.2955801104971
 11
0.0
 21
0.0
 31
1.0
 12
0.0
 22
0.0
 32
0.0
 42
50.0
 43
0.0
 44
0.0
 50
0.0
 71
     0
  0
VIEW
  2
AM_VIEW6
 70
     0
 40
554.99445000000014
 10
426.75
 20
277.49999999999989
 41
998.5811743093924
 11
0.0
 21
0.0
 31
1.0
 12
0.0
 22
0.0
 32
0.0
 42
50.0
 43
0.0
 44
0.0
 50
0.0
 71
     0
  0
ENDTAB
  0
TABLE
  2
UCS
 70
     0
  0
ENDTAB
  0
TABLE
  2
APPID
 70
    95
  0
APPID
  2
ACAD
 70
     0
  0
APPID
  2
ACADANNOTATIVE
 70
     0
  0
APPID
  2
MCAD_NO_VIS
 70
     0
  0
APPID
  2
ACAD_TEMP_GRAPHIC
 70
     0
  0
APPID
  2
ACATTRIBSERVICES
 70
     0
  0
APPID
  2
GENIUS_GENREC_14
 70
     0
  0
APPID
  2
GENIUS_GENOBJ-N-REC_13
 70
     0
  0
APPID
  2
GENIUS_GENODEF_13
 70
     0
  0
APPID
  2
GENIUS_GENOLIS_13
 70
     0
  0
APPID
  2
GENIUS_GENOBJ-N-TIT_13
 70
     0
  0
APPID
  2
GENIUS_GENOENT_13
 70
     0
  0
APPID
  2
GENIUS_GENTITLE_13
 70
     0
  0
APPID
  2
GENIUS_GENOREF_13
 70
     0
  0
APPID
  2
GENIUS_GENSCREG_15
 70
     0
  0
APPID
  2
GENIUS_GENOBJ-N-SDF_13
 70
     0
  0
APPID
  2
GENIUS_GENFIL_13
 70
     0
  0
APPID
  2
GENIUS_GENOBJ-N-CHA_13
 70
     0
  0
APPID
  2
GENIUS_GENDTOL_13
 70
     0
  0
APPID
  2
GENIUS_GENOBJ-N-FIL_13
 70
     0
  0
APPID
  2
AD_DRAW
 70
     0
  0
APPID
  2
DESIGNERASSEMBLIES
 70
     0
  0
APPID
  2
ASURF_PCURVE_APPNAME
 70
     0
  0
APPID
  2
GENIUS_GE3SECT_13
 70
     0
  0
APPID
  2
GENIUS_GENCFG_13
 70
     0
  0
APPID
  2
GENIUS_GE3CFG0_13
 70
     0
  0
APPID
  2
GENIUS_GENCFG0_13
 70
     0
  0
APPID
  2
GENIUS_GENCFG1_13
 70
     0
  0
APPID
  2
GENIUS_GENCFG2_13
 70
     0
  0
APPID
  2
GENIUS_GENCFG3_13
 70
     0
  0
APPID
  2
GENIUS_GENCFG4_13
 70
     0
  0
APPID
  2
GENIUS_GEVCFG0_13
 70
     0
  0
APPID
  2
GENIUS_GENHINW_13
 70
     0
  0
APPID
  2
GENIUS_FIRSTVISTXT_14
 70
     0
  0
APPID
  2
GENIUS_GENOBJ-N-LEADER_13
 70
     0
  0
APPID
  2
GEV_VCCNULL_SWITCH_OFF
 70
     0
  0
APPID
  2
GENIUS_GEFCFG0_13
 70
     0
  0
APPID
  2
GENIUS_GENZVEED_13
 70
     0
  0
APPID
  2
GENIUS_GENSCREG_13
 70
     0
  0
APPID
  2
GENIUS_DUMCFG0_13
 70
     0
  0
APPID
  2
GEVID936201362
 70
     0
  0
APPID
  2
GEVDC
 70
     0
  0
APPID
  2
GEVCON
 70
     0
  0
APPID
  2
VCC
 70
     0
  0
APPID
  2
GEVPT
 70
     0
  0
APPID
  2
GEVIT
 70
     0
  0
APPID
  2
GENBH
 70
     0
  0
APPID
  2
GEVMK
 70
     0
  0
APPID
  2
GENIUS_GENBH_13
 70
     0
  0
APPID
  2
GENIUS_GENOBJ-NBEHI-BHF_13
 70
     0
  0
APPID
  2
GENIUS_GENOBJ-NBEHI-BHB_13
 70
     0
  0
APPID
  2
GENIUS_GENOBJ-F-DESC_13
 70
     0
  0
APPID
  2
GENIUS_GEFDESC_14
 70
     0
  0
APPID
  2
GENIUS_GENOBJ-F-PART_13
 70
     0
  0
APPID
  2
GENIUS_GEFSTDP_13
 70
     0
  0
APPID
  2
GENIUS_GEFPARTINS_13
 70
     0
  0
APPID
  2
GENIUS_GENTRA_14
 70
     0
  0
APPID
  2
GENIUS_GENINF13_13
 70
     0
  0
APPID
  2
GENIUS_GENOBJ-N-INFOPT_13
 70
     0
  0
APPID
  2
GENIUS_GENOBJ-N-RSSYM_13
 70
     0
  0
APPID
  2
GENIUS_GENSYMENT_13
 70
     0
  0
APPID
  2
GENIUS_GENSCSYM_13
 70
     0
  0
APPID
  2
GENIUS_GEFINFNAM_13
 70
     0
  0
APPID
  2
GENIUS_GENOBJ-N-CEN_13
 70
     0
  0
APPID
  2
GENIUS_GENOBJ-N-CRS_13
 70
     0
  0
APPID
  2
GENIUS_GENOBJ-N-CRC_13
 70
     0
  0
APPID
  2
GENIUS_GENCRC_14
 70
     0
  0
APPID
  2
GEVID942827039
 70
     0
  0
APPID
  2
GEVID942827040
 70
     0
  0
APPID
  2
GEVID942827041
 70
     0
  0
APPID
  2
GENIUS_GENOBJ-F-SCPASSM_13
 70
     0
  0
APPID
  2
GENIUS_GENDIMSH_14
 70
     0
  0
APPID
  2
GEVID942827042
 70
     0
  0
APPID
  2
GEVID946020473
 70
     0
  0
APPID
  2
GEVID946020474
 70
     0
  0
APPID
  2
GEVID946020475
 70
     0
  0
APPID
  2
GENIUS_GENOBJ-N-HTC_13
 70
     0
  0
APPID
  2
GENIUS_GENHATCH_13
 70
     0
  0
APPID
  2
GEVID948854295
 70
     0
  0
APPID
  2
GEVID939402019
 70
     0
  0
APPID
  2
GEVID952919491
 70
     0
  0
APPID
  2
GEVID952919492
 70
     0
  0
APPID
  2
GENIUS_GEFWELD_13
 70
     0
  0
APPID
  2
GENIUS_GENOBJ-F-WELS_13
 70
     0
  0
APPID
  2
GEVID952919493
 70
     0
  0
APPID
  2
GENIUS_GENOBJ-N-RSBK_13
 70
     0
  0
APPID
  2
GENIUS_GENOBJ-N-LIB_13
 70
     0
  0
APPID
  2
GENIUS_GENSCALE_13
 70
     0
  0
APPID
  2
GEVID986376691
 70
     0
  0
APPID
  2
DCO15
 70
     0
  0
APPID
  2
ACAD_DSTYLE_DIMBREAK
 70
     0
  0
APPID
  2
ACAD_DSTYLE_DIMJAG
 70
     0
  0
APPID
  2
ACAD_NAV_VCDISPLAY
 70
     0
  0
APPID
  2
ACADANNOPO
 70
     0
  0
APPID
  2
ACAD_EXEMPT_FROM_CAD_STANDARDS
 70
     0
  0
APPID
  2
ACAD_MLEADERVER
 70
     0
  0
ENDTAB
  0
TABLE
  2
DIMSTYLE
 70
    22
  0
DIMSTYLE
  2
STANDARD
 70
     0
  3

  4

  5

  6

  7

 40
1.0
 41
0.18
 42
0.0625
 43
0.38
 44
0.18
 45
0.0
 46
0.0
 47
0.0
 48
0.0
140
0.18
141
0.09
142
0.0
143
25.399999999999999
144
1.0
145
0.0
146
1.0
147
0.09
 71
     0
 72
     0
 73
     1
 74
     1
 75
     0
 76
     0
 77
     0
 78
     0
170
     0
171
     2
172
     0
173
     0
174
     0
175
     0
176
     0
177
     0
178
     0
  0
DIMSTYLE
  2
ANNOTATIVE
 70
     0
  3

  4

  5

  6

  7

 40
1.0
 41
0.18
 42
0.0625
 43
0.38
 44
0.18
 45
0.0
 46
0.0
 47
0.0
 48
0.0
140
0.18
141
0.09
142
0.0
143
25.399999999999999
144
1.0
145
0.0
146
1.0
147
0.09
 71
     0
 72
     0
 73
     1
 74
     1
 75
     0
 76
     0
 77
     0
 78
     0
170
     0
171
     2
172
     0
173
     0
174
     0
175
     0
176
     0
177
     0
178
     0
  0
DIMSTYLE
  2
AM_ISO
 70
     0
  3

  4
"
  5

  6

  7

 40
1.0
 41
2.5
 42
1.0
 43
8.0
 44
0.6
 45
0.0
 46
0.0
 47
0.1
 48
0.1
140
2.5
141
0.0
142
0.0
143
0.0393701
144
1.0
145
0.0
146
0.71
147
0.8
 71
     0
 72
     0
 73
     0
 74
     0
 75
     0
 76
     0
 77
     1
 78
     8
170
     0
171
     2
172
     1
173
     0
174
     0
175
     0
176
   256
177
   256
178
     4
  0
DIMSTYLE
  2
AM_ISO$3
 70
     0
  3

  4
"
  5

  6

  7

 40
1.0
 41
2.5
 42
1.0
 43
8.0
 44
0.6
 45
0.0
 46
0.0
 47
0.1
 48
0.1
140
2.5
141
0.0
142
0.0
143
0.0393701
144
1.0
145
0.0
146
0.71
147
0.8
 71
     0
 72
     0
 73
     0
 74
     1
 75
     0
 76
     0
 77
     1
 78
     8
170
     0
171
     2
172
     0
173
     0
174
     0
175
     0
176
   256
177
   256
178
     4
  0
DIMSTYLE
  2
AM_ISO$4
 70
     0
  3

  4
"
  5

  6

  7

 40
1.0
 41
2.5
 42
1.0
 43
8.0
 44
0.6
 45
0.0
 46
0.0
 47
0.1
 48
0.1
140
2.5
141
0.0
142
0.0
143
0.0393701
144
1.0
145
0.0
146
0.71
147
0.8
 71
     0
 72
     0
 73
     0
 74
     1
 75
     0
 76
     0
 77
     1
 78
     8
170
     0
171
     2
172
     0
173
     0
174
     0
175
     0
176
   256
177
   256
178
     4
  0
DIMSTYLE
  2
AM_ISO$6
 70
     0
  3

  4
"
  5

  6

  7

 40
1.0
 41
2.5
 42
1.0
 43
8.0
 44
0.6
 45
0.0
 46
0.0
 47
0.1
 48
0.1
140
2.5
141
0.0
142
0.0
143
0.0393701
144
1.0
145
0.0
146
0.71
147
0.8
 71
     0
 72
     0
 73
     0
 74
     0
 75
     0
 76
     0
 77
     0
 78
     8
170
     0
171
     2
172
     1
173
     0
174
     0
175
     0
176
   256
177
   256
178
     4
  0
DIMSTYLE
  2
AM_ISO$7
 70
     0
  3

  4
"
  5

  6

  7

 40
1.0
 41
2.5
 42
1.0
 43
8.0
 44
0.6
 45
0.0
 46
0.0
 47
0.1
 48
0.1
140
2.5
141
0.0
142
0.0
143
0.0393701
144
1.0
145
0.0
146
0.71
147
0.8
 71
     0
 72
     0
 73
     0
 74
     0
 75
     0
 76
     0
 77
     1
 78
     8
170
     0
171
     2
172
     1
173
     0
174
     0
175
     0
176
   256
177
   256
178
     4
  0
DIMSTYLE
  2
AM_ISO$SF
 70
     0
  3

  4
"
  5

  6

  7

 40
1.0
 41
2.5
 42
1.0
 43
10.0
 44
1.0
 45
0.0
 46
0.0
 47
0.1
 48
0.1
140
3.5
141
0.0
142
0.0
143
0.0393701
144
1.0
145
0.0
146
0.71
147
1.5
 71
     0
 72
     0
 73
     0
 74
     0
 75
     1
 76
     1
 77
     1
 78
     8
170
     0
171
     2
172
     1
173
     0
174
     0
175
     0
176
   256
177
   256
178
     2
  0
DIMSTYLE
  2
AM_ISO$SH
 70
     0
  3

  4
"
  5

  6

  7

 40
1.0
 41
2.5
 42
1.0
 43
10.0
 44
1.0
 45
0.0
 46
0.0
 47
0.1
 48
0.1
140
3.5
141
0.0
142
0.0
143
0.0393701
144
2.0
145
0.0
146
0.71
147
1.5
 71
     0
 72
     0
 73
     0
 74
     0
 75
     1
 76
     1
 77
     1
 78
     8
170
     0
171
     2
172
     1
173
     1
174
     0
175
     0
176
   256
177
   256
178
     2
  0
DIMSTYLE
  2
AM_JIS
 70
     0
  3

  4
"
  5

  6

  7

 40
1.0
 41
2.5
 42
1.0
 43
7.0
 44
1.0
 45
0.0
 46
0.0
 47
0.1
 48
0.1000000001
140
2.5
141
0.0
142
0.0
143
0.0393701
144
1.0
145
0.0
146
0.71
147
1.0
 71
     0
 72
     0
 73
     0
 74
     0
 75
     0
 76
     0
 77
     3
 78
     8
170
     0
171
     2
172
     1
173
     0
174
     0
175
     0
176
   256
177
   256
178
     4
  0
DIMSTYLE
  2
AM_JIS$3
 70
     0
  3

  4
"
  5

  6

  7

 40
1.0
 41
2.5
 42
1.0
 43
7.0
 44
1.0
 45
0.0
 46
0.0
 47
0.1
 48
0.1000000001
140
2.5
141
0.0
142
0.0
143
0.0393701
144
1.0
145
0.0
146
0.71
147
1.0
 71
     0
 72
     0
 73
     0
 74
     1
 75
     0
 76
     0
 77
     3
 78
     8
170
     0
171
     2
172
     0
173
     0
174
     0
175
     0
176
   256
177
   256
178
     4
  0
DIMSTYLE
  2
AM_JIS$4
 70
     0
  3

  4
"
  5

  6

  7

 40
1.0
 41
2.5
 42
1.0
 43
7.0
 44
1.0
 45
0.0
 46
0.0
 47
0.1
 48
0.1000000001
140
2.5
141
0.0
142
0.0
143
0.0393701
144
1.0
145
0.0
146
0.71
147
1.0
 71
     0
 72
     0
 73
     0
 74
     0
 75
     0
 76
     0
 77
     3
 78
     8
170
     0
171
     2
172
     0
173
     0
174
     0
175
     0
176
   256
177
   256
178
     4
  0
DIMSTYLE
  2
AM_JIS$6
 70
     0
  3

  4
"
  5

  6

  7

 40
1.0
 41
2.5
 42
1.0
 43
7.0
 44
1.0
 45
0.0
 46
0.0
 47
0.1
 48
0.1000000001
140
2.5
141
0.0
142
0.0
143
0.0393701
144
1.0
145
0.0
146
0.71
147
1.0
 71
     0
 72
     0
 73
     0
 74
     0
 75
     0
 76
     0
 77
     0
 78
     8
170
     0
171
     2
172
     1
173
     0
174
     0
175
     0
176
   256
177
   256
178
     4
  0
DIMSTYLE
  2
AM_JIS$7
 70
     0
  3

  4
"
  5

  6

  7

 40
1.0
 41
2.5
 42
1.0
 43
7.0
 44
1.0
 45
0.0
 46
0.0
 47
0.1
 48
0.1000000001
140
2.5
141
0.0
142
0.0
143
0.0393701
144
1.0
145
0.0
146
0.71
147
1.0
 71
     0
 72
     0
 73
     0
 74
     0
 75
     0
 76
     0
 77
     3
 78
     8
170
     0
171
     2
172
     1
173
     0
174
     0
175
     0
176
   256
177
   256
178
     4
  0
DIMSTYLE
  2
AM_JIS$SF
 70
     0
  3

  4
"
  5

  6

  7

 40
1.0
 41
2.5
 42
1.0
 43
10.0
 44
1.0
 45
0.0
 46
0.0
 47
0.1
 48
0.1
140
3.5
141
0.0
142
0.0
143
0.0393701
144
1.0
145
0.0
146
0.71
147
1.5
 71
     0
 72
     0
 73
     0
 74
     0
 75
     1
 76
     1
 77
     3
 78
     8
170
     0
171
     2
172
     1
173
     0
174
     0
175
     0
176
   256
177
   256
178
     4
  0
DIMSTYLE
  2
AM_JIS$SH
 70
     0
  3

  4
"
  5

  6

  7

 40
1.0
 41
2.5
 42
1.0
 43
10.0
 44
1.0
 45
0.0
 46
0.0
 47
0.1
 48
0.1
140
3.5
141
0.0
142
0.0
143
0.0393701
144
1.0
145
0.0
146
0.71
147
1.5
 71
     0
 72
     0
 73
     0
 74
     0
 75
     1
 76
     0
 77
     3
 78
     8
170
     0
171
     2
172
     1
173
     1
174
     0
175
     0
176
   256
177
   256
178
     4
  0
DIMSTYLE
  2
AM_ANSI
 70
     0
  3

  4
mm
  5

  6

  7

 40
1.0
 41
0.1
 42
0.05
 43
0.5
 44
0.1
 45
0.0
 46
0.0
 47
0.1
 48
0.1
140
0.12
141
0.0
142
0.0
143
25.399999999999999
144
1.0
145
0.0
146
0.71
147
0.06
 71
     0
 72
     0
 73
     1
 74
     1
 75
     0
 76
     0
 77
     0
 78
     7
170
     0
171
     2
172
     0
173
     0
174
     0
175
     0
176
   256
177
   256
178
     2
  0
DIMSTYLE
  2
AM_ANSI$3
 70
     0
  3

  4
mm
  5

  6

  7

 40
1.0
 41
0.1
 42
0.05
 43
0.5
 44
0.1
 45
0.0
 46
0.0
 47
0.1
 48
0.1
140
0.12
141
0.0
142
0.0
143
25.399999999999999
144
1.0
145
0.0
146
0.71
147
0.06
 71
     0
 72
     0
 73
     1
 74
     1
 75
     0
 76
     0
 77
     0
 78
     7
170
     0
171
     2
172
     0
173
     0
174
     0
175
     0
176
   256
177
   256
178
     2
  0
DIMSTYLE
  2
AM_ANSI$4
 70
     0
  3

  4
mm
  5

  6

  7

 40
1.0
 41
0.1
 42
0.05
 43
0.5
 44
0.1
 45
0.0
 46
0.0
 47
0.1
 48
0.1
140
0.12
141
0.0
142
0.0
143
25.399999999999999
144
1.0
145
0.0
146
0.71
147
0.06
 71
     0
 72
     0
 73
     1
 74
     1
 75
     0
 76
     0
 77
     0
 78
     7
170
     0
171
     2
172
     0
173
     0
174
     0
175
     0
176
   256
177
   256
178
     2
  0
DIMSTYLE
  2
AM_ANSI$7
 70
     0
  3

  4
mm
  5

  6

  7

 40
1.0
 41
0.1
 42
0.05
 43
0.5
 44
0.1
 45
0.0
 46
0.0
 47
0.1
 48
0.1
140
0.24
141
0.0
142
0.0
143
25.399999999999999
144
1.0
145
0.0
146
0.71
147
0.06
 71
     0
 72
     0
 73
     1
 74
     1
 75
     0
 76
     0
 77
     0
 78
     7
170
     0
171
     2
172
     0
173
     0
174
     0
175
     0
176
   256
177
   256
178
     2
  0
DIMSTYLE
  2
AM_ANSI$SF
 70
     0
  3

  4
mm
  5

  6

  7

 40
1.0
 41
0.1
 42
0.05
 43
0.5
 44
0.1
 45
0.0
 46
0.0
 47
0.1
 48
0.1
140
0.12
141
0.0
142
0.0
143
25.399999999999999
144
1.0
145
0.0
146
0.71
147
0.06
 71
     0
 72
     0
 73
     1
 74
     1
 75
     1
 76
     1
 77
     0
 78
     7
170
     0
171
     2
172
     0
173
     0
174
     0
175
     0
176
   256
177
   256
178
     2
  0
DIMSTYLE
  2
AM_ANSI$SH
 70
     0
  3

  4
mm
  5

  6

  7

 40
1.0
 41
0.1
 42
0.05
 43
0.5
 44
0.1
 45
0.0
 46
0.0
 47
0.1
 48
0.1
140
0.12
141
0.0
142
0.0
143
25.399999999999999
144
1.0
145
0.0
146
0.71
147
0.06
 71
     0
 72
     0
 73
     1
 74
     1
 75
     1
 76
     1
 77
     0
 78
     7
170
     0
171
     2
172
     0
173
     1
174
     0
175
     0
176
   256
177
   256
178
     2
  0
ENDTAB
  0
ENDSEC
  0
SECTION
  2
BLOCKS
  0
BLOCK
  8
0
  2
$MODEL_SPACE
 70
     0
 10
0.0
 20
0.0
 30
0.0
  3
$MODEL_SPACE
  1

  0
ENDBLK
  5
3182
  8
0
  0
BLOCK
 67
     1
  8
0
  2
$PAPER_SPACE
 70
     0
 10
0.0
 20
0.0
 30
0.0
  3
$PAPER_SPACE
  1

  0
ENDBLK
  5
317E
 67
     1
  8
0
  0
BLOCK
  8
0
  2
GENAXEH
 70
     0
 10
0.0
 20
0.0
 30
0.0
  3
GENAXEH
  1

  0
LINE
  5
2F7B
  8
0
 10
-1.0
 20
0.0
 30
0.0
 11
1.0
 21
0.0
 31
0.0
  0
ENDBLK
  5
2F7C
  8
0
  0
BLOCK
  8
0
  2
_OPEN30
 70
     0
 10
0.0
 20
0.0
 30
0.0
  3
_OPEN30
  1

  0
LINE
  5
2F7F
  8
0
 62
     0
 10
-1.0
 20
0.26794919
 30
0.0
 11
0.0
 21
0.0
 31
0.0
  0
LINE
  5
2F80
  8
0
 62
     0
 10
0.0
 20
0.0
 30
0.0
 11
-1.0
 21
-0.26794919
 31
0.0
  0
LINE
  5
2F81
  8
0
 62
     0
 10
0.0
 20
0.0
 30
0.0
 11
-1.0
 21
0.0
 31
0.0
  0
ENDBLK
  5
2F82
  8
0
  0
BLOCK
  8
0
  2
_NONE
 70
     0
 10
0.0
 20
0.0
 30
0.0
  3
_NONE
  1

  0
ENDBLK
  5
2F85
  8
0
  0
BLOCK
  8
0
  2
*U5
 70
     1
 10
0.0
 20
0.0
 30
0.0
  3
*U5
  1

  0
TEXT
  5
2F88
  8
AM_0
 62
     4
 10
507.91978695709292
 20
243.8234627139264
 30
0.0
 40
7.5
  1
\U+2205
 50
90.0
 41
0.8299999999999999
  0
TEXT
  5
2F89
  8
AM_0
 62
     4
 10
507.91978695709292
 20
250.04846271392651
 30
0.0
 40
7.5
  1
170
 50
90.0
 41
0.8299999999999999
  0
TEXT
  5
2F8A
  8
AM_0
 62
     4
 10
507.91978695709292
 20
265.6109627139266
 30
0.0
 40
6.0
  1
h7
 50
90.0
 41
0.8299999999999999
  0
ENDBLK
  5
2F8B
  8
0
  0
BLOCK
  8
0
  2
*U6
 70
     1
 10
0.0
 20
0.0
 30
0.0
  3
*U6
  1

  0
TEXT
  5
2F8E
  8
AM_0
 62
     4
 10
239.36483311319481
 20
219.7934592139265
 30
0.0
 40
7.5
  1
\U+2205
 50
90.0
 41
0.8299999999999999
  0
TEXT
  5
2F8F
  8
AM_0
 62
     4
 10
239.36483311319481
 20
226.01845921392641
 30
0.0
 40
7.5
  1
110 
 50
90.0
 41
0.8299999999999999
  0
TEXT
  5
2F90
  8
AM_0
 62
     4
 10
239.36483311319481
 20
243.2409592139264
 30
0.0
 40
6.0
  1
G7
 50
90.0
 41
0.8299999999999999
  0
ENDBLK
  5
2F91
  8
0
  0
BLOCK
  8
0
  2
*U7
 70
     1
 10
0.0
 20
0.0
 30
0.0
  3
*U7
  1

  0
TEXT
  5
2F94
  8
AM_0
 62
     4
 10
219.4844925576968
 20
225.81095921392671
 30
0.0
 40
7.5
  1
\U+2205
 50
90.0
 41
0.8299999999999999
  0
TEXT
  5
2F95
  8
AM_0
 62
     4
 10
219.4844925576968
 20
232.0359592139267
 30
0.0
 40
7.5
  1
160
 50
90.0
 41
0.8299999999999999
  0
ENDBLK
  5
2F96
  8
0
  0
BLOCK
  8
0
  2
*U8
 70
     1
 10
0.0
 20
0.0
 30
0.0
  3
*U8
  1

  0
TEXT
  5
2F99
  8
AM_0
 62
     4
 10
655.25357794413321
 20
388.28394456067741
 30
0.0
 40
7.5
  1
o
 41
0.8299999999999999
  0
TEXT
  5
2F9A
  8
AM_0
 62
     4
 10
662.66429222984766
 20
388.28394456067741
 30
0.0
 40
7.5
  1
 185
 41
0.8299999999999999
  0
ENDBLK
  5
2F9B
  8
0
  0
BLOCK
  8
0
  2
*U9
 70
     1
 10
0.0
 20
0.0
 30
0.0
  3
*U9
  1

  0
TEXT
  5
2F9E
  8
AM_0
 62
     4
 10
589.84384107368805
 20
389.82523598244433
 30
0.0
 40
7.5
  1
o
 41
0.8299999999999999
  0
TEXT
  5
2F9F
  8
AM_0
 62
     4
 10
597.2545553594025
 20
389.82523598244433
 30
0.0
 40
7.5
  1
 185
 41
0.8299999999999999
  0
ENDBLK
  5
2FA0
  8
0
  0
BLOCK
  8
0
  2
*U10
 70
     1
 10
0.0
 20
0.0
 30
0.0
  3
*U10
  1

  0
TEXT
  5
2FA3
  8
AM_0
 62
     4
 10
442.51005008664782
 20
245.36475413569369
 30
0.0
 40
7.5
  1
\U+2205
 50
90.0
 41
0.8299999999999999
  0
TEXT
  5
2FA4
  8
AM_0
 62
     4
 10
442.51005008664782
 20
251.58975413569371
 30
0.0
 40
7.5
  1
170
 50
90.0
 41
0.8299999999999999
  0
TEXT
  5
2FA5
  8
AM_0
 62
     4
 10
442.51005008664782
 20
267.15225413569368
 30
0.0
 40
6.0
  1
h7
 50
90.0
 41
0.8299999999999999
  0
ENDBLK
  5
2FA6
  8
0
  0
BLOCK
  8
0
  2
*U11
 70
     1
 10
0.0
 20
0.0
 30
0.0
  3
*U11
  1

  0
TEXT
  5
2FA9
  8
AM_0
 62
     4
 10
154.0747556872515
 20
227.35225063569371
 30
0.0
 40
7.5
  1
\U+2205
 50
90.0
 41
0.8299999999999999
  0
TEXT
  5
2FAA
  8
AM_0
 62
     4
 10
154.0747556872515
 20
233.5772506356937
 30
0.0
 40
7.5
  1
160
 50
90.0
 41
0.8299999999999999
  0
ENDBLK
  5
2FAB
  8
0
  0
BLOCK
  8
0
  2
*U12
 70
     1
 10
0.0
 20
0.0
 30
0.0
  3
*U12
  1

  0
TEXT
  5
2FAE
  8
AM_0
 62
     4
 10
173.95509624274959
 20
221.3347506356935
 30
0.0
 40
7.5
  1
\U+2205
 50
90.0
 41
0.8299999999999999
  0
TEXT
  5
2FAF
  8
AM_0
 62
     4
 10
173.95509624274959
 20
227.5597506356934
 30
0.0
 40
7.5
  1
110 
 50
90.0
 41
0.8299999999999999
  0
TEXT
  5
2FB0
  8
AM_0
 62
     4
 10
173.95509624274959
 20
244.78225063569349
 30
0.0
 40
6.0
  1
G7
 50
90.0
 41
0.8299999999999999
  0
ENDBLK
  5
2FB1
  8
0
  0
BLOCK
  8
0
  2
_ACMFILLEDHALF
 70
     0
 10
0.0
 20
0.0
 30
0.0
  3
_ACMFILLEDHALF
  1

  0
TRACE
  5
3288
  8
AM_0
 62
     0
 10
-0.8
 20
0.0
 30
0.0
 11
-1.0
 21
0.166666666
 31
0.0
 12
0.0
 22
0.0
 32
0.0
 13
0.0
 23
0.0
 33
0.0
  0
LINE
  5
3289
  8
AM_0
 62
     0
 10
-1.0
 20
0.0
 30
0.0
 11
-0.8
 21
0.0
 31
0.0
  0
ENDBLK
  5
3287
  8
0
  0
ENDSEC
  0
SECTION
  2
ENTITIES
  0
LINE
  5
2FB3
  8
ﾁｭｳｼﾝｾﾝ
 10
191.92163072755861
 20
499.23963825302718
 30
0.0
 11
403.32969928797399
 21
499.23963825302718
 31
0.0
  0
POLYLINE
  5
2FB4
  8
AM_0
 66
     1
 10
0.0
 20
0.0
 30
0.0
  0
VERTEX
  5
2FB5
  8
AM_0
 10
339.53575928797409
 20
583.65262825302727
 30
0.0
 42
0.081985852
  0
VERTEX
  5
2FB6
  8
AM_0
 10
317.41986928797388
 20
528.74094825302745
 30
0.0
 42
0.10914194
  0
VERTEX
  5
2FB7
  8
AM_0
 10
317.419959287974
 20
469.73793825302721
 30
0.0
 42
0.081985219
  0
VERTEX
  5
2FB8
  8
AM_0
 10
339.53575928797409
 20
414.82663825302723
 30
0.0
  0
SEQEND
  5
2FB9
  8
AM_0
  0
ARC
  5
2FBA
  8
AM_0
 10
366.62266928797402
 20
499.23960825302731
 30
0.0
 40
3.9999962
 50
90.000003000000945
 51
270.0
  0
LINE
  5
2FBB
  8
AM_0
 10
366.62266928797402
 20
503.23960825302731
 30
0.0
 11
366.62266928797402
 21
495.23963825302729
 31
0.0
  0
LINE
  5
2FBC
  8
AM_0
 10
398.62266928797408
 20
513.23966825302739
 30
0.0
 11
398.62266928797408
 21
485.2396682530275
 31
0.0
  0
LINE
  5
2FBD
  8
AM_0
 10
352.622699287974
 20
406.73963825302718
 30
0.0
 11
352.622699287974
 21
591.73963825302746
 31
0.0
  0
LINE
  5
2FBE
  8
AM_0
 10
346.622699287974
 20
428.73963825302729
 30
0.0
 11
346.622699287974
 21
569.41193825302753
 31
0.0
  0
LINE
  5
2FBF
  8
AM_0
 10
342.62269928797389
 20
409.02024825302721
 30
0.0
 11
342.62269928797389
 21
589.45902825302755
 31
0.0
  0
LINE
  5
2FC0
  8
AM_0
 10
356.62272928797398
 20
584.23963825302735
 30
0.0
 11
356.62272928797398
 21
414.23963825302718
 31
0.0
  0
LINE
  5
2FC1
  8
AM_0
 10
234.122699287974
 20
442.73963825302741
 30
0.0
 11
234.122699287974
 21
555.73963825302735
 31
0.0
  0
LINE
  5
2FC2
  8
AM_0
 10
270.62266928797402
 20
428.14945825302732
 30
0.0
 11
270.62266928797402
 21
570.32981825302716
 31
0.0
  0
LINE
  5
2FC3
  8
AM_0
 10
263.62269928797389
 20
420.37464825302732
 30
0.0
 11
263.62269928797389
 21
578.1046282530275
 31
0.0
  0
LINE
  5
2FC4
  8
AM_0
 10
277.622699287974
 20
416.98868825302719
 30
0.0
 11
277.622699287974
 21
581.49058825302745
 31
0.0
  0
LINE
  5
2FC5
  8
AM_0
 10
253.712149287974
 20
467.30265825302729
 30
0.0
 11
253.712149287974
 21
531.17664825302745
 31
0.0
  0
LINE
  5
2FC6
  8
AM_0
 10
337.56739928797401
 20
414.8953682530273
 30
0.0
 11
277.622699287974
 21
416.98868825302719
 31
0.0
  0
ARC
  5
2FC7
  8
AM_0
 10
266.622699287974
 20
420.37464825302732
 30
0.0
 40
3.0
 50
180.00001000000091
 51
267.9999999999996
  0
LINE
  5
2FC8
  8
AM_0
 10
277.622699287974
 20
416.98868825302719
 30
0.0
 11
266.51798928797399
 21
417.3764782530273
 31
0.0
  0
ARC
  5
2FC9
  8
AM_0
 10
258.62266928797402
 20
431.90809825302722
 30
0.0
 40
5.0
 50
0.0
 51
49.999999999999922
  0
ARC
  5
2FCA
  8
AM_0
 10
259.766499287974
 20
455.23960825302743
 30
0.0
 40
2.0
 50
269.999989999999
 51
35.173260999998369
  0
LINE
  5
2FCB
  8
AM_0
 10
253.712149287974
 20
467.30259825302733
 30
0.0
 11
261.40132928797402
 21
456.39167825302752
 31
0.0
  0
LINE
  5
2FCC
  8
AM_0
 10
251.99156928797399
 20
442.6156482530273
 30
0.0
 11
234.122699287974
 21
443.23963825302729
 31
0.0
  0
LINE
  5
2FCD
  8
AM_0
 10
234.122699287974
 20
453.23963825302718
 30
0.0
 11
259.766499287974
 21
453.23963825302718
 31
0.0
  0
LINE
  5
2FCE
  8
AM_0
 10
255.03098928797399
 20
441.4489282530273
 30
0.0
 11
261.83665928797387
 21
435.73829825302732
 31
0.0
  0
LINE
  5
2FCF
  8
AM_0
 10
253.712149287974
 20
442.2456482530273
 30
0.0
 11
253.712149287974
 21
453.23963825302718
 31
0.0
  0
ARC
  5
2FD0
  8
AM_0
 10
251.81706928797399
 20
437.61869825302722
 30
0.0
 40
5.0
 50
49.99999699999762
 51
87.999999999999659
  0
LINE
  5
2FD1
  8
AM_0
 10
234.122699287974
 20
467.30265825302729
 30
0.0
 11
253.712149287974
 21
467.30265825302729
 31
0.0
  0
LINE
  5
2FD2
  8
AM_0
 10
263.62269928797389
 20
439.93113825302743
 30
0.0
 11
270.62266928797402
 21
439.93113825302743
 31
0.0
  0
LINE
  5
2FD3
  8
AM_0
 10
344.55290928797388
 20
407.02143825302721
 30
0.0
 11
352.62266928797402
 21
406.73963825302718
 31
0.0
  0
ARC
  5
2FD4
  8
AM_0
 10
344.62272928797398
 20
409.02024825302721
 30
0.0
 40
2.0
 50
179.9999899999988
 51
268.00000999999861
  0
LINE
  5
2FD5
  8
AM_0
 10
340.92845928797402
 20
413.43393825302718
 30
0.0
 11
342.62272928797398
 21
411.7396682530275
 31
0.0
  0
ARC
  5
2FD6
  8
AM_0
 10
337.39289928797399
 20
409.8984182530275
 30
0.0
 40
5.0
 50
45.000000999999187
 51
87.999999999999659
  0
LINE
  5
2FD7
  8
AM_0
 10
352.622699287974
 20
414.23963825302718
 30
0.0
 11
356.62272928797398
 21
414.23963825302718
 31
0.0
  0
LINE
  5
2FD8
  8
AM_0
 10
356.622699287974
 20
485.2396682530275
 30
0.0
 11
398.62266928797408
 21
485.2396682530275
 31
0.0
  0
ARC
  5
2FD9
  8
AM_0
 10
343.622699287974
 20
429.06733825302729
 30
0.0
 40
3.0
 50
267.9999999999996
 51
0.0
  0
ARC
  5
2FDA
  8
AM_0
 10
345.622699287974
 20
448.11439825302722
 30
0.0
 40
3.0
 50
90.000003000000945
 51
180.00001000000091
  0
LINE
  5
2FDB
  8
AM_0
 10
366.62266928797402
 20
495.23963825302729
 30
0.0
 11
398.62266928797408
 21
495.23963825302729
 31
0.0
  0
LINE
  5
2FDC
  8
AM_0
 10
337.56739928797401
 20
583.58387825302748
 30
0.0
 11
277.622699287974
 21
581.49058825302745
 31
0.0
  0
ARC
  5
2FDD
  8
AM_0
 10
258.62266928797402
 20
566.57117825302748
 30
0.0
 40
5.0
 50
310.0
 51
0.0
  0
ARC
  5
2FDE
  8
AM_0
 10
259.766499287974
 20
543.23963825302735
 30
0.0
 40
2.0
 50
324.82673000000062
 51
90.000003000000945
  0
LINE
  5
2FDF
  8
AM_0
 10
261.40132928797402
 20
542.08753825302745
 30
0.0
 11
253.71217928797401
 21
531.17664825302745
 31
0.0
  0
LINE
  5
2FE0
  8
AM_0
 10
234.122699287974
 20
531.17664825302745
 30
0.0
 11
253.712149287974
 21
531.17664825302745
 31
0.0
  0
LINE
  5
2FE1
  8
AM_0
 10
251.99153928797389
 20
555.86362825302751
 30
0.0
 11
234.122699287974
 21
555.23963825302735
 31
0.0
  0
LINE
  5
2FE2
  8
AM_0
 10
234.122699287974
 20
545.23963825302735
 30
0.0
 11
259.766499287974
 21
545.23963825302735
 31
0.0
  0
ARC
  5
2FE3
  8
AM_0
 10
251.81703928797401
 20
560.86057825302737
 30
0.0
 40
5.0
 50
272.0000000000004
 51
310.0
  0
LINE
  5
2FE4
  8
AM_0
 10
253.712149287974
 20
545.23963825302735
 30
0.0
 11
253.712149287974
 21
556.23362825302729
 31
0.0
  0
LINE
  5
2FE5
  8
AM_0
 10
255.03102928797401
 20
557.03034825302768
 30
0.0
 11
261.83662928797378
 21
562.74091825302708
 31
0.0
  0
LINE
  5
2FE6
  8
AM_0
 10
263.62269928797389
 20
558.54813825302745
 30
0.0
 11
270.62266928797402
 21
558.54813825302745
 31
0.0
  0
LINE
  5
2FE7
  8
AM_0
 10
277.62266928797402
 20
581.49058825302745
 30
0.0
 11
266.51798928797399
 21
581.10279825302746
 31
0.0
  0
ARC
  5
2FE8
  8
AM_0
 10
266.622699287974
 20
578.1046282530275
 30
0.0
 40
3.0
 50
91.999998000000545
 51
180.00001000000091
  0
LINE
  5
2FE9
  8
AM_0
 10
356.622699287974
 20
513.23966825302739
 30
0.0
 11
398.62266928797408
 21
513.23966825302739
 31
0.0
  0
ARC
  5
2FEA
  8
AM_0
 10
345.622699287974
 20
550.36487825302731
 30
0.0
 40
3.0
 50
179.9999899999988
 51
270.0
  0
ARC
  5
2FEB
  8
AM_0
 10
343.622699287974
 20
569.41193825302753
 30
0.0
 40
3.0
 50
0.0
 51
91.999998000000545
  0
LINE
  5
2FEC
  8
AM_0
 10
366.62266928797402
 20
503.23960825302731
 30
0.0
 11
398.62266928797408
 21
503.23960825302731
 31
0.0
  0
LINE
  5
2FED
  8
AM_0
 10
344.55293928797408
 20
591.45780825302745
 30
0.0
 11
352.622699287974
 21
591.73960825302731
 31
0.0
  0
LINE
  5
2FEE
  8
AM_0
 10
340.92845928797402
 20
585.04529825302745
 30
0.0
 11
342.62272928797398
 21
586.73960825302731
 31
0.0
  0
ARC
  5
2FEF
  8
AM_0
 10
337.39289928797399
 20
588.58085825302715
 30
0.0
 40
5.0
 50
272.0000000000004
 51
315.0
  0
ARC
  5
2FF0
  8
AM_0
 10
344.62272928797398
 20
589.45902825302755
 30
0.0
 40
2.0
 50
91.999998000000545
 51
180.00001000000091
  0
LINE
  5
2FF1
  8
AM_0
 10
352.622699287974
 20
584.23963825302735
 30
0.0
 11
356.62272928797398
 21
584.23963825302735
 31
0.0
  0
LINE
  5
2FF2
  8
AM_0
 10
356.62266928797402
 20
274.40849763569361
 30
0.0
 11
398.62266928797391
 21
274.40849763569361
 31
0.0
  0
LINE
  5
2FF3
  8
AM_0
 10
356.62266928797402
 20
246.40849863569341
 30
0.0
 11
398.62266928797391
 21
246.40849863569341
 31
0.0
  0
LINE
  5
2FF4
  8
ﾁｭｳｼﾝｾﾝ
 10
247.70408608903
 20
260.40848463569353
 30
0.0
 11
403.57044928797359
 21
260.40848463569353
 31
0.0
  0
LINE
  5
2FF5
  8
0
 10
203.1227392879737
 20
157.2085006356935
 30
0.0
 11
203.1227392879737
 21
317.20850063569361
 31
0.0
1001
GENIUS_GENOREF_13
1005
2CCB
  0
LINE
  5
2FF6
  8
0
 10
213.1227392879737
 20
315.20850063569361
 30
0.0
 11
213.1227392879737
 21
159.2085006356935
 31
0.0
1001
GENIUS_GENOREF_13
1005
2CCB
  0
LINE
  5
2FF7
  8
AM_0
 10
356.62266928797402
 20
345.40849563569361
 30
0.0
 11
356.62266928797402
 21
175.40851263569351
 31
0.0
  0
LINE
  5
2FF8
  8
AM_0
 10
277.62273928797367
 20
318.20848563569371
 30
0.0
 11
277.62273928797367
 21
156.20849763569359
 31
0.0
  0
LINE
  5
2FF9
  8
AM_0
 10
263.62266928797402
 20
310.06696563569369
 30
0.0
 11
263.62266928797402
 21
158.62877163569351
 31
0.0
  0
LINE
  5
2FFA
  8
AM_0
 10
234.1227392879737
 20
181.20851463569349
 30
0.0
 11
234.1227392879737
 21
293.20851663569363
 31
0.0
  0
LINE
  5
2FFB
  8
AM_0
 10
261.40134928797391
 20
280.05641763569361
 30
0.0
 11
253.71213928797391
 21
269.14552863569361
 31
0.0
  0
LINE
  5
2FFC
  8
AM_0
 10
342.62265928797382
 20
236.4981426356936
 30
0.0
 11
342.62265928797382
 21
311.53372563569371
 31
0.0
  0
LINE
  5
2FFD
  8
AM_0
 10
346.62270928797369
 20
189.9084966356935
 30
0.0
 11
346.62270928797369
 21
330.58081563569363
 31
0.0
  0
LINE
  5
2FFE
  8
AM_0
 10
352.62270928797358
 20
260.40848463569353
 30
0.0
 11
352.62270928797358
 21
352.9084956356935
 31
0.0
  0
ARC
  5
2FFF
  8
AM_0
 10
316.79046928797362
 20
283.45851663569363
 30
0.0
 40
24.832211399999991
 50
349.38167999999962
 51
47.544065999999859
  0
LINE
  5
3000
  8
0
 10
215.05294029456871
 20
180.04256858079091
 30
0.0
 11
234.1227392879737
 21
180.7085006356935
 31
0.0
  0
LINE
  5
3001
  8
AM_0
 10
234.1227392879737
 20
191.20848363569371
 30
0.0
 11
213.1227392879737
 21
191.20848363569371
 31
0.0
  0
LINE
  5
3002
  8
AM_0
 10
234.1227392879737
 20
205.27105863569369
 30
0.0
 11
213.1227392879737
 21
205.27105863569369
 31
0.0
  0
LINE
  5
3003
  8
AM_0
 10
234.1227392879737
 20
269.14593963569371
 30
0.0
 11
213.1227392879737
 21
269.14593963569371
 31
0.0
  0
LINE
  5
3004
  8
ﾁｭｳｼﾝｾﾝ
 10
191.92163072755861
 20
237.20850063569361
 30
0.0
 11
267.14843749128357
 21
237.20850063569361
 31
0.0
  0
ARC
  5
3005
  8
0
 10
211.1227392879737
 20
159.2085006356935
 30
0.0
 40
2.0
 50
270.0
 51
0.0
1001
GENIUS_GENOBJ-N-FIL_13
1002
{
1000
OWNER
1000
GEN
1002
}
1001
GENIUS_GENODEF_13
1002
{
1000
HIER
1070
     0
1002
}
1002
{
1000
MANEDIT
1070
     0
1002
}
1002
{
1000
NOSEL
1070
     0
1002
}
1002
{
1000
BEHIND
1070
     0
1002
}
1002
{
1000
OTHER
1070
     0
1002
}
1002
{
1000
REACTOR
1002
}
  0
LINE
  5
3006
  8
0
 10
203.1227392879737
 20
157.2085006356935
 30
0.0
 11
211.1227392879737
 21
157.2085006356935
 31
0.0
  0
ARC
  5
3007
  8
0
 10
215.1227392879737
 20
178.0437869267526
 30
0.0
 40
2.0
 50
92.000000000000341
 51
180.0
1001
GENIUS_GENOBJ-N-FIL_13
1002
{
1000
OWNER
1000
GEN
1002
}
1001
GENIUS_GENODEF_13
1002
{
1000
HIER
1070
     0
1002
}
1002
{
1000
MANEDIT
1070
     0
1002
}
1002
{
1000
NOSEL
1070
     0
1002
}
1002
{
1000
BEHIND
1070
     0
1002
}
1002
{
1000
OTHER
1070
     0
1002
}
1002
{
1000
REACTOR
1002
}
  0
LINE
  5
3008
  8
AM_0
 10
302.62266928797402
 20
185.1237216356935
 30
0.0
 11
302.62266928797402
 21
197.4437136356936
 31
0.0
  0
ARC
  5
3009
  8
AM_0
 10
302.62431928797361
 20
191.27238663569341
 30
0.0
 40
7.331659199999998
 50
90.000003000000945
 51
270.0
  0
LINE
  5
300A
  8
AM_0
 10
270.62265928797387
 20
268.35771663569358
 30
0.0
 11
270.62265928797387
 21
177.66452463569351
 31
0.0
  0
ARC
  5
300B
  8
AM_0
 10
259.76646928797368
 20
193.2085146356934
 30
0.0
 40
2.00000007
 50
270.0
 51
35.173270999998252
  0
LINE
  5
300C
  8
AM_0
 10
342.62265928797382
 20
170.6658666356935
 30
0.0
 11
342.62265928797382
 21
206.0378616356935
 31
0.0
  0
LINE
  5
300D
  8
AM_0
 10
352.62270928797358
 20
167.90847963569351
 30
0.0
 11
352.62270928797358
 21
260.40848463569353
 31
0.0
  0
LINE
  5
300E
  8
AM_0
 10
277.62273928797367
 20
171.09828363569341
 30
0.0
 11
342.62265928797382
 21
171.09828363569341
 31
0.0
  0
LINE
  5
300F
  8
AM_0
 10
277.6226792879736
 20
156.20851263569341
 30
0.0
 11
320.37657928797393
 21
154.7155026356935
 31
0.0
  0
LINE
  5
3010
  8
AM_0
 10
255.0309992879736
 20
179.4178026356935
 30
0.0
 11
261.8365892879736
 21
173.70721863569341
 31
0.0
  0
LINE
  5
3011
  8
AM_0
 10
234.1227392879737
 20
191.20851363569341
 30
0.0
 11
259.76646928797368
 21
191.20851363569341
 31
0.0
  0
LINE
  5
3012
  8
AM_0
 10
234.1226792879736
 20
181.20851463569349
 30
0.0
 11
251.99154928797381
 21
180.58452063569351
 31
0.0
  0
LINE
  5
3013
  8
AM_0
 10
253.71213928797391
 20
180.5244336356935
 30
0.0
 11
253.71213928797391
 21
191.20851363569341
 31
0.0
  0
ARC
  5
3014
  8
AM_0
 10
251.81706928797371
 20
175.58755863569351
 30
0.0
 40
5.0000001000000003
 50
49.999999999999922
 51
87.999999999999659
  0
ARC
  5
3015
  8
AM_0
 10
258.62265928797387
 20
169.87697163569351
 30
0.0
 40
5.0000001000000003
 50
0.0
 51
49.999999999999922
  0
LINE
  5
3016
  8
AM_0
 10
277.6226792879736
 20
156.20851263569341
 30
0.0
 11
265.55283928797388
 21
156.6299916356935
 31
0.0
  0
ARC
  5
3017
  8
AM_0
 10
265.62273928797367
 20
158.62877163569351
 30
0.0
 40
2.00000007
 50
179.9999899999988
 51
268.00000999999861
  0
ARC
  5
3018
  8
AM_0
 10
268.62273928797367
 20
177.66452463569351
 30
0.0
 40
2.00000007
 50
270.0
 51
0.0
  0
LINE
  5
3019
  8
AM_0
 10
265.62273928797367
 20
175.6645236356936
 30
0.0
 11
268.62273928797367
 21
175.6645236356936
 31
0.0
  0
ARC
  5
301A
  8
AM_0
 10
265.62273928797367
 20
173.66453763569359
 30
0.0
 40
2.00000007
 50
90.000003000000945
 51
180.00001000000091
  0
LINE
  5
301B
  8
AM_0
 10
320.37660928797368
 20
154.71548763569359
 30
0.0
 11
342.62265928797382
 21
167.55926763569349
 31
0.0
  0
LINE
  5
301C
  8
AM_0
 10
302.62266928797402
 20
183.94073763569341
 30
0.0
 11
342.62265928797382
 21
183.94073763569341
 31
0.0
  0
ARC
  5
301D
  8
AM_0
 10
345.6226592879737
 20
170.6658666356935
 30
0.0
 40
3.0
 50
179.9999899999988
 51
271.99999000000139
  0
LINE
  5
301E
  8
AM_0
 10
342.62268928797369
 20
167.55928263569351
 30
0.0
 11
352.62273928797379
 21
167.90847963569351
 31
0.0
  0
ARC
  5
301F
  8
AM_0
 10
343.62270928797358
 20
189.9084966356935
 30
0.0
 40
3.0
 50
270.0
 51
0.0
  0
LINE
  5
3020
  8
AM_0
 10
352.62270928797358
 20
175.40851263569351
 30
0.0
 11
356.62266928797402
 21
175.40851263569351
 31
0.0
  0
LINE
  5
3021
  8
AM_0
 10
253.71213928797391
 20
205.2714876356934
 30
0.0
 11
253.71213928797391
 21
269.14552863569361
 31
0.0
  0
LINE
  5
3022
  8
AM_0
 10
253.71213928797391
 20
205.2715176356935
 30
0.0
 11
261.40128928797373
 21
194.36061363569351
 31
0.0
  0
LINE
  5
3023
  8
AM_0
 10
234.1227392879737
 20
205.2714876356934
 30
0.0
 11
253.71213928797391
 21
205.2714876356934
 31
0.0
  0
LINE
  5
3024
  8
AM_0
 10
234.1227392879737
 20
269.14552863569361
 30
0.0
 11
253.71213928797391
 21
269.14552863569361
 31
0.0
  0
ARC
  5
3025
  8
AM_0
 10
268.62273928797367
 20
261.88059063569352
 30
0.0
 40
2.00000007
 50
0.0
 51
90.000003000000945
  0
LINE
  5
3026
  8
AM_0
 10
263.62266928797402
 20
263.88057363569351
 30
0.0
 11
268.62273928797367
 21
263.88057363569351
 31
0.0
  0
ARC
  5
3027
  8
AM_0
 10
268.62273928797367
 20
268.35771663569358
 30
0.0
 40
2.00000007
 50
0.0
 51
90.000003000000945
  0
LINE
  5
3028
  8
AM_0
 10
265.62273928797367
 20
270.35768763569348
 30
0.0
 11
268.62273928797367
 21
270.35768763569348
 31
0.0
  0
ARC
  5
3029
  8
AM_0
 10
265.62273928797367
 20
272.35771863569369
 30
0.0
 40
2.00000007
 50
179.9999899999988
 51
270.0
  0
ARC
  5
302A
  8
AM_0
 10
361.26795928797372
 20
251.1762606356935
 30
0.0
 40
24.832211399999991
 50
169.38167999999959
 51
218.7932100000013
  0
LINE
  5
302B
  8
AM_0
 10
302.62266928797402
 20
198.60403863569351
 30
0.0
 11
342.62265928797382
 21
198.60403863569351
 31
0.0
  0
ARC
  5
302C
  8
AM_0
 10
345.6226592879737
 20
206.0378616356935
 30
0.0
 40
3.0
 50
90.000003000000945
 51
180.00001000000091
  0
LINE
  5
302D
  8
AM_0
 10
344.2516892879737
 20
234.4981416356936
 30
0.0
 11
346.62270928797369
 21
234.4981416356936
 31
0.0
  0
ARC
  5
302E
  8
AM_0
 10
344.2516892879737
 20
237.49814463569359
 30
0.0
 40
3.0
 50
218.7932200000009
 51
270.0
  0
LINE
  5
302F
  8
AM_0
 10
341.19744928797388
 20
278.88280263569362
 30
0.0
 11
336.86097928797369
 21
255.75200463569351
 31
0.0
  0
LINE
  5
3030
  8
0
 10
215.05294029456871
 20
294.37443269059622
 30
0.0
 11
234.1227392879737
 21
293.70850063569361
 31
0.0
  0
LINE
  5
3031
  8
AM_0
 10
234.1227392879737
 20
283.20849963569373
 30
0.0
 11
213.1227392879737
 21
283.20849963569373
 31
0.0
  0
ARC
  5
3032
  8
0
 10
215.1227392879737
 20
296.3732143446345
 30
0.0
 40
2.0
 50
180.0
 51
267.9999999999996
1001
GENIUS_GENOBJ-N-FIL_13
1002
{
1000
OWNER
1000
GEN
1002
}
1001
GENIUS_GENODEF_13
1002
{
1000
HIER
1070
     0
1002
}
1002
{
1000
MANEDIT
1070
     0
1002
}
1002
{
1000
NOSEL
1070
     0
1002
}
1002
{
1000
BEHIND
1070
     0
1002
}
1002
{
1000
OTHER
1070
     0
1002
}
1002
{
1000
REACTOR
1002
}
  0
ARC
  5
3033
  8
0
 10
211.1227392879737
 20
315.20850063569361
 30
0.0
 40
2.0
 50
0.0
 51
90.0
1001
GENIUS_GENOBJ-N-FIL_13
1002
{
1000
OWNER
1000
GEN
1002
}
1001
GENIUS_GENODEF_13
1002
{
1000
HIER
1070
     0
1002
}
1002
{
1000
MANEDIT
1070
     0
1002
}
1002
{
1000
NOSEL
1070
     0
1002
}
1002
{
1000
BEHIND
1070
     0
1002
}
1002
{
1000
OTHER
1070
     0
1002
}
1002
{
1000
REACTOR
1002
}
  0
LINE
  5
3034
  8
0
 10
203.1227392879737
 20
317.20850063569361
 30
0.0
 11
211.1227392879737
 21
317.20850063569361
 31
0.0
  0
LINE
  5
3035
  8
AM_0
 10
277.62273928797367
 20
283.45851663569363
 30
0.0
 11
339.56799928797381
 21
283.45851663569363
 31
0.0
  0
LINE
  5
3036
  8
AM_0
 10
277.6226792879736
 20
318.20851563569369
 30
0.0
 11
313.01901928797361
 21
319.4445756356937
 31
0.0
  0
LINE
  5
3037
  8
AM_0
 10
255.0309992879736
 20
294.99922863569361
 30
0.0
 11
261.8365892879736
 21
300.70980063569363
 31
0.0
  0
ARC
  5
3038
  8
AM_0
 10
259.76646928797368
 20
281.20851663569363
 30
0.0
 40
2.00000007
 50
324.82673000000062
 51
90.000003000000945
  0
LINE
  5
3039
  8
AM_0
 10
234.1227392879737
 20
283.20848763569347
 30
0.0
 11
259.76646928797368
 21
283.20848763569347
 31
0.0
  0
LINE
  5
303A
  8
AM_0
 10
234.1226792879736
 20
293.20851663569363
 30
0.0
 11
251.99154928797381
 21
293.83251063569361
 31
0.0
  0
LINE
  5
303B
  8
AM_0
 10
253.71213928797391
 20
283.20848763569347
 30
0.0
 11
253.71213928797391
 21
293.89260063569361
 31
0.0
  0
ARC
  5
303C
  8
AM_0
 10
251.81706928797371
 20
298.8294576356937
 30
0.0
 40
5.0000001000000003
 50
272.0000000000004
 51
310.0
  0
LINE
  5
303D
  8
AM_0
 10
270.62265928797387
 20
316.03267563569369
 30
0.0
 11
270.62265928797387
 21
293.54259363569349
 31
0.0
  0
ARC
  5
303E
  8
AM_0
 10
258.62265928797387
 20
304.5400296356936
 30
0.0
 40
5.0000001000000003
 50
310.0
 51
0.0
  0
ARC
  5
303F
  8
AM_0
 10
265.62273928797367
 20
289.54256163569352
 30
0.0
 40
2.00000007
 50
90.000003000000945
 51
180.00001000000091
  0
ARC
  5
3040
  8
AM_0
 10
268.62273928797367
 20
293.54259363569349
 30
0.0
 40
2.00000007
 50
270.0
 51
0.0
  0
LINE
  5
3041
  8
AM_0
 10
265.62273928797367
 20
291.5425926356935
 30
0.0
 11
268.62273928797367
 21
291.5425926356935
 31
0.0
  0
ARC
  5
3042
  8
AM_0
 10
266.62266928797402
 20
310.06696563569369
 30
0.0
 40
3.0
 50
91.999998000000545
 51
180.00001000000091
  0
ARC
  5
3043
  8
AM_0
 10
267.62265928797387
 20
316.10557563569358
 30
0.0
 40
3.0
 50
272.0000000000004
 51
0.0
  0
LINE
  5
3044
  8
AM_0
 10
266.51799928797368
 20
313.06513563569371
 30
0.0
 11
267.72732928797359
 21
313.10737563569359
 31
0.0
  0
LINE
  5
3045
  8
AM_0
 10
272.55291928797391
 20
318.0314556356937
 30
0.0
 11
277.6226792879736
 21
318.20851563569369
 31
0.0
  0
LINE
  5
3046
  8
AM_0
 10
270.62265928797387
 20
316.03267563569369
 30
0.0
 11
270.62265928797387
 21
316.10557563569358
 31
0.0
  0
ARC
  5
3047
  8
AM_0
 10
272.62266928797402
 20
316.03267563569369
 30
0.0
 40
2.00000007
 50
91.999998000000545
 51
180.00001000000091
  0
LINE
  5
3048
  8
AM_0
 10
315.03558928797361
 20
320.32144563569358
 30
0.0
 11
342.62265928797382
 21
347.9085156356935
 31
0.0
  0
LINE
  5
3049
  8
AM_0
 10
342.62265928797382
 20
311.53372563569371
 30
0.0
 11
342.62265928797382
 21
350.62789563569351
 31
0.0
  0
LINE
  5
304A
  8
AM_0
 10
314.20002928797368
 20
319.48576563569361
 30
0.0
 11
333.5527592879738
 21
301.77962463569361
 31
0.0
  0
ARC
  5
304B
  8
AM_0
 10
312.9142892879737
 20
322.44274563569371
 30
0.0
 40
3.0
 50
272.0000000000004
 51
315.0
  0
ARC
  5
304C
  8
AM_0
 10
345.6226592879737
 20
311.53372563569371
 30
0.0
 40
3.0
 50
179.9999899999988
 51
270.0
  0
LINE
  5
304D
  8
AM_0
 10
333.5528192879737
 20
301.77959463569363
 30
0.0
 11
333.5528192879737
 21
301.77959463569363
 31
0.0
  0
ARC
  5
304E
  8
AM_0
 10
343.62270928797358
 20
330.58081563569363
 30
0.0
 40
3.0
 50
0.0
 51
91.999998000000545
  0
LINE
  5
304F
  8
AM_0
 10
344.55291928797402
 20
352.62667563569352
 30
0.0
 11
352.62270928797358
 21
352.90846563569357
 31
0.0
  0
ARC
  5
3050
  8
AM_0
 10
344.62266928797402
 20
350.62789563569351
 30
0.0
 40
2.00000007
 50
91.999998000000545
 51
180.00001000000091
  0
LINE
  5
3051
  8
AM_0
 10
352.62270928797358
 20
345.40849563569361
 30
0.0
 11
356.62266928797402
 21
345.40849563569361
 31
0.0
  0
LINE
  5
3052
  8
AM_0
 10
488.12610348610389
 20
260.40848463569353
 30
0.0
 11
488.12610348610389
 21
290.40846963569362
 31
0.0
  0
LINE
  5
3053
  8
AM_0
 10
673.12609848610396
 20
260.40848463569353
 30
0.0
 11
673.12609848610396
 21
290.40846963569362
 31
0.0
  0
ARC
  5
3054
  8
AM_0
 10
580.62611748610425
 20
237.20850063569361
 30
0.0
 40
81.000003000000007
 50
125.474170000001
 51
155.4112299999997
  0
ARC
  5
3055
  8
AM_0
 10
580.62611748610425
 20
260.40848463569353
 30
0.0
 40
39.000011999999998
 50
0.0
 51
36.786790999999447
  0
ARC
  5
3056
  8
AM_0
 10
580.62611748610425
 20
260.40848463569353
 30
0.0
 40
39.000011999999998
 50
143.2132099999989
 51
180.00001000000091
  0
CIRCLE
  5
3057
  8
AM_0
 10
580.62611748610425
 20
260.40851463569362
 30
0.0
 40
29.000001000000001
  0
CIRCLE
  5
3058
  8
AM_0
 10
580.62611748610425
 20
260.40848463569353
 30
0.0
 40
80.000000999999983
  0
ARC
  5
3059
  8
AM_0
 10
580.62611748610425
 20
237.20850063569361
 30
0.0
 40
81.000003000000007
 50
24.588775000001409
 51
54.52582999999899
  0
CIRCLE
  5
305A
  8
AM_0
 10
580.62611748610425
 20
260.40848463569353
 30
0.0
 40
85.000001999999981
  0
LINE
  5
305B
  8
ﾁｭｳｼﾝｾﾝ
 10
580.62611748610425
 20
150.8737656356935
 30
0.0
 11
580.62611748610425
 21
357.29988277682639
 31
0.0
  0
LINE
  5
305C
  8
AM_0
 10
580.62611748610425
 20
167.9084946356935
 30
0.0
 11
610.62610548610405
 21
167.9084946356935
 31
0.0
  0
ARC
  5
305D
  8
AM_0
 10
580.62611748610425
 20
237.20850063569361
 30
0.0
 40
81.000003000000007
 50
270.0
 51
291.36619999999903
  0
LINE
  5
305E
  8
ﾁｭｳｼﾝｾﾝ
 10
535.53875408150805
 20
237.20850063569361
 30
0.0
 11
625.71348089070034
 21
237.20850063569361
 31
0.0
  0
LINE
  5
305F
  8
ﾁｭｳｼﾝｾﾝ
 10
483.09063998444708
 20
260.40848463569353
 30
0.0
 11
678.50738515028013
 21
260.40848463569353
 31
0.0
  0
LINE
  5
3060
  8
AM_0
 10
366.6226592879737
 20
277.40849763569349
 30
0.0
 11
398.62266928797391
 21
277.40849763569349
 31
0.0
  0
LINE
  5
3061
  8
AM_0
 10
366.6226592879737
 20
277.40849763569349
 30
0.0
 11
366.6226592879737
 21
274.40849763569361
 31
0.0
  0
LINE
  5
3062
  8
AM_0
 10
398.62266928797391
 20
277.40849763569349
 30
0.0
 11
398.62266928797391
 21
246.40849863569341
 31
0.0
  0
LINE
  5
3063
  8
AM_0
 10
488.12607348610391
 20
230.4084966356935
 30
0.0
 11
490.53159348610399
 21
184.50840963569351
 31
0.0
  0
LINE
  5
3064
  8
ﾁｭｳｼﾝｾﾝ1
 10
515.86574148610384
 20
195.6481506356935
 30
0.0
 11
494.90442348610389
 21
174.68686263569359
 31
0.0
  0
ARC
  5
3065
  8
ﾁｭｳｼﾝｾﾝ1
 10
580.62611748610425
 20
260.40848463569353
 30
0.0
 40
107.5000109999999
 50
218.02724000000001
 51
233.2463200000004
  0
ARC
  5
3066
  8
AM_0
 10
538.87611648610425
 20
164.8953876356936
 30
0.0
 40
8.0000000999999976
 50
156.73874000000089
 51
323.2612700000002
  0
LINE
  5
3067
  8
AM_0
 10
550.62610248610395
 20
167.9084946356935
 30
0.0
 11
504.72603048610398
 21
170.3140146356935
 31
0.0
  0
CIRCLE
  5
3068
  8
AM_0
 10
504.61213848610419
 20
184.39452063569351
 30
0.0
 40
6.0000002999999991
  0
ARC
  5
3069
  8
AM_0
 10
505.51109448610401
 20
185.2934616356934
 30
0.0
 40
15.00000029999998
 50
183.00000999999961
 51
267.0000000000008
  0
ARC
  5
306A
  8
AM_0
 10
505.51109448610401
 20
185.2934616356934
 30
0.0
 40
15.00000029999998
 50
183.00000999999961
 51
267.0000000000008
  0
LINE
  5
306B
  8
AM_0
 10
580.62611748610425
 20
167.9084946356935
 30
0.0
 11
550.62611748610425
 21
167.9084946356935
 31
0.0
  0
ARC
  5
306C
  8
AM_0
 10
580.62611748610425
 20
237.20850063569361
 30
0.0
 40
81.000003000000007
 50
248.6338000000008
 51
270.0
  0
ARC
  5
306D
  8
AM_0
 10
549.29394948610388
 20
157.11920463569351
 30
0.0
 40
5.0000001000000003
 50
68.633798000000652
 51
143.26125999999971
  0
ARC
  5
306E
  8
AM_0
 10
536.62611648610425
 20
237.20850063569361
 30
0.0
 40
5.0000001000000003
 50
270.0
 51
0.0
  0
LINE
  5
306F
  8
AM_0
 10
488.12610348610389
 20
260.40848463569353
 30
0.0
 11
488.12610348610389
 21
230.40848163569359
 31
0.0
  0
ARC
  5
3070
  8
AM_0
 10
580.62611748610425
 20
237.20850063569361
 30
0.0
 40
76.000001999999981
 50
167.23980000000071
 51
181.39353999999909
  0
LINE
  5
3071
  8
AM_0
 10
505.76115648610403
 20
232.2084996356935
 30
0.0
 11
536.62611648610425
 21
232.2084996356935
 31
0.0
  0
ARC
  5
3072
  8
AM_0
 10
580.62611748610425
 20
260.40848463569353
 30
0.0
 40
74.400002999999998
 50
171.8834499999985
 51
184.94541999999871
  0
ARC
  5
3073
  8
AM_0
 10
580.62611748610425
 20
260.40848463569353
 30
0.0
 40
14.000001299999999
 50
106.6015399999982
 51
73.398452000001853
  0
LINE
  5
3074
  8
AM_0
 10
541.62608748610387
 20
260.40848463569353
 30
0.0
 11
541.62608748610387
 21
237.20850063569361
 31
0.0
  0
CIRCLE
  5
3075
  8
AM_5
 10
580.62611748610425
 20
260.40848463569353
 30
0.0
 40
4.000000199999997
  0
CIRCLE
  5
3076
  8
AM_0
 10
580.62611748610425
 20
260.40848463569353
 30
0.0
 40
3.0
  0
POINT
  5
3077
  8
AM_0
 10
580.62611748610425
 20
260.40848463569353
 30
0.0
  0
LINE
  5
3078
  8
AM_0
 10
576.62610348610394
 20
277.40849763569349
 30
0.0
 11
584.62610448610417
 21
277.40849763569349
 31
0.0
  0
LINE
  5
3079
  8
AM_0
 10
576.62610348610394
 20
270.4084986356936
 30
0.0
 11
584.62610448610417
 21
270.4084986356936
 31
0.0
  0
LINE
  5
307A
  8
AM_0
 10
576.62610348610394
 20
270.4084986356936
 30
0.0
 11
576.62610348610394
 21
277.40849763569349
 31
0.0
  0
LINE
  5
307B
  8
AM_0
 10
584.62610448610417
 20
270.4084986356936
 30
0.0
 11
584.62610448610417
 21
277.40849763569349
 31
0.0
  0
LINE
  5
307C
  8
AM_0
 10
673.12610748610405
 20
230.4084966356935
 30
0.0
 11
670.72058748610425
 21
184.50840963569351
 31
0.0
  0
ARC
  5
307D
  8
AM_0
 10
655.7411254861039
 20
185.2934616356934
 30
0.0
 40
15.00000029999998
 50
272.99999999999909
 51
357.00000000000091
  0
ARC
  5
307E
  8
AM_0
 10
655.7411254861039
 20
185.2934616356934
 30
0.0
 40
15.00000029999998
 50
272.99999999999909
 51
357.00000000000091
  0
LINE
  5
307F
  8
AM_0
 10
610.62610548610405
 20
167.9084946356935
 30
0.0
 11
656.52619248610415
 21
170.3140146356935
 31
0.0
  0
ARC
  5
3080
  8
AM_0
 10
622.37608848610387
 20
164.8953876356936
 30
0.0
 40
8.0000000999999976
 50
216.73874000000009
 51
23.261258000001192
  0
ARC
  5
3081
  8
AM_0
 10
611.95827348610385
 20
157.11920463569351
 30
0.0
 40
5.0000001000000003
 50
36.738737000001201
 51
111.3662099999999
  0
CIRCLE
  5
3082
  8
AM_0
 10
656.64008148610401
 20
184.39452063569351
 30
0.0
 40
6.0000002999999991
  0
ARC
  5
3083
  8
AM_0
 10
624.62610348610394
 20
237.20850063569361
 30
0.0
 40
5.0000001000000003
 50
179.9999899999988
 51
270.0
  0
ARC
  5
3084
  8
AM_0
 10
580.62611748610425
 20
237.20850063569361
 30
0.0
 40
76.000001999999981
 50
358.60644999999948
 51
12.760201999999399
  0
LINE
  5
3085
  8
AM_0
 10
655.49105148610431
 20
232.2084996356935
 30
0.0
 11
624.62610348610394
 21
232.2084996356935
 31
0.0
  0
LINE
  5
3086
  8
AM_0
 10
619.62612048610413
 20
260.40848463569353
 30
0.0
 11
619.62612048610413
 21
237.20850063569361
 31
0.0
  0
ARC
  5
3087
  8
AM_0
 10
580.62611748610425
 20
260.40848463569353
 30
0.0
 40
74.400002999999998
 50
355.05458000000118
 51
8.1165493999996752
  0
LINE
  5
3088
  8
AM_0
 10
673.12609848610396
 20
260.40848463569353
 30
0.0
 11
673.12609848610396
 21
230.40848163569359
 31
0.0
  0
ARC
  5
3089
  8
AM_0
 10
580.62611748610425
 20
237.20850063569361
 30
0.0
 40
81.000003000000007
 50
58.860945000000022
 51
86.245803000000379
  0
ARC
  5
308A
  8
AM_0
 10
605.77736448610392
 20
294.0450336356937
 30
0.0
 40
3.0
 50
233.21320999999909
 51
315.0
  0
LINE
  5
308B
  8
AM_0
 10
580.62611748610425
 20
352.9084956356935
 30
0.0
 11
610.62610548610405
 21
352.9084956356935
 31
0.0
  0
LINE
  5
308C
  8
AM_0
 10
553.35354948610393
 20
291.92369763569349
 30
0.0
 11
528.465777486104
 21
316.81147563569363
 31
0.0
  0
LINE
  5
308D
  8
AM_0
 10
549.11091948610385
 20
287.68105263569362
 30
0.0
 11
524.22313248610385
 21
312.56884563569361
 31
0.0
  0
LINE
  5
308E
  8
AM_0
 10
550.62611748610425
 20
352.9084956356935
 30
0.0
 11
504.72603048610398
 21
350.50297563569359
 31
0.0
  0
LINE
  5
308F
  8
AM_0
 10
488.12610348610389
 20
290.4084996356936
 30
0.0
 11
490.53162348610391
 21
336.30859563569362
 31
0.0
  0
ARC
  5
3090
  8
AM_0
 10
522.10182348610385
 20
310.4475456356937
 30
0.0
 40
3.0
 50
45.000000999999187
 51
139.4691400000001
  0
ARC
  5
3091
  8
AM_0
 10
530.587086486104
 20
318.93283563569361
 30
0.0
 40
3.0
 50
130.5308599999999
 51
225.0
  0
CIRCLE
  5
3092
  8
AM_0
 10
504.61213848610419
 20
336.42247563569362
 30
0.0
 40
6.0000002999999991
  0
ARC
  5
3093
  8
AM_0
 10
505.51109448610401
 20
335.5235256356936
 30
0.0
 40
15.00000029999998
 50
92.999998999998368
 51
176.99999000000011
  0
ARC
  5
3094
  8
AM_0
 10
505.51109448610401
 20
335.5235256356936
 30
0.0
 40
15.00000029999998
 50
92.999998999998368
 51
176.99999000000011
  0
LINE
  5
3095
  8
AM_0
 10
583.12611948610402
 20
321.02824563569351
 30
0.0
 11
583.12611948610402
 21
331.59634563569358
 31
0.0
  0
LINE
  5
3096
  8
AM_0
 10
578.12610348610394
 20
321.02824563569351
 30
0.0
 11
578.12610348610394
 21
331.59634563569358
 31
0.0
  0
ARC
  5
3097
  8
AM_0
 10
580.62611748610425
 20
260.40848463569353
 30
0.0
 40
39.000011999999998
 50
53.213208000002012
 51
126.78679000000091
  0
ARC
  5
3098
  8
AM_0
 10
580.62611748610425
 20
237.20847363569351
 30
0.0
 40
81.000003000000007
 50
93.754195000000877
 51
121.1390599999998
  0
ARC
  5
3099
  8
AM_0
 10
555.47485848610393
 20
294.0450336356937
 30
0.0
 40
3.0
 50
225.0
 51
306.78679000000079
  0
ARC
  5
309A
  8
AM_0
 10
546.989598486104
 20
285.55974363569362
 30
0.0
 40
3.0
 50
323.21320999999892
 51
45.000000999999187
  0
ARC
  5
309B
  8
AM_0
 10
575.12610348610394
 20
321.02824563569351
 30
0.0
 40
3.0
 50
273.75419999999917
 51
0.0
  0
ARC
  5
309C
  8
AM_0
 10
586.12611948610402
 20
321.02824563569351
 30
0.0
 40
3.0
 50
180.00001000000091
 51
266.2458000000006
  0
LINE
  5
309D
  8
AM_0
 10
580.62611748610425
 20
352.9084956356935
 30
0.0
 11
550.62611748610425
 21
352.9084956356935
 31
0.0
  0
ARC
  5
309E
  8
AM_0
 10
586.12611948610402
 20
331.59634563569358
 30
0.0
 40
3.0
 50
85.582085999998753
 51
180.00001000000091
  0
ARC
  5
309F
  8
AM_0
 10
575.12610348610394
 20
331.59634563569358
 30
0.0
 40
3.0
 50
0.0
 51
94.41791900000014
  0
LINE
  5
30A0
  8
AM_0
 10
673.12610748610405
 20
290.4084996356936
 30
0.0
 11
670.72058748610425
 21
336.30859563569362
 31
0.0
  0
ARC
  5
30A1
  8
AM_0
 10
655.7411254861039
 20
335.5235256356936
 30
0.0
 40
15.00000029999998
 50
3.0000000999988461
 51
86.999999000000216
  0
ARC
  5
30A2
  8
AM_0
 10
655.7411254861039
 20
335.5235256356936
 30
0.0
 40
15.00000029999998
 50
3.0000000999988461
 51
86.999999000000216
  0
ARC
  5
30A3
  8
AM_0
 10
639.15041148610396
 20
310.4475456356937
 30
0.0
 40
3.0
 50
40.530865000001221
 51
135.0
  0
LINE
  5
30A4
  8
AM_0
 10
612.14130348610411
 20
287.68108263569349
 30
0.0
 11
637.029090486104
 21
312.56887563569359
 31
0.0
  0
LINE
  5
30A5
  8
AM_0
 10
607.89865548610408
 20
291.92372763569352
 30
0.0
 11
632.78644548610407
 21
316.81150563569361
 31
0.0
  0
ARC
  5
30A6
  8
AM_0
 10
614.26262448610385
 20
285.55974363569362
 30
0.0
 40
3.0
 50
135.0
 51
216.78679000000079
  0
ARC
  5
30A7
  8
AM_0
 10
630.665121486104
 20
318.93283563569361
 30
0.0
 40
3.0
 50
315.0
 51
49.469137000000707
  0
LINE
  5
30A8
  8
AM_0
 10
610.62610548610405
 20
352.9084956356935
 30
0.0
 11
656.52619248610415
 21
350.50297563569359
 31
0.0
  0
LINE
  5
30A9
  8
ﾁｭｳｼﾝｾﾝ1
 10
647.18865048610405
 20
326.97106563569361
 30
0.0
 11
666.34772448610408
 21
346.13014563569351
 31
0.0
  0
ARC
  5
30AA
  8
ﾁｭｳｼﾝｾﾝ1
 10
580.62611748610425
 20
260.40848463569353
 30
0.0
 40
107.5000109999999
 50
38.02723199999901
 51
53.246320999998758
  0
CIRCLE
  5
30AB
  8
AM_0
 10
656.64008148610401
 20
336.42247563569362
 30
0.0
 40
6.0000002999999991
  0
ARC
  5
30AD
  8
0
 10
215.122699287974
 20
558.40433696196806
 30
0.0
 40
2.0
 50
180.0
 51
267.9999999999996
1001
GENIUS_GENOBJ-N-FIL_13
1002
{
1000
OWNER
1000
GEN
1002
}
1001
GENIUS_GENODEF_13
1002
{
1000
HIER
1070
     0
1002
}
1002
{
1000
MANEDIT
1070
     0
1002
}
1002
{
1000
NOSEL
1070
     0
1002
}
1002
{
1000
BEHIND
1070
     0
1002
}
1002
{
1000
OTHER
1070
     0
1002
}
1002
{
1000
REACTOR
1002
}
  0
LINE
  5
30AE
  8
0
 10
213.122699287974
 20
577.2396232530275
 30
0.0
 11
213.122699287974
 21
421.23962325302722
 31
0.0
1001
GENIUS_GENOREF_13
1005
2E4A
  0
LINE
  5
30AF
  8
0
 10
203.12269928797389
 20
419.23962325302722
 30
0.0
 11
203.12269928797389
 21
579.2396232530275
 31
0.0
1001
GENIUS_GENOREF_13
1005
2E4A
  0
LINE
  5
30B0
  8
AM_0
 10
234.122699287974
 20
453.23960625302732
 30
0.0
 11
213.122699287974
 21
453.23960625302732
 31
0.0
  0
LINE
  5
30B1
  8
0
 10
215.0529002945689
 20
442.07369119812472
 30
0.0
 11
234.122699287974
 21
442.73962325302728
 31
0.0
  0
ARC
  5
30B2
  8
0
 10
211.122699287974
 20
421.23962325302722
 30
0.0
 40
2.0
 50
270.0
 51
0.0
1001
GENIUS_GENOBJ-N-FIL_13
1002
{
1000
OWNER
1000
GEN
1002
}
1001
GENIUS_GENODEF_13
1002
{
1000
HIER
1070
     0
1002
}
1002
{
1000
MANEDIT
1070
     0
1002
}
1002
{
1000
NOSEL
1070
     0
1002
}
1002
{
1000
BEHIND
1070
     0
1002
}
1002
{
1000
OTHER
1070
     0
1002
}
1002
{
1000
REACTOR
1002
}
  0
LINE
  5
30B3
  8
0
 10
203.12269928797389
 20
419.23962325302722
 30
0.0
 11
211.122699287974
 21
419.23962325302722
 31
0.0
  0
ARC
  5
30B4
  8
0
 10
215.122699287974
 20
440.07490954408649
 30
0.0
 40
2.0
 50
92.000000000000341
 51
180.0
1001
GENIUS_GENOBJ-N-FIL_13
1002
{
1000
OWNER
1000
GEN
1002
}
1001
GENIUS_GENODEF_13
1002
{
1000
HIER
1070
     0
1002
}
1002
{
1000
MANEDIT
1070
     0
1002
}
1002
{
1000
NOSEL
1070
     0
1002
}
1002
{
1000
BEHIND
1070
     0
1002
}
1002
{
1000
OTHER
1070
     0
1002
}
1002
{
1000
REACTOR
1002
}
  0
LINE
  5
30B5
  8
AM_0
 10
234.122699287974
 20
545.23962225302751
 30
0.0
 11
213.122699287974
 21
545.23962225302751
 31
0.0
  0
LINE
  5
30B6
  8
0
 10
215.0529002945689
 20
556.40555530793017
 30
0.0
 11
234.122699287974
 21
555.73962325302728
 31
0.0
  0
LINE
  5
30B7
  8
AM_0
 10
234.122699287974
 20
531.17706225302754
 30
0.0
 11
213.122699287974
 21
531.17706225302754
 31
0.0
  0
LINE
  5
30B8
  8
AM_0
 10
234.122699287974
 20
467.3021812530273
 30
0.0
 11
213.122699287974
 21
467.3021812530273
 31
0.0
  0
LINE
  5
30B9
  8
0
 10
203.12269928797389
 20
579.2396232530275
 30
0.0
 11
211.122699287974
 21
579.2396232530275
 31
0.0
  0
ARC
  5
30BA
  8
0
 10
211.122699287974
 20
577.2396232530275
 30
0.0
 40
2.0
 50
0.0
 51
90.0
1001
GENIUS_GENOBJ-N-FIL_13
1002
{
1000
OWNER
1000
GEN
1002
}
1001
GENIUS_GENODEF_13
1002
{
1000
HIER
1070
     0
1002
}
1002
{
1000
MANEDIT
1070
     0
1002
}
1002
{
1000
NOSEL
1070
     0
1002
}
1002
{
1000
BEHIND
1070
     0
1002
}
1002
{
1000
OTHER
1070
     0
1002
}
1002
{
1000
REACTOR
1002
}
  0
LINE
  5
30BC
  8
ﾁｭｳｼﾝｾﾝ1
 10
647.18858162824381
 20
193.8458647779386
 30
0.0
 11
666.34763580849642
 21
174.68676495821779
 31
0.0
  0
ARC
  5
30BD
  8
ﾁｭｳｼﾝｾﾝ1
 10
580.62611748611982
 20
260.40851463569362
 30
0.0
 40
107.5000109999999
 50
306.75361972850692
 51
321.97270872850692
  0
LINE
  5
30BE
  8
ﾁｭｳｼﾝｾﾝ1
 10
515.8658084796009
 20
325.16891562914918
 30
0.0
 11
494.90451216370241
 21
346.13022531325919
 31
0.0
  0
ARC
  5
30BF
  8
ﾁｭｳｼﾝｾﾝ1
 10
580.62611748611982
 20
260.40851463569362
 30
0.0
 40
107.5000109999999
 50
126.7536207285054
 51
141.9727007285058
  0
TEXT
  5
32AD
  8
AM_0
 10
478.80989669392329
 20
514.05542844240335
 30
0.0
 40
10.0
  1
VX02-120AF~VX02-200AF
  0
ENDSEC
  0
EOF
