  0
SECTION
  2
HEADER
  9
$ACADVER
  1
AC1009
  9
$INSBASE
 10
0.0
 20
0.0
 30
0.0
  9
$EXTMIN
 10
321.19987856387121
 20
287.90512333845851
 30
-0.0000000000112498
  9
$EXTMAX
 10
1082.0906477521521
 20
851.84517113590312
 30
0.0000000000002956
  9
$LIMMIN
 10
0.0
 20
0.0
  9
$LIMMAX
 10
1422.5
 20
925.0
  9
$ORTHOMODE
 70
     0
  9
$REGENMODE
 70
     1
  9
$FILLMODE
 70
     1
  9
$QTEXTMODE
 70
     0
  9
$MIRRTEXT
 70
     1
  9
$DRAGMODE
 70
     2
  9
$LTSCALE
 40
5.0
  9
$OSMODE
 70
   551
  9
$ATTMODE
 70
     1
  9
$TEXTSIZE
 40
2.5
  9
$TRACEWID
 40
1.0
  9
$TEXTSTYLE
  7
STANDARD
  9
$CLAYER
  8
AM_0
  9
$CELTYPE
  6
BYLAYER
  9
$CECOLOR
 62
   256
  9
$DIMSCALE
 40
5.0
  9
$DIMASZ
 40
2.5
  9
$DIMEXO
 40
1.0
  9
$DIMDLI
 40
8.0
  9
$DIMRND
 40
0.0
  9
$DIMDLE
 40
0.0
  9
$DIMEXE
 40
0.6
  9
$DIMTP
 40
0.1
  9
$DIMTM
 40
0.1
  9
$DIMTXT
 40
2.5
  9
$DIMCEN
 40
0.0
  9
$DIMTSZ
 40
0.0
  9
$DIMTOL
 70
     0
  9
$DIMLIM
 70
     0
  9
$DIMTIH
 70
     0
  9
$DIMTOH
 70
     0
  9
$DIMSE1
 70
     0
  9
$DIMSE2
 70
     0
  9
$DIMTAD
 70
     1
  9
$DIMZIN
 70
     8
  9
$DIMBLK
  1

  9
$DIMASO
 70
     1
  9
$DIMSHO
 70
     1
  9
$DIMPOST
  1

  9
$DIMAPOST
  1
"
  9
$DIMALT
 70
     0
  9
$DIMALTD
 70
     2
  9
$DIMALTF
 40
0.0393701
  9
$DIMLFAC
 40
1.0
  9
$DIMTOFL
 70
     1
  9
$DIMTVP
 40
0.0
  9
$DIMTIX
 70
     0
  9
$DIMSOXD
 70
     0
  9
$DIMSAH
 70
     0
  9
$DIMBLK1
  1

  9
$DIMBLK2
  1

  9
$DIMSTYLE
  2
AM_ISO
  9
$DIMCLRD
 70
   256
  9
$DIMCLRE
 70
   256
  9
$DIMCLRT
 70
     4
  9
$DIMTFAC
 40
0.71
  9
$DIMGAP
 40
0.8
  9
$LUNITS
 70
     2
  9
$LUPREC
 70
     2
  9
$SKETCHINC
 40
1.0
  9
$FILLETRAD
 40
25.0
  9
$AUNITS
 70
     0
  9
$AUPREC
 70
     0
  9
$MENU
  1
.
  9
$ELEVATION
 40
0.0
  9
$PELEVATION
 40
0.0
  9
$THICKNESS
 40
0.0
  9
$LIMCHECK
 70
     0
  9
$BLIPMODE
 70
     0
  9
$CHAMFERA
 40
10.0
  9
$CHAMFERB
 40
5.0
  9
$SKPOLY
 70
     0
  9
$TDCREATE
 40
2452065.7659250121
  9
$TDUPDATE
 40
2458541.5369611918
  9
$TDINDWG
 40
0.1543270949
  9
$TDUSRTIMER
 40
0.1543268981
  9
$USRTIMER
 70
     1
  9
$ANGBASE
 50
0.0
  9
$ANGDIR
 70
     0
  9
$PDMODE
 70
     0
  9
$PDSIZE
 40
0.0
  9
$PLINEWID
 40
0.0
  9
$COORDS
 70
     1
  9
$SPLFRAME
 70
     0
  9
$SPLINETYPE
 70
     6
  9
$SPLINESEGS
 70
     8
  9
$ATTDIA
 70
     1
  9
$ATTREQ
 70
     1
  9
$HANDLING
 70
     1
  9
$HANDSEED
  5
3453
  9
$SURFTAB1
 70
     6
  9
$SURFTAB2
 70
     6
  9
$SURFTYPE
 70
     6
  9
$SURFU
 70
     6
  9
$SURFV
 70
     6
  9
$UCSNAME
  2

  9
$UCSORG
 10
0.0
 20
0.0
 30
0.0
  9
$UCSXDIR
 10
1.0
 20
0.0
 30
0.0
  9
$UCSYDIR
 10
0.0
 20
1.0
 30
0.0
  9
$PUCSNAME
  2

  9
$PUCSORG
 10
0.0
 20
0.0
 30
0.0
  9
$PUCSXDIR
 10
1.0
 20
0.0
 30
0.0
  9
$PUCSYDIR
 10
0.0
 20
1.0
 30
0.0
  9
$USERI1
 70
     0
  9
$USERI2
 70
     0
  9
$USERI3
 70
     0
  9
$USERI4
 70
     0
  9
$USERI5
 70
     0
  9
$USERR1
 40
0.0
  9
$USERR2
 40
0.0
  9
$USERR3
 40
0.0
  9
$USERR4
 40
0.0
  9
$USERR5
 40
0.0
  9
$WORLDVIEW
 70
     1
  9
$SHADEDGE
 70
     3
  9
$SHADEDIF
 70
    70
  9
$TILEMODE
 70
     1
  9
$MAXACTVP
 70
    64
  9
$PLIMCHECK
 70
     0
  9
$PEXTMIN
 10
1.0000000000000000E+020
 20
1.0000000000000000E+020
 30
1.0000000000000000E+020
  9
$PEXTMAX
 10
-1.0000000000000000E+020
 20
-1.0000000000000000E+020
 30
-1.0000000000000000E+020
  9
$PLIMMIN
 10
0.0
 20
0.0
  9
$PLIMMAX
 10
420.0
 20
297.0
  9
$UNITMODE
 70
     0
  9
$VISRETAIN
 70
     1
  9
$PLINEGEN
 70
     0
  9
$PSLTSCALE
 70
     1
  0
ENDSEC
  0
SECTION
  2
TABLES
  0
TABLE
  2
VPORT
 70
     1
  0
VPORT
  2
*ACTIVE
 70
     0
 10
0.0
 20
0.0
 11
1.0
 21
1.0
 12
701.64526315801186
 22
569.87514723718073
 13
0.0
 23
0.0
 14
12.5
 24
12.5
 15
50.0
 25
50.0
 16
0.0
 26
0.0
 36
1.0
 17
0.0
 27
0.0
 37
0.0
 40
567.81148977317071
 41
1.7571592210767459
 42
50.0
 43
0.0
 44
0.0
 50
0.0
 51
0.0
 71
     0
 72
   100
 73
     1
 74
     3
 75
     0
 76
     0
 77
     0
 78
     0
  0
ENDTAB
  0
TABLE
  2
LTYPE
 70
    26
  0
LTYPE
  2
CONTINUOUS
 70
     0
  3
Solid line
 72
    65
 73
     0
 40
0.0
  0
LTYPE
  2
AM_ISO02W050
 70
     0
  3
__ __ __ __ __ __ __ __ __ __ __ __ __ __ __
 72
    65
 73
     2
 40
7.5
 49
6.0
 49
-1.5
  0
LTYPE
  2
AM_ISO08W050
 70
     0
  3
____ . ____ . ____ . ____ . ____ . ____ . ____
 72
    65
 73
     4
 40
18.0
 49
12.0
 49
-1.5
 49
3.0
 49
-1.5
  0
LTYPE
  2
AM_ISO09W050
 70
     0
  3
_____ . . _____ . . _____ . . ____ .. ____
 72
    65
 73
     6
 40
22.5
 49
12.0
 49
-1.5
 49
3.0
 49
-1.5
 49
3.0
 49
-1.5
  0
LTYPE
  2
AMCONSTR
 70
     0
  3
_______________________
 72
    65
 73
     2
 40
9999.0
 49
9999.0
 49
0.0
  0
LTYPE
  2
AM_ISO08W050X2
 70
     0
  3
__ . __ . __ . __ . __ . __
 72
    65
 73
     4
 40
9.0
 49
6.0
 49
-0.75
 49
1.5
 49
-0.75
  0
LTYPE
  2
AM_ISO02W050X2
 70
     0
  3
 _ _ _ _ _ _ _ _ _ _ _ _
 72
    65
 73
     2
 40
3.75
 49
3.0
 49
-0.75
  0
LTYPE
  2
AMZIGZAG
 70
     0
  3
/\/-/\/-/\/-/\/-/\/-/\/
 72
    65
 73
     2
 40
11.000099999999991
 49
0.0001
 49
-11.0
  0
LTYPE
  2
ACISOWELD
 70
     0
  3
_ _ _ _ _
 72
    65
 73
     2
 40
2.0
 49
2.0
 49
-1.0
  0
LTYPE
  2
ACISOTGB
 70
     0
  3
__ . . __ . .
 72
    65
 73
     6
 40
9.0
 49
4.0
 49
-1.0
 49
1.0
 49
-1.0
 49
1.0
 49
-1.0
  0
LTYPE
  2
ACISOTGL
 70
     0
  3
_ _ _ _ _
 72
    65
 73
     2
 40
3.0
 49
2.0
 49
-1.0
  0
LTYPE
  2
CENTER
 70
     0
  3
__ . __
 72
    65
 73
     4
 40
7.0
 49
4.0
 49
-1.0
 49
1.0
 49
-1.0
  0
LTYPE
  2
PHANTOM2
 70
     0
  3
Phantom (.5x) ___ _ _ ___ _ _ ___ _ _ ___ _ _
 72
    65
 73
     6
 40
31.75
 49
15.875
 49
-3.174999999999998
 49
3.174999999999998
 49
-3.174999999999998
 49
3.174999999999998
 49
-3.174999999999998
  0
LTYPE
  2
ACANSTGBM
 70
     0
  3
__ . . __ . .
 72
    65
 73
     6
 40
9.0
 49
4.0
 49
-1.0
 49
1.0
 49
-1.0
 49
1.0
 49
-1.0
  0
LTYPE
  2
ACANSTGLM
 70
     0
  3
_ _ _ _ _
 72
    65
 73
     2
 40
3.0
 49
2.0
 49
-1.0
  0
LTYPE
  2
GEN7
 70
     0
  3
____ . ____ . ____ . ____ . ____ . ____ . ____
 72
    65
 73
     4
 40
14.25
 49
9.75
 49
-1.5
 49
1.5
 49
-1.5
  0
LTYPE
  2
GEN7A
 70
     0
  3
__ . __ . __
 72
    65
 73
     4
 40
7.375
 49
4.75
 49
-0.875
 49
0.875
 49
-0.875
  0
LTYPE
  2
ACJISTGB
 70
     0
  3
__ . . __ . .
 72
    65
 73
     6
 40
9.0
 49
4.0
 49
-1.0
 49
1.0
 49
-1.0
 49
1.0
 49
-1.0
  0
LTYPE
  2
ACJISTGL
 70
     0
  3
_ _ _ _ _
 72
    65
 73
     2
 40
3.0
 49
2.0
 49
-1.0
  0
LTYPE
  2
HIDDEN
 70
     0
  3
Hidden __ __ __ __ __ __ __ __ __ __ __ __ __ _
 72
    65
 73
     2
 40
0.375
 49
0.25
 49
-0.125
  0
LTYPE
  2
CENTER2
 70
     0
  3
Center (.5x) ___ _ ___ _ ___ _ ___ _ ___ _ ___
 72
    65
 73
     4
 40
1.125
 49
0.75
 49
-0.125
 49
0.125
 49
-0.125
  0
LTYPE
  2
HIDDEN2
 70
     0
  3
Hidden (.5x) _ _ _ _ _ _ _ _ _ _ _ _ _ _ _ _ _
 72
    65
 73
     2
 40
0.1875
 49
0.125
 49
-0.0625
  0
LTYPE
  2
AMZIGZAG2
 70
     0
  3
/\/-/\/-/\/-/\/-/\/-/\/
 72
    65
 73
     2
 40
0.4401
 49
0.0001
 49
-0.4400000000000002
  0
LTYPE
  2
ACANSTGB
 70
     0
  3
__ . . __ . .
 72
    65
 73
     6
 40
0.35433070866
 49
0.15748031496
 49
-0.03937007874
 49
0.03937007874
 49
-0.03937007874
 49
0.03937007874
 49
-0.03937007874
  0
LTYPE
  2
ACANSTGL
 70
     0
  3
_ _ _ _ _
 72
    65
 73
     2
 40
0.11811023622
 49
0.07874015748
 49
-0.03937007874
  0
ENDTAB
  0
TABLE
  2
LAYER
 70
     6
  0
LAYER
  2
0
 70
     0
 62
     7
  6
CONTINUOUS
  0
LAYER
  2
AM_0
 70
     0
 62
     7
  6
CONTINUOUS
  0
LAYER
  2
AM_5
 70
     0
 62
     2
  6
CONTINUOUS
  0
LAYER
  2
DEFPOINTS
 70
     0
 62
     7
  6
CONTINUOUS
  0
LAYER
  2
ﾁｭｳｼﾝｾﾝ
 70
     0
 62
     1
  6
GEN7
  0
LAYER
  2
ﾁｭｳｼﾝｾﾝ1
 70
     0
 62
     1
  6
GEN7A
  0
ENDTAB
  0
TABLE
  2
STYLE
 70
     9
  0
STYLE
  2
STANDARD
 70
     0
 40
0.0
 41
0.8299999999999999
 50
0.0
 71
     0
 42
2.5
  3
txt.shx
  4
bigfont.shx
  0
STYLE
  2
ANNOTATIVE
 70
     0
 40
0.0
 41
1.0
 50
0.0
 71
     0
 42
0.2
  3
txt
  4

  0
STYLE
  2

 70
     1
 40
0.0
 41
1.0
 50
0.0
 71
     0
 42
2.5
  3
ltypeshp.shx
  4

  0
STYLE
  2
ACISOTS
 70
     0
 40
1.0
 41
1.0
 50
0.0
 71
     0
 42
2.5
  3
isocp.shx
  4
extfont.shx
  0
STYLE
  2
ACISOGDT
 70
     0
 40
0.0
 41
1.0
 50
0.0
 71
     0
 42
2.5
  3
amgdt.shx
  4

  0
STYLE
  2
ACANSTS
 70
     0
 40
1.0
 41
1.0
 50
0.0
 71
     0
 42
2.5
  3
romans.shx
  4
bigfont.shx
  0
STYLE
  2
ACANSGDT
 70
     0
 40
0.0
 41
1.0
 50
0.0
 71
     0
 42
2.5
  3
amgdt.shx
  4

  0
STYLE
  2
ACJISTS
 70
     0
 40
1.0
 41
1.0
 50
0.0
 71
     0
 42
2.5
  3
isocp.shx
  4
bigfont.shx
  0
STYLE
  2
ACJISGDT
 70
     0
 40
0.0
 41
1.0
 50
0.0
 71
     0
 42
2.5
  3
amgdt.shx
  4

  0
ENDTAB
  0
TABLE
  2
VIEW
 70
     6
  0
VIEW
  2
AM_VIEW1
 70
     0
 40
462.5
 10
416.07965009208078
 20
693.75
 41
832.15930018416213
 11
0.0
 21
0.0
 31
1.0
 12
0.0
 22
0.0
 32
0.0
 42
50.0
 43
0.0
 44
0.0
 50
0.0
 71
     0
  0
VIEW
  2
AM_VIEW2
 70
     0
 40
462.5
 10
1006.420349907918
 20
693.75
 41
832.15930018416213
 11
0.0
 21
0.0
 31
1.0
 12
0.0
 22
0.0
 32
0.0
 42
50.0
 43
0.0
 44
0.0
 50
0.0
 71
     0
  0
VIEW
  2
AM_VIEW3
 70
     0
 40
462.5
 10
416.07965009208078
 20
231.25
 41
832.15930018416213
 11
0.0
 21
0.0
 31
1.0
 12
0.0
 22
0.0
 32
0.0
 42
50.0
 43
0.0
 44
0.0
 50
0.0
 71
     0
  0
VIEW
  2
AM_VIEW4
 70
     0
 40
462.5
 10
1006.420349907918
 20
231.25
 41
832.15930018416213
 11
0.0
 21
0.0
 31
1.0
 12
0.0
 22
0.0
 32
0.0
 42
50.0
 43
0.0
 44
0.0
 50
0.0
 71
     0
  0
VIEW
  2
AM_VIEW5
 70
     0
 40
462.5
 10
711.24999999999966
 20
462.5
 41
832.15930018416179
 11
0.0
 21
0.0
 31
1.0
 12
0.0
 22
0.0
 32
0.0
 42
50.0
 43
0.0
 44
0.0
 50
0.0
 71
     0
  0
VIEW
  2
AM_VIEW6
 70
     0
 40
924.99075000000005
 10
711.24999999999966
 20
462.5
 41
1664.3019571823199
 11
0.0
 21
0.0
 31
1.0
 12
0.0
 22
0.0
 32
0.0
 42
50.0
 43
0.0
 44
0.0
 50
0.0
 71
     0
  0
ENDTAB
  0
TABLE
  2
UCS
 70
     0
  0
ENDTAB
  0
TABLE
  2
APPID
 70
    95
  0
APPID
  2
ACAD
 70
     0
  0
APPID
  2
ACADANNOTATIVE
 70
     0
  0
APPID
  2
MCAD_NO_VIS
 70
     0
  0
APPID
  2
ACAD_TEMP_GRAPHIC
 70
     0
  0
APPID
  2
ACATTRIBSERVICES
 70
     0
  0
APPID
  2
GENIUS_GENREC_14
 70
     0
  0
APPID
  2
GENIUS_GENOBJ-N-REC_13
 70
     0
  0
APPID
  2
GENIUS_GENODEF_13
 70
     0
  0
APPID
  2
GENIUS_GENOLIS_13
 70
     0
  0
APPID
  2
GENIUS_GENOBJ-N-TIT_13
 70
     0
  0
APPID
  2
GENIUS_GENOENT_13
 70
     0
  0
APPID
  2
GENIUS_GENTITLE_13
 70
     0
  0
APPID
  2
GENIUS_GENOREF_13
 70
     0
  0
APPID
  2
GENIUS_GENSCREG_15
 70
     0
  0
APPID
  2
GENIUS_GENOBJ-N-SDF_13
 70
     0
  0
APPID
  2
GENIUS_GENFIL_13
 70
     0
  0
APPID
  2
GENIUS_GENOBJ-N-CHA_13
 70
     0
  0
APPID
  2
GENIUS_GENDTOL_13
 70
     0
  0
APPID
  2
GENIUS_GENOBJ-N-FIL_13
 70
     0
  0
APPID
  2
AD_DRAW
 70
     0
  0
APPID
  2
DESIGNERASSEMBLIES
 70
     0
  0
APPID
  2
ASURF_PCURVE_APPNAME
 70
     0
  0
APPID
  2
GENIUS_GE3SECT_13
 70
     0
  0
APPID
  2
GENIUS_GENCFG_13
 70
     0
  0
APPID
  2
GENIUS_GE3CFG0_13
 70
     0
  0
APPID
  2
GENIUS_GENCFG0_13
 70
     0
  0
APPID
  2
GENIUS_GENCFG1_13
 70
     0
  0
APPID
  2
GENIUS_GENCFG2_13
 70
     0
  0
APPID
  2
GENIUS_GENCFG3_13
 70
     0
  0
APPID
  2
GENIUS_GENCFG4_13
 70
     0
  0
APPID
  2
GENIUS_GEVCFG0_13
 70
     0
  0
APPID
  2
GENIUS_GENHINW_13
 70
     0
  0
APPID
  2
GENIUS_FIRSTVISTXT_14
 70
     0
  0
APPID
  2
GENIUS_GENOBJ-N-LEADER_13
 70
     0
  0
APPID
  2
GEV_VCCNULL_SWITCH_OFF
 70
     0
  0
APPID
  2
GENIUS_GEFCFG0_13
 70
     0
  0
APPID
  2
GENIUS_GENZVEED_13
 70
     0
  0
APPID
  2
GENIUS_GENSCREG_13
 70
     0
  0
APPID
  2
GENIUS_DUMCFG0_13
 70
     0
  0
APPID
  2
GEVID936201362
 70
     0
  0
APPID
  2
GEVDC
 70
     0
  0
APPID
  2
GEVCON
 70
     0
  0
APPID
  2
VCC
 70
     0
  0
APPID
  2
GEVPT
 70
     0
  0
APPID
  2
GEVIT
 70
     0
  0
APPID
  2
GENBH
 70
     0
  0
APPID
  2
GEVMK
 70
     0
  0
APPID
  2
GENIUS_GENBH_13
 70
     0
  0
APPID
  2
GENIUS_GENOBJ-NBEHI-BHF_13
 70
     0
  0
APPID
  2
GENIUS_GENOBJ-NBEHI-BHB_13
 70
     0
  0
APPID
  2
GENIUS_GENOBJ-F-DESC_13
 70
     0
  0
APPID
  2
GENIUS_GEFDESC_14
 70
     0
  0
APPID
  2
GENIUS_GENOBJ-F-PART_13
 70
     0
  0
APPID
  2
GENIUS_GEFSTDP_13
 70
     0
  0
APPID
  2
GENIUS_GEFPARTINS_13
 70
     0
  0
APPID
  2
GENIUS_GENTRA_14
 70
     0
  0
APPID
  2
GENIUS_GENINF13_13
 70
     0
  0
APPID
  2
GENIUS_GENOBJ-N-INFOPT_13
 70
     0
  0
APPID
  2
GENIUS_GENOBJ-N-RSSYM_13
 70
     0
  0
APPID
  2
GENIUS_GENSYMENT_13
 70
     0
  0
APPID
  2
GENIUS_GENSCSYM_13
 70
     0
  0
APPID
  2
GENIUS_GEFINFNAM_13
 70
     0
  0
APPID
  2
GENIUS_GENOBJ-N-CEN_13
 70
     0
  0
APPID
  2
GENIUS_GENOBJ-N-CRS_13
 70
     0
  0
APPID
  2
GENIUS_GENOBJ-N-CRC_13
 70
     0
  0
APPID
  2
GENIUS_GENCRC_14
 70
     0
  0
APPID
  2
GEVID942827039
 70
     0
  0
APPID
  2
GEVID942827040
 70
     0
  0
APPID
  2
GEVID942827041
 70
     0
  0
APPID
  2
GENIUS_GENOBJ-F-SCPASSM_13
 70
     0
  0
APPID
  2
GENIUS_GENDIMSH_14
 70
     0
  0
APPID
  2
GEVID942827042
 70
     0
  0
APPID
  2
GEVID946020473
 70
     0
  0
APPID
  2
GEVID946020474
 70
     0
  0
APPID
  2
GEVID946020475
 70
     0
  0
APPID
  2
GENIUS_GENOBJ-N-HTC_13
 70
     0
  0
APPID
  2
GENIUS_GENHATCH_13
 70
     0
  0
APPID
  2
GEVID948854295
 70
     0
  0
APPID
  2
GEVID939402019
 70
     0
  0
APPID
  2
GEVID952919491
 70
     0
  0
APPID
  2
GEVID952919492
 70
     0
  0
APPID
  2
GENIUS_GEFWELD_13
 70
     0
  0
APPID
  2
GENIUS_GENOBJ-F-WELS_13
 70
     0
  0
APPID
  2
GEVID952919493
 70
     0
  0
APPID
  2
GENIUS_GENOBJ-N-RSBK_13
 70
     0
  0
APPID
  2
GENIUS_GENOBJ-N-LIB_13
 70
     0
  0
APPID
  2
GENIUS_GENSCALE_13
 70
     0
  0
APPID
  2
GEVID986376691
 70
     0
  0
APPID
  2
DCO15
 70
     0
  0
APPID
  2
ACAD_DSTYLE_DIMBREAK
 70
     0
  0
APPID
  2
ACAD_DSTYLE_DIMJAG
 70
     0
  0
APPID
  2
ACAD_NAV_VCDISPLAY
 70
     0
  0
APPID
  2
ACADANNOPO
 70
     0
  0
APPID
  2
ACAD_EXEMPT_FROM_CAD_STANDARDS
 70
     0
  0
APPID
  2
ACAD_MLEADERVER
 70
     0
  0
ENDTAB
  0
TABLE
  2
DIMSTYLE
 70
    22
  0
DIMSTYLE
  2
STANDARD
 70
     0
  3

  4

  5

  6

  7

 40
1.0
 41
0.18
 42
0.0625
 43
0.38
 44
0.18
 45
0.0
 46
0.0
 47
0.0
 48
0.0
140
0.18
141
0.09
142
0.0
143
25.399999999999999
144
1.0
145
0.0
146
1.0
147
0.09
 71
     0
 72
     0
 73
     1
 74
     1
 75
     0
 76
     0
 77
     0
 78
     0
170
     0
171
     2
172
     0
173
     0
174
     0
175
     0
176
     0
177
     0
178
     0
  0
DIMSTYLE
  2
ANNOTATIVE
 70
     0
  3

  4

  5

  6

  7

 40
1.0
 41
0.18
 42
0.0625
 43
0.38
 44
0.18
 45
0.0
 46
0.0
 47
0.0
 48
0.0
140
0.18
141
0.09
142
0.0
143
25.399999999999999
144
1.0
145
0.0
146
1.0
147
0.09
 71
     0
 72
     0
 73
     1
 74
     1
 75
     0
 76
     0
 77
     0
 78
     0
170
     0
171
     2
172
     0
173
     0
174
     0
175
     0
176
     0
177
     0
178
     0
  0
DIMSTYLE
  2
AM_ISO
 70
     0
  3

  4
"
  5

  6

  7

 40
1.0
 41
2.5
 42
1.0
 43
8.0
 44
0.6
 45
0.0
 46
0.0
 47
0.1
 48
0.1
140
2.5
141
0.0
142
0.0
143
0.0393701
144
1.0
145
0.0
146
0.71
147
0.8
 71
     0
 72
     0
 73
     0
 74
     0
 75
     0
 76
     0
 77
     1
 78
     8
170
     0
171
     2
172
     1
173
     0
174
     0
175
     0
176
   256
177
   256
178
     4
  0
DIMSTYLE
  2
AM_ISO$3
 70
     0
  3

  4
"
  5

  6

  7

 40
1.0
 41
2.5
 42
1.0
 43
8.0
 44
0.6
 45
0.0
 46
0.0
 47
0.1
 48
0.1
140
2.5
141
0.0
142
0.0
143
0.0393701
144
1.0
145
0.0
146
0.71
147
0.8
 71
     0
 72
     0
 73
     0
 74
     1
 75
     0
 76
     0
 77
     1
 78
     8
170
     0
171
     2
172
     0
173
     0
174
     0
175
     0
176
   256
177
   256
178
     4
  0
DIMSTYLE
  2
AM_ISO$4
 70
     0
  3

  4
"
  5

  6

  7

 40
1.0
 41
2.5
 42
1.0
 43
8.0
 44
0.6
 45
0.0
 46
0.0
 47
0.1
 48
0.1
140
2.5
141
0.0
142
0.0
143
0.0393701
144
1.0
145
0.0
146
0.71
147
0.8
 71
     0
 72
     0
 73
     0
 74
     1
 75
     0
 76
     0
 77
     1
 78
     8
170
     0
171
     2
172
     0
173
     0
174
     0
175
     0
176
   256
177
   256
178
     4
  0
DIMSTYLE
  2
AM_ISO$6
 70
     0
  3

  4
"
  5

  6

  7

 40
1.0
 41
2.5
 42
1.0
 43
8.0
 44
0.6
 45
0.0
 46
0.0
 47
0.1
 48
0.1
140
2.5
141
0.0
142
0.0
143
0.0393701
144
1.0
145
0.0
146
0.71
147
0.8
 71
     0
 72
     0
 73
     0
 74
     0
 75
     0
 76
     0
 77
     0
 78
     8
170
     0
171
     2
172
     1
173
     0
174
     0
175
     0
176
   256
177
   256
178
     4
  0
DIMSTYLE
  2
AM_ISO$7
 70
     0
  3

  4
"
  5

  6

  7

 40
1.0
 41
2.5
 42
1.0
 43
8.0
 44
0.6
 45
0.0
 46
0.0
 47
0.1
 48
0.1
140
2.5
141
0.0
142
0.0
143
0.0393701
144
1.0
145
0.0
146
0.71
147
0.8
 71
     0
 72
     0
 73
     0
 74
     0
 75
     0
 76
     0
 77
     1
 78
     8
170
     0
171
     2
172
     1
173
     0
174
     0
175
     0
176
   256
177
   256
178
     4
  0
DIMSTYLE
  2
AM_ISO$SF
 70
     0
  3

  4
"
  5

  6

  7

 40
1.0
 41
2.5
 42
1.0
 43
10.0
 44
1.0
 45
0.0
 46
0.0
 47
0.1
 48
0.1
140
3.5
141
0.0
142
0.0
143
0.0393701
144
1.0
145
0.0
146
0.71
147
1.5
 71
     0
 72
     0
 73
     0
 74
     0
 75
     1
 76
     1
 77
     1
 78
     8
170
     0
171
     2
172
     1
173
     0
174
     0
175
     0
176
   256
177
   256
178
     2
  0
DIMSTYLE
  2
AM_ISO$SH
 70
     0
  3

  4
"
  5

  6

  7

 40
1.0
 41
2.5
 42
1.0
 43
10.0
 44
1.0
 45
0.0
 46
0.0
 47
0.1
 48
0.1
140
3.5
141
0.0
142
0.0
143
0.0393701
144
2.0
145
0.0
146
0.71
147
1.5
 71
     0
 72
     0
 73
     0
 74
     0
 75
     1
 76
     1
 77
     1
 78
     8
170
     0
171
     2
172
     1
173
     1
174
     0
175
     0
176
   256
177
   256
178
     2
  0
DIMSTYLE
  2
AM_JIS
 70
     0
  3

  4
"
  5

  6

  7

 40
1.0
 41
2.5
 42
1.0
 43
7.0
 44
1.0
 45
0.0
 46
0.0
 47
0.1
 48
0.1000000001
140
2.5
141
0.0
142
0.0
143
0.0393701
144
1.0
145
0.0
146
0.71
147
1.0
 71
     0
 72
     0
 73
     0
 74
     0
 75
     0
 76
     0
 77
     3
 78
     8
170
     0
171
     2
172
     1
173
     0
174
     0
175
     0
176
   256
177
   256
178
     4
  0
DIMSTYLE
  2
AM_JIS$3
 70
     0
  3

  4
"
  5

  6

  7

 40
1.0
 41
2.5
 42
1.0
 43
7.0
 44
1.0
 45
0.0
 46
0.0
 47
0.1
 48
0.1000000001
140
2.5
141
0.0
142
0.0
143
0.0393701
144
1.0
145
0.0
146
0.71
147
1.0
 71
     0
 72
     0
 73
     0
 74
     1
 75
     0
 76
     0
 77
     3
 78
     8
170
     0
171
     2
172
     0
173
     0
174
     0
175
     0
176
   256
177
   256
178
     4
  0
DIMSTYLE
  2
AM_JIS$4
 70
     0
  3

  4
"
  5

  6

  7

 40
1.0
 41
2.5
 42
1.0
 43
7.0
 44
1.0
 45
0.0
 46
0.0
 47
0.1
 48
0.1000000001
140
2.5
141
0.0
142
0.0
143
0.0393701
144
1.0
145
0.0
146
0.71
147
1.0
 71
     0
 72
     0
 73
     0
 74
     0
 75
     0
 76
     0
 77
     3
 78
     8
170
     0
171
     2
172
     0
173
     0
174
     0
175
     0
176
   256
177
   256
178
     4
  0
DIMSTYLE
  2
AM_JIS$6
 70
     0
  3

  4
"
  5

  6

  7

 40
1.0
 41
2.5
 42
1.0
 43
7.0
 44
1.0
 45
0.0
 46
0.0
 47
0.1
 48
0.1000000001
140
2.5
141
0.0
142
0.0
143
0.0393701
144
1.0
145
0.0
146
0.71
147
1.0
 71
     0
 72
     0
 73
     0
 74
     0
 75
     0
 76
     0
 77
     0
 78
     8
170
     0
171
     2
172
     1
173
     0
174
     0
175
     0
176
   256
177
   256
178
     4
  0
DIMSTYLE
  2
AM_JIS$7
 70
     0
  3

  4
"
  5

  6

  7

 40
1.0
 41
2.5
 42
1.0
 43
7.0
 44
1.0
 45
0.0
 46
0.0
 47
0.1
 48
0.1000000001
140
2.5
141
0.0
142
0.0
143
0.0393701
144
1.0
145
0.0
146
0.71
147
1.0
 71
     0
 72
     0
 73
     0
 74
     0
 75
     0
 76
     0
 77
     3
 78
     8
170
     0
171
     2
172
     1
173
     0
174
     0
175
     0
176
   256
177
   256
178
     4
  0
DIMSTYLE
  2
AM_JIS$SF
 70
     0
  3

  4
"
  5

  6

  7

 40
1.0
 41
2.5
 42
1.0
 43
10.0
 44
1.0
 45
0.0
 46
0.0
 47
0.1
 48
0.1
140
3.5
141
0.0
142
0.0
143
0.0393701
144
1.0
145
0.0
146
0.71
147
1.5
 71
     0
 72
     0
 73
     0
 74
     0
 75
     1
 76
     1
 77
     3
 78
     8
170
     0
171
     2
172
     1
173
     0
174
     0
175
     0
176
   256
177
   256
178
     4
  0
DIMSTYLE
  2
AM_JIS$SH
 70
     0
  3

  4
"
  5

  6

  7

 40
1.0
 41
2.5
 42
1.0
 43
10.0
 44
1.0
 45
0.0
 46
0.0
 47
0.1
 48
0.1
140
3.5
141
0.0
142
0.0
143
0.0393701
144
1.0
145
0.0
146
0.71
147
1.5
 71
     0
 72
     0
 73
     0
 74
     0
 75
     1
 76
     0
 77
     3
 78
     8
170
     0
171
     2
172
     1
173
     1
174
     0
175
     0
176
   256
177
   256
178
     4
  0
DIMSTYLE
  2
AM_ANSI
 70
     0
  3

  4
mm
  5

  6

  7

 40
1.0
 41
0.1
 42
0.05
 43
0.5
 44
0.1
 45
0.0
 46
0.0
 47
0.1
 48
0.1
140
0.12
141
0.0
142
0.0
143
25.399999999999999
144
1.0
145
0.0
146
0.71
147
0.06
 71
     0
 72
     0
 73
     1
 74
     1
 75
     0
 76
     0
 77
     0
 78
     7
170
     0
171
     2
172
     0
173
     0
174
     0
175
     0
176
   256
177
   256
178
     2
  0
DIMSTYLE
  2
AM_ANSI$3
 70
     0
  3

  4
mm
  5

  6

  7

 40
1.0
 41
0.1
 42
0.05
 43
0.5
 44
0.1
 45
0.0
 46
0.0
 47
0.1
 48
0.1
140
0.12
141
0.0
142
0.0
143
25.399999999999999
144
1.0
145
0.0
146
0.71
147
0.06
 71
     0
 72
     0
 73
     1
 74
     1
 75
     0
 76
     0
 77
     0
 78
     7
170
     0
171
     2
172
     0
173
     0
174
     0
175
     0
176
   256
177
   256
178
     2
  0
DIMSTYLE
  2
AM_ANSI$4
 70
     0
  3

  4
mm
  5

  6

  7

 40
1.0
 41
0.1
 42
0.05
 43
0.5
 44
0.1
 45
0.0
 46
0.0
 47
0.1
 48
0.1
140
0.12
141
0.0
142
0.0
143
25.399999999999999
144
1.0
145
0.0
146
0.71
147
0.06
 71
     0
 72
     0
 73
     1
 74
     1
 75
     0
 76
     0
 77
     0
 78
     7
170
     0
171
     2
172
     0
173
     0
174
     0
175
     0
176
   256
177
   256
178
     2
  0
DIMSTYLE
  2
AM_ANSI$7
 70
     0
  3

  4
mm
  5

  6

  7

 40
1.0
 41
0.1
 42
0.05
 43
0.5
 44
0.1
 45
0.0
 46
0.0
 47
0.1
 48
0.1
140
0.24
141
0.0
142
0.0
143
25.399999999999999
144
1.0
145
0.0
146
0.71
147
0.06
 71
     0
 72
     0
 73
     1
 74
     1
 75
     0
 76
     0
 77
     0
 78
     7
170
     0
171
     2
172
     0
173
     0
174
     0
175
     0
176
   256
177
   256
178
     2
  0
DIMSTYLE
  2
AM_ANSI$SF
 70
     0
  3

  4
mm
  5

  6

  7

 40
1.0
 41
0.1
 42
0.05
 43
0.5
 44
0.1
 45
0.0
 46
0.0
 47
0.1
 48
0.1
140
0.12
141
0.0
142
0.0
143
25.399999999999999
144
1.0
145
0.0
146
0.71
147
0.06
 71
     0
 72
     0
 73
     1
 74
     1
 75
     1
 76
     1
 77
     0
 78
     7
170
     0
171
     2
172
     0
173
     0
174
     0
175
     0
176
   256
177
   256
178
     2
  0
DIMSTYLE
  2
AM_ANSI$SH
 70
     0
  3

  4
mm
  5

  6

  7

 40
1.0
 41
0.1
 42
0.05
 43
0.5
 44
0.1
 45
0.0
 46
0.0
 47
0.1
 48
0.1
140
0.12
141
0.0
142
0.0
143
25.399999999999999
144
1.0
145
0.0
146
0.71
147
0.06
 71
     0
 72
     0
 73
     1
 74
     1
 75
     1
 76
     1
 77
     0
 78
     7
170
     0
171
     2
172
     0
173
     1
174
     0
175
     0
176
   256
177
   256
178
     2
  0
ENDTAB
  0
ENDSEC
  0
SECTION
  2
BLOCKS
  0
BLOCK
  8
0
  2
$MODEL_SPACE
 70
     0
 10
0.0
 20
0.0
 30
0.0
  3
$MODEL_SPACE
  1

  0
ENDBLK
  5
32B9
  8
0
  0
BLOCK
 67
     1
  8
0
  2
$PAPER_SPACE
 70
     0
 10
0.0
 20
0.0
 30
0.0
  3
$PAPER_SPACE
  1

  0
ENDBLK
  5
32B5
 67
     1
  8
0
  0
BLOCK
  8
0
  2
GENAXEH
 70
     0
 10
0.0
 20
0.0
 30
0.0
  3
GENAXEH
  1

  0
LINE
  5
3054
  8
0
 10
-1.0
 20
0.0
 30
0.0
 11
1.0
 21
0.0
 31
0.0
  0
ENDBLK
  5
3055
  8
0
  0
BLOCK
  8
0
  2
_OPEN30
 70
     0
 10
0.0
 20
0.0
 30
0.0
  3
_OPEN30
  1

  0
LINE
  5
3058
  8
0
 62
     0
 10
-1.0
 20
0.26794919
 30
0.0
 11
0.0
 21
0.0
 31
0.0
  0
LINE
  5
3059
  8
0
 62
     0
 10
0.0
 20
0.0
 30
0.0
 11
-1.0
 21
-0.26794919
 31
0.0
  0
LINE
  5
305A
  8
0
 62
     0
 10
0.0
 20
0.0
 30
0.0
 11
-1.0
 21
0.0
 31
0.0
  0
ENDBLK
  5
305B
  8
0
  0
BLOCK
  8
0
  2
_NONE
 70
     0
 10
0.0
 20
0.0
 30
0.0
  3
_NONE
  1

  0
ENDBLK
  5
305E
  8
0
  0
BLOCK
  8
0
  2
*U5
 70
     1
 10
0.0
 20
0.0
 30
0.0
  3
*U5
  1

  0
TEXT
  5
3061
  8
AM_0
 62
     4
 10
416.94412549836852
 20
336.24732863615861
 30
0.0
 40
12.5
  1
\U+2205
 50
90.0
 41
0.8299999999999999
  0
TEXT
  5
3062
  8
AM_0
 62
     4
 10
416.94412549836852
 20
346.62232863615861
 30
0.0
 40
12.5
  1
110 
 50
90.0
 41
0.8299999999999999
  0
TEXT
  5
3063
  8
AM_0
 62
     4
 10
416.94412549836852
 20
375.32649530282509
 30
0.0
 40
10.0
  1
G7
 50
90.0
 41
0.8299999999999999
  0
ENDBLK
  5
3064
  8
0
  0
BLOCK
  8
0
  2
*U6
 70
     1
 10
0.0
 20
0.0
 30
0.0
  3
*U6
  1

  0
TEXT
  5
3067
  8
AM_0
 62
     4
 10
389.04608459910168
 20
346.27649530282508
 30
0.0
 40
12.5
  1
\U+2205
 50
90.0
 41
0.8299999999999999
  0
TEXT
  5
3068
  8
AM_0
 62
     4
 10
389.04608459910168
 20
356.6514953028252
 30
0.0
 40
12.5
  1
160
 50
90.0
 41
0.8299999999999999
  0
ENDBLK
  5
3069
  8
0
  0
BLOCK
  8
0
  2
*U7
 70
     1
 10
0.0
 20
0.0
 30
0.0
  3
*U7
  1

  0
TEXT
  5
306C
  8
AM_0
 62
     4
 10
1061.542341373711
 20
595.05435310009216
 30
0.0
 40
12.5
  1
o
 41
0.8299999999999999
  0
TEXT
  5
306D
  8
AM_0
 62
     4
 10
1073.8935318499
 20
595.05435310009216
 30
0.0
 40
12.5
  1
 235
 41
0.8299999999999999
  0
ENDBLK
  5
306E
  8
0
  0
BLOCK
  8
0
  2
*U8
 70
     1
 10
0.0
 20
0.0
 30
0.0
  3
*U8
  1

  0
TEXT
  5
3071
  8
AM_0
 62
     4
 10
861.81019885193359
 20
393.63066746949198
 30
0.0
 40
12.5
  1
\U+2205
 50
90.0
 41
0.8299999999999999
  0
TEXT
  5
3072
  8
AM_0
 62
     4
 10
861.81019885193359
 20
404.0056674694921
 30
0.0
 40
12.5
  1
210
 50
90.0
 41
0.8299999999999999
  0
TEXT
  5
3073
  8
AM_0
 62
     4
 10
861.81019885193359
 20
429.9431674694921
 30
0.0
 40
10.0
  1
h7
 50
90.0
 41
0.8299999999999999
  0
ENDBLK
  5
3074
  8
0
  0
BLOCK
  8
0
  2
*U9
 70
     1
 10
0.0
 20
0.0
 30
0.0
  3
*U9
  1

  0
TEXT
  5
3077
  8
AM_0
 62
     4
 10
266.65123367603599
 20
351.49039713704798
 30
0.0
 40
12.5
  1
\U+2205
 50
90.0
 41
0.8299999999999999
  0
TEXT
  5
3078
  8
AM_0
 62
     4
 10
266.65123367603599
 20
361.86539713704798
 30
0.0
 40
12.5
  1
160
 50
90.0
 41
0.8299999999999999
  0
ENDBLK
  5
3079
  8
0
  0
BLOCK
  8
0
  2
*U10
 70
     1
 10
0.0
 20
0.0
 30
0.0
  3
*U10
  1

  0
TEXT
  5
307C
  8
AM_0
 62
     4
 10
294.5492745753026
 20
341.46123047038111
 30
0.0
 40
12.5
  1
\U+2205
 50
90.0
 41
0.8299999999999999
  0
TEXT
  5
307D
  8
AM_0
 62
     4
 10
294.5492745753026
 20
351.83623047038111
 30
0.0
 40
12.5
  1
110 
 50
90.0
 41
0.8299999999999999
  0
TEXT
  5
307E
  8
AM_0
 62
     4
 10
294.5492745753026
 20
380.54039713704782
 30
0.0
 40
10.0
  1
G7
 50
90.0
 41
0.8299999999999999
  0
ENDBLK
  5
307F
  8
0
  0
BLOCK
  8
0
  2
*U11
 70
     1
 10
0.0
 20
0.0
 30
0.0
  3
*U11
  1

  0
TEXT
  5
3082
  8
AM_0
 62
     4
 10
739.41534792886796
 20
398.84456930371459
 30
0.0
 40
12.5
  1
\U+2205
 50
90.0
 41
0.8299999999999999
  0
TEXT
  5
3083
  8
AM_0
 62
     4
 10
739.41534792886796
 20
409.21956930371459
 30
0.0
 40
12.5
  1
210
 50
90.0
 41
0.8299999999999999
  0
TEXT
  5
3084
  8
AM_0
 62
     4
 10
739.41534792886796
 20
435.15706930371448
 30
0.0
 40
10.0
  1
h7
 50
90.0
 41
0.8299999999999999
  0
ENDBLK
  5
3085
  8
0
  0
BLOCK
  8
0
  2
*U12
 70
     1
 10
0.0
 20
0.0
 30
0.0
  3
*U12
  1

  0
TEXT
  5
3088
  8
AM_0
 62
     4
 10
939.14749045064502
 20
600.26825493431465
 30
0.0
 40
12.5
  1
o
 41
0.8299999999999999
  0
TEXT
  5
3089
  8
AM_0
 62
     4
 10
951.4986809268355
 20
600.26825493431465
 30
0.0
 40
12.5
  1
 235
 41
0.8299999999999999
  0
ENDBLK
  5
308A
  8
0
  0
BLOCK
  8
0
  2
_ACMFILLEDHALF
 70
     0
 10
0.0
 20
0.0
 30
0.0
  3
_ACMFILLEDHALF
  1

  0
TRACE
  5
33BF
  8
AM_0
 62
     0
 10
-0.8
 20
0.0
 30
0.0
 11
-1.0
 21
0.166666666
 31
0.0
 12
0.0
 22
0.0
 32
0.0
 13
0.0
 23
0.0
 33
0.0
  0
LINE
  5
33C0
  8
AM_0
 62
     0
 10
-1.0
 20
0.0
 30
0.0
 11
-0.8
 21
0.0
 31
0.0
  0
ENDBLK
  5
33BE
  8
0
  0
ENDSEC
  0
SECTION
  2
ENTITIES
  0
LINE
  5
308C
  8
AM_0
 10
626.39947031808299
 20
729.28560273060918
 30
0.0
 11
671.39950031808291
 21
729.28560273060918
 31
0.0
  0
LINE
  5
308D
  8
AM_0
 10
626.39947031808299
 20
739.28557273060915
 30
0.0
 11
671.39950031808291
 21
739.28557273060915
 31
0.0
  0
LINE
  5
308E
  8
AM_0
 10
671.39950031808291
 20
718.28563273060934
 30
0.0
 11
613.39947031808299
 21
718.28563273060934
 31
0.0
  0
LINE
  5
308F
  8
AM_0
 10
671.39950031808291
 20
750.28563273060911
 30
0.0
 11
613.39947031808299
 21
750.28563273060911
 31
0.0
  0
LINE
  5
3090
  8
ﾁｭｳｼﾝｾﾝ
 10
321.24029344594521
 20
734.28560273060896
 30
0.0
 11
679.31228031808268
 21
734.28560273060896
 31
0.0
  0
LINE
  5
3091
  8
AM_0
 10
365.89941031808303
 20
702.34566273060898
 30
0.0
 11
401.99182031808289
 21
702.34566273060898
 31
0.0
  0
LINE
  5
3092
  8
AM_0
 10
365.89941031808303
 20
766.22551273060913
 30
0.0
 11
401.99182031808289
 21
766.22551273060913
 31
0.0
  0
LINE
  5
3093
  8
AM_0
 10
365.89941031808303
 20
688.28560273060896
 30
0.0
 11
407.24218031808277
 21
688.28560273060896
 31
0.0
  0
LINE
  5
3094
  8
AM_0
 10
365.89947031808288
 20
790.78563273060934
 30
0.0
 11
418.33081031808302
 21
792.6165627306093
 31
0.0
  0
LINE
  5
3095
  8
AM_0
 10
418.33075031808278
 20
675.95467273060933
 30
0.0
 11
365.89947031808288
 21
677.7856027306093
 31
0.0
  0
LINE
  5
3096
  8
AM_0
 10
365.89941031808303
 20
780.28563273060934
 30
0.0
 11
407.24218031808277
 21
780.28563273060934
 31
0.0
  0
LINE
  5
3097
  8
AM_0
 10
365.89941031808303
 20
677.7856027306093
 30
0.0
 11
365.89941031808303
 21
790.78557273060915
 31
0.0
  0
POLYLINE
  5
3098
  8
AM_0
 66
     1
 10
0.0
 20
0.0
 30
0.0
  0
VERTEX
  5
3099
  8
AM_0
 10
587.06558031808299
 20
836.9517027306091
 30
0.0
 42
0.079826744
  0
VERTEX
  5
309A
  8
AM_0
 10
561.22375031808281
 20
770.04526273060924
 30
0.0
 42
0.10414854
  0
VERTEX
  5
309B
  8
AM_0
 10
561.22382031808286
 20
698.52556273060895
 30
0.0
 42
0.079826277
  0
VERTEX
  5
309C
  8
AM_0
 10
587.06558031808299
 20
631.61946273060914
 30
0.0
  0
SEQEND
  5
309D
  8
AM_0
  0
ARC
  5
309E
  8
AM_0
 10
626.39947031808299
 20
734.28560273060896
 30
0.0
 40
5.0
 50
90.00000299999769
 51
270.0
  0
LINE
  5
309F
  8
AM_0
 10
626.39947031808299
 20
739.28557273060915
 30
0.0
 11
626.39947031808299
 21
729.28560273060918
 31
0.0
  0
LINE
  5
30A0
  8
AM_0
 10
594.39947031808299
 20
620.20647273060933
 30
0.0
 11
594.39947031808299
 21
848.36473273060915
 31
0.0
  0
LINE
  5
30A1
  8
AM_0
 10
601.39947031808299
 20
643.68587273060893
 30
0.0
 11
601.39947031808299
 21
824.88536273060913
 31
0.0
  0
LINE
  5
30A2
  8
AM_0
 10
609.39947031808299
 20
616.78560273060918
 30
0.0
 11
609.39947031808299
 21
851.78563273060911
 31
0.0
  0
LINE
  5
30A3
  8
AM_0
 10
613.39947031808299
 20
629.28557273060915
 30
0.0
 11
613.39947031808299
 21
839.28563273060911
 31
0.0
  0
LINE
  5
30A4
  8
AM_0
 10
426.20215031808289
 20
723.51713273060932
 30
0.0
 11
426.20215031808289
 21
745.51762273060911
 31
0.0
  0
LINE
  5
30A5
  8
AM_0
 10
388.89941031808303
 20
724.2856027306093
 30
0.0
 11
388.89941031808303
 21
744.28557273060915
 31
0.0
  0
LINE
  5
30A6
  8
AM_0
 10
429.89941031808303
 20
664.99754273060933
 30
0.0
 11
429.89941031808303
 21
803.57359273060899
 31
0.0
  0
LINE
  5
30A7
  8
AM_0
 10
496.39941031808303
 20
634.7856027306093
 30
0.0
 11
496.39941031808303
 21
833.78557273060915
 31
0.0
  0
LINE
  5
30A8
  8
AM_0
 10
474.39941031808303
 20
643.36449273060873
 30
0.0
 11
474.39941031808303
 21
825.2067127306093
 31
0.0
  0
LINE
  5
30A9
  8
AM_0
 10
439.89947031808299
 20
660.78560273060873
 30
0.0
 11
439.89947031808299
 21
807.78557273060915
 31
0.0
  0
LINE
  5
30AA
  8
AM_0
 10
486.39941031808303
 20
669.21339273060914
 30
0.0
 11
486.39941031808303
 21
799.35783273060918
 31
0.0
  0
LINE
  5
30AB
  8
AM_0
 10
496.39947031808282
 20
634.78563273060934
 30
0.0
 11
585.09723031808312
 21
631.68822273060914
 31
0.0
  0
ARC
  5
30AC
  8
AM_0
 10
489.39941031808308
 20
638.03187273060894
 30
0.0
 40
3.0
 50
180.00001000000091
 51
268.00000000000261
  0
LINE
  5
30AD
  8
AM_0
 10
489.2947403180828
 20
635.03368273060914
 30
0.0
 11
496.39935031808272
 21
634.7856027306093
 31
0.0
  0
LINE
  5
30AE
  8
AM_0
 10
429.89941031808303
 20
672.70695273060915
 30
0.0
 11
474.39941031808303
 21
672.70695273060915
 31
0.0
  0
LINE
  5
30AF
  8
AM_0
 10
429.89941031808303
 20
694.81093273060924
 30
0.0
 11
474.39941031808303
 21
694.81093273060924
 31
0.0
  0
LINE
  5
30B0
  8
AM_0
 10
433.75982031808297
 20
660.9999827306093
 30
0.0
 11
471.96924031808283
 21
659.66566273060926
 31
0.0
  0
POLYLINE
  5
30B1
  8
AM_0
 66
     1
 10
0.0
 20
0.0
 30
0.0
  0
VERTEX
  5
30B2
  8
AM_0
 10
409.01921031808303
 20
688.86748273060925
 30
0.0
 42
0.011693549
  0
VERTEX
  5
30B3
  8
AM_0
 10
412.58209031808269
 20
684.37111273060896
 30
0.0
 42
0.011216814
  0
VERTEX
  5
30B4
  8
AM_0
 10
416.34697031808298
 20
680.04235273060931
 30
0.0
 42
0.011000278
  0
VERTEX
  5
30B5
  8
AM_0
 10
420.29907031808278
 20
675.88591273060933
 30
0.0
  0
SEQEND
  5
30B6
  8
AM_0
  0
ARC
  5
30B7
  8
AM_0
 10
433.89941031808303
 20
664.99754273060933
 30
0.0
 40
4.0
 50
180.00001000000091
 51
268.00000000000261
  0
ARC
  5
30B8
  8
AM_0
 10
424.93689031808299
 20
664.17705273060926
 30
0.0
 40
5.0
 50
5.2307202000000732
 51
44.999998000001611
  0
LINE
  5
30B9
  8
AM_0
 10
428.47247031808303
 20
667.71260273060898
 30
0.0
 11
421.69177031808277
 21
674.49324273060927
 31
0.0
  0
ARC
  5
30BA
  8
AM_0
 10
418.15625031808293
 20
670.95769273060932
 30
0.0
 40
5.0
 50
44.999998000001611
 51
88.000000000002785
  0
LINE
  5
30BB
  8
AM_0
 10
391.89941031808303
 20
721.28560273060884
 30
0.0
 11
423.20215031808289
 21
721.28560273060884
 31
0.0
  0
POLYLINE
  5
30BC
  8
AM_0
 66
     1
 10
0.0
 20
0.0
 30
0.0
  0
VERTEX
  5
30BD
  8
AM_0
 10
392.8690203180829
 20
721.28587273060884
 30
0.0
  0
VERTEX
  5
30BE
  8
AM_0
 10
400.29628031808301
 20
702.34646273060923
 30
0.0
 42
-1.0
  0
SEQEND
  5
30BF
  8
AM_0
  0
POLYLINE
  5
30C0
  8
AM_0
 66
     1
 10
0.0
 20
0.0
 30
0.0
  0
VERTEX
  5
30C1
  8
AM_0
 10
404.57749031808282
 20
700.8668227306091
 30
0.0
 42
0.0058779435
  0
VERTEX
  5
30C2
  8
AM_0
 10
405.78711031808302
 20
698.86524273060934
 30
0.0
 42
0.0056588804
  0
VERTEX
  5
30C3
  8
AM_0
 10
407.04258031808303
 20
696.89209273060931
 30
0.0
 42
0.0054619297
  0
VERTEX
  5
30C4
  8
AM_0
 10
408.34162031808302
 20
694.94734273060919
 30
0.0
 42
0.0052861412
  0
VERTEX
  5
30C5
  8
AM_0
 10
409.68215031808268
 20
693.03094273060924
 30
0.0
  0
SEQEND
  5
30C6
  8
AM_0
  0
ARC
  5
30C7
  8
AM_0
 10
407.24218031808277
 20
691.2856027306093
 30
0.0
 40
3.0
 50
270.0
 51
35.575756999997722
  0
ARC
  5
30C8
  8
AM_0
 10
401.99182031808289
 20
699.34566273060932
 30
0.0
 40
3.0
 50
30.468076999999081
 51
90.00000299999769
  0
ARC
  5
30C9
  8
AM_0
 10
391.89941031808303
 20
724.2856027306093
 30
0.0
 40
3.0
 50
180.00001000000091
 51
270.0
  0
ARC
  5
30CA
  8
AM_0
 10
423.20215031808289
 20
718.28560273060884
 30
0.0
 40
3.0
 50
0.0
 51
90.00000299999769
  0
ARC
  5
30CB
  8
AM_0
 10
477.39941031808308
 20
643.36449273060873
 30
0.0
 40
3.0
 50
180.00001000000091
 51
270.0
  0
ARC
  5
30CC
  8
AM_0
 10
477.39941031808308
 20
654.39558273060925
 30
0.0
 40
3.0
 50
180.00001000000091
 51
270.0
  0
LINE
  5
30CD
  8
AM_0
 10
474.39941031808303
 20
676.96803273060925
 30
0.0
 11
486.39941031808303
 21
676.96803273060925
 31
0.0
  0
LINE
  5
30CE
  8
AM_0
 10
474.39941031808303
 20
666.21339273060926
 30
0.0
 11
483.39941031808303
 21
666.21339273060926
 31
0.0
  0
ARC
  5
30CF
  8
AM_0
 10
471.39941031808303
 20
656.68376273060915
 30
0.0
 40
3.0
 50
0.0
 51
88.000000000002785
  0
ARC
  5
30D0
  8
AM_0
 10
483.39941031808303
 20
648.39558273060925
 30
0.0
 40
3.0
 50
0.0
 51
90.00000299999769
  0
ARC
  5
30D1
  8
AM_0
 10
483.43664031808288
 20
637.36449273060919
 30
0.0
 40
3.0
 50
6.3862994000021986
 51
90.00000299999769
  0
LINE
  5
30D2
  8
AM_0
 10
477.39941031808308
 20
640.3644927306093
 30
0.0
 11
483.43664031808288
 21
640.3644927306093
 31
0.0
  0
LINE
  5
30D3
  8
AM_0
 10
486.39941031808303
 20
638.03187273060894
 30
0.0
 11
486.39941031808303
 21
648.39558273060925
 31
0.0
  0
LINE
  5
30D4
  8
AM_0
 10
477.39941031808308
 20
651.39558273060925
 30
0.0
 11
483.39941031808303
 21
651.39558273060925
 31
0.0
  0
ARC
  5
30D5
  8
AM_0
 10
483.39941031808303
 20
669.21339273060914
 30
0.0
 40
3.0
 50
269.999989999999
 51
0.0000006832495047
  0
LINE
  5
30D6
  8
AM_0
 10
597.29480031808293
 20
617.20830273060926
 30
0.0
 11
609.39947031808299
 21
616.78560273060918
 31
0.0
  0
LINE
  5
30D7
  8
AM_0
 10
588.4582803180831
 20
630.22676273060915
 30
0.0
 11
594.39950031808291
 21
624.28554273060934
 31
0.0
  0
ARC
  5
30D8
  8
AM_0
 10
584.92273031808293
 20
626.69124273060925
 30
0.0
 40
5.0
 50
45.000000999999187
 51
88.000000000002785
  0
ARC
  5
30D9
  8
AM_0
 10
597.39947031808299
 20
620.20647273060933
 30
0.0
 40
3.0
 50
179.9999899999988
 51
268.00000999999861
  0
LINE
  5
30DA
  8
AM_0
 10
609.39947031808299
 20
629.28557273060915
 30
0.0
 11
613.39947031808299
 21
629.28557273060915
 31
0.0
  0
ARC
  5
30DB
  8
AM_0
 10
598.39947031808299
 20
643.68587273060893
 30
0.0
 40
3.0
 50
268.00000000000261
 51
0.0
  0
LINE
  5
30DC
  8
AM_0
 10
598.114930318083
 20
640.69398273060915
 30
0.0
 11
598.29477031808301
 21
640.68770273060932
 31
0.0
  0
ARC
  5
30DD
  8
AM_0
 10
597.39947031808299
 20
675.37486273060927
 30
0.0
 40
3.0
 50
90.00000299999769
 51
180.00001000000091
  0
LINE
  5
30DE
  8
AM_0
 10
597.39947031808299
 20
678.37486273060915
 30
0.0
 11
601.39947031808299
 21
678.37486273060915
 31
0.0
  0
LINE
  5
30DF
  8
AM_0
 10
496.39947031808282
 20
833.78557273060915
 30
0.0
 11
585.09723031808312
 21
836.88298273060911
 31
0.0
  0
ARC
  5
30E0
  8
AM_0
 10
489.39941031808308
 20
830.53935273060893
 30
0.0
 40
3.0
 50
91.999998000000545
 51
180.00001000000091
  0
LINE
  5
30E1
  8
AM_0
 10
429.89941031808303
 20
795.86424273060925
 30
0.0
 11
474.39941031808303
 21
795.86424273060925
 31
0.0
  0
LINE
  5
30E2
  8
AM_0
 10
429.89941031808303
 20
773.76030273060894
 30
0.0
 11
474.39941031808303
 21
773.76030273060894
 31
0.0
  0
LINE
  5
30E3
  8
AM_0
 10
433.75988031808311
 20
807.57115273060924
 30
0.0
 11
471.50415031808268
 21
808.88927273060915
 31
0.0
  0
POLYLINE
  5
30E4
  8
AM_0
 66
     1
 10
0.0
 20
0.0
 30
0.0
  0
VERTEX
  5
30E5
  8
AM_0
 10
409.01921031808303
 20
779.70371273060914
 30
0.0
 42
-0.011693549
  0
VERTEX
  5
30E6
  8
AM_0
 10
412.58209031808269
 20
784.20008273060932
 30
0.0
 42
-0.011216814
  0
VERTEX
  5
30E7
  8
AM_0
 10
416.34697031808298
 20
788.52885273060895
 30
0.0
 42
-0.011000278
  0
VERTEX
  5
30E8
  8
AM_0
 10
420.29907031808278
 20
792.68529273060915
 30
0.0
  0
SEQEND
  5
30E9
  8
AM_0
  0
LINE
  5
30EA
  8
AM_0
 10
391.89941031808303
 20
747.28557273060915
 30
0.0
 11
423.20215031808289
 21
747.28557273060915
 31
0.0
  0
POLYLINE
  5
30EB
  8
AM_0
 66
     1
 10
0.0
 20
0.0
 30
0.0
  0
VERTEX
  5
30EC
  8
AM_0
 10
392.8690203180829
 20
747.2853227306091
 30
0.0
  0
VERTEX
  5
30ED
  8
AM_0
 10
400.29628031808301
 20
766.22474273060925
 30
0.0
 42
-1.0
  0
SEQEND
  5
30EE
  8
AM_0
  0
ARC
  5
30EF
  8
AM_0
 10
391.89941031808303
 20
744.28557273060915
 30
0.0
 40
3.0
 50
90.00000299999769
 51
180.00001000000091
  0
POLYLINE
  5
30F0
  8
AM_0
 66
     1
 10
0.0
 20
0.0
 30
0.0
  0
VERTEX
  5
30F1
  8
AM_0
 10
404.57749031808282
 20
767.70437273060918
 30
0.0
 42
-0.0058779435
  0
VERTEX
  5
30F2
  8
AM_0
 10
405.78711031808302
 20
769.70595273060894
 30
0.0
 42
-0.0056588804
  0
VERTEX
  5
30F3
  8
AM_0
 10
407.04258031808303
 20
771.67910273060932
 30
0.0
 42
-0.0054619297
  0
VERTEX
  5
30F4
  8
AM_0
 10
408.34162031808302
 20
773.6238627306094
 30
0.0
 42
-0.0052861412
  0
VERTEX
  5
30F5
  8
AM_0
 10
409.68215031808268
 20
775.54026273060913
 30
0.0
  0
SEQEND
  5
30F6
  8
AM_0
  0
ARC
  5
30F7
  8
AM_0
 10
401.99182031808289
 20
769.22551273060913
 30
0.0
 40
3.0
 50
270.0
 51
329.53192000000121
  0
ARC
  5
30F8
  8
AM_0
 10
407.24218031808277
 20
777.28563273060934
 30
0.0
 40
3.0
 50
324.42424000000028
 51
90.00000299999769
  0
ARC
  5
30F9
  8
AM_0
 10
423.20215031808289
 20
750.28557273060915
 30
0.0
 40
3.0
 50
270.0
 51
0.0
  0
ARC
  5
30FA
  8
AM_0
 10
433.89941031808303
 20
803.57359273060899
 30
0.0
 40
4.0
 50
91.999998000000545
 51
180.00001000000091
  0
ARC
  5
30FB
  8
AM_0
 10
424.93689031808299
 20
804.39415273060945
 30
0.0
 40
5.0
 50
315.0
 51
354.76905999999741
  0
LINE
  5
30FC
  8
AM_0
 10
421.69183031808308
 20
794.07799273060914
 30
0.0
 11
428.47247031808303
 21
800.8586327306092
 31
0.0
  0
ARC
  5
30FD
  8
AM_0
 10
418.15625031808293
 20
797.61351273060916
 30
0.0
 40
5.0
 50
271.9999999999971
 51
315.0
  0
ARC
  5
30FE
  8
AM_0
 10
477.39941031808308
 20
825.2067127306093
 30
0.0
 40
3.0
 50
90.00000299999769
 51
180.00001000000091
  0
ARC
  5
30FF
  8
AM_0
 10
477.39941031808308
 20
814.1756427306093
 30
0.0
 40
3.0
 50
90.00000299999769
 51
180.00001000000091
  0
LINE
  5
3100
  8
AM_0
 10
474.39941031808303
 20
802.35783273060929
 30
0.0
 11
483.39941031808303
 21
802.35783273060929
 31
0.0
  0
LINE
  5
3101
  8
AM_0
 10
474.39941031808303
 20
791.60319273060895
 30
0.0
 11
486.39941031808303
 21
791.60319273060895
 31
0.0
  0
ARC
  5
3102
  8
AM_0
 10
471.39941031808303
 20
811.88743273060913
 30
0.0
 40
3.0
 50
271.9999999999971
 51
0.0
  0
ARC
  5
3103
  8
AM_0
 10
483.39941031808303
 20
799.35783273060918
 30
0.0
 40
3.0
 50
0.0
 51
90.00000299999769
  0
LINE
  5
3104
  8
AM_0
 10
486.39941031808303
 20
830.53935273060893
 30
0.0
 11
486.39941031808303
 21
820.17564273060918
 31
0.0
  0
ARC
  5
3105
  8
AM_0
 10
483.39941031808303
 20
820.17564273060918
 30
0.0
 40
3.0
 50
269.999989999999
 51
0.0000006832495047
  0
LINE
  5
3106
  8
AM_0
 10
477.39941031808308
 20
817.17564273060918
 30
0.0
 11
483.39941031808303
 21
817.17564273060918
 31
0.0
  0
ARC
  5
3107
  8
AM_0
 10
483.43664031808288
 20
831.2067127306093
 30
0.0
 40
3.0
 50
269.999989999999
 51
353.61369000000383
  0
LINE
  5
3108
  8
AM_0
 10
477.39941031808308
 20
828.20671273060918
 30
0.0
 11
483.43664031808288
 21
828.20671273060918
 31
0.0
  0
LINE
  5
3109
  8
AM_0
 10
489.2947403180828
 20
833.53752273060934
 30
0.0
 11
496.39941031808303
 21
833.78563273060911
 31
0.0
  0
ARC
  5
310A
  8
AM_0
 10
597.39947031808299
 20
793.19633273060913
 30
0.0
 40
3.0
 50
179.9999899999988
 51
270.0
  0
LINE
  5
310B
  8
AM_0
 10
597.39947031808299
 20
790.19633273060913
 30
0.0
 11
601.39947031808299
 21
790.19633273060913
 31
0.0
  0
ARC
  5
310C
  8
AM_0
 10
598.39947031808299
 20
824.88536273060913
 30
0.0
 40
3.0
 50
0.0
 51
91.999998000000545
  0
LINE
  5
310D
  8
AM_0
 10
598.114930318083
 20
827.87718273060921
 30
0.0
 11
598.29474031808309
 21
827.88347273060901
 31
0.0
  0
LINE
  5
310E
  8
AM_0
 10
597.29477031808301
 20
851.36290273060911
 30
0.0
 11
609.39947031808299
 21
851.78557273060915
 31
0.0
  0
LINE
  5
310F
  8
AM_0
 10
588.4582803180831
 20
838.34441273060929
 30
0.0
 11
594.39950031808291
 21
844.28563273060945
 31
0.0
  0
ARC
  5
3110
  8
AM_0
 10
584.92273031808293
 20
841.87993273060874
 30
0.0
 40
5.0
 50
271.9999999999971
 51
315.0
  0
ARC
  5
3111
  8
AM_0
 10
597.39947031808299
 20
848.36473273060915
 30
0.0
 40
3.0
 50
91.999998000000545
 51
180.00001000000091
  0
LINE
  5
3112
  8
AM_0
 10
609.39947031808299
 20
839.28563273060911
 30
0.0
 11
613.39947031808299
 21
839.28563273060911
 31
0.0
  0
LINE
  5
3113
  8
AM_0
 10
671.39950031808291
 20
718.28563273060934
 30
0.0
 11
671.39950031808291
 21
750.28563273060911
 31
0.0
  0
LINE
  5
3114
  8
AM_0
 10
558.91000031808289
 20
498.427953470381
 30
0.0
 11
594.39949031808328
 21
533.91747347038086
 31
0.0
  0
LINE
  5
3115
  8
ﾁｭｳｼﾝｾﾝ
 10
674.51782031808295
 20
423.9174664703811
 30
0.0
 11
451.84915031808282
 21
423.9174664703811
 31
0.0
  0
LINE
  5
3116
  8
AM_0
 10
474.39949031808328
 20
315.49969247038121
 30
0.0
 11
592.66300031808305
 21
315.49969247038121
 31
0.0
  0
LINE
  5
3117
  8
AM_0
 10
474.39949031808328
 20
335.53722947038119
 30
0.0
 11
592.66300031808305
 21
335.53722947038119
 31
0.0
  0
LINE
  5
3118
  8
AM_0
 10
581.63644031808315
 20
294.18546647038107
 30
0.0
 11
602.39950031808291
 21
306.17301647038119
 31
0.0
  0
ARC
  5
3119
  8
AM_0
 10
617.65297031808313
 20
426.22224647038092
 30
0.0
 40
40.000001999999981
 50
174.0759799999995
 51
234.45533999999751
  0
ARC
  5
311A
  8
AM_0
 10
433.89949031808311
 20
465.70551347038111
 30
0.0
 40
4.000000199999997
 50
91.999998000000545
 51
180.9319799999995
  0
LINE
  5
311B
  8
AM_0
 10
439.89949031808328
 20
321.91747847038118
 30
0.0
 11
439.89949031808328
 21
469.91745347038119
 31
0.0
  0
LINE
  5
311C
  8
AM_0
 10
474.39949031808328
 20
486.94152347038113
 30
0.0
 11
474.39949031808328
 21
304.89404147038118
 31
0.0
  0
LINE
  5
311D
  8
AM_0
 10
496.39951031808312
 20
495.41745347038108
 30
0.0
 11
496.39951031808312
 21
296.41747847038118
 31
0.0
  0
LINE
  5
311E
  8
AM_0
 10
582.28735031808276
 20
472.95450347038133
 30
0.0
 11
577.86664031808323
 21
430.35063347038101
 31
0.0
  0
LINE
  5
311F
  8
ﾁｭｳｼﾝｾﾝ
 10
468.76150031808288
 20
367.91748047038112
 30
0.0
 11
321.24029344594521
 21
367.91748047038089
 31
0.0
  0
LINE
  5
3120
  8
AM_0
 10
365.89948031808308
 20
311.41747847038118
 30
0.0
 11
382.03909031808303
 21
311.98109147038122
 31
0.0
  0
LINE
  5
3121
  8
AM_0
 10
365.89948031808308
 20
321.91747847038118
 30
0.0
 11
385.89949031808288
 21
321.91747847038118
 31
0.0
  0
LINE
  5
3122
  8
AM_0
 10
365.89948031808308
 20
335.11164647038112
 30
0.0
 11
385.89949031808288
 21
335.11164647038112
 31
0.0
  0
LINE
  5
3123
  8
AM_0
 10
365.89948031808308
 20
413.91749747038102
 30
0.0
 11
411.00253031808307
 21
413.91749747038079
 31
0.0
  0
LINE
  5
3124
  8
AM_0
 10
365.89948031808308
 20
400.72332947038097
 30
0.0
 11
405.05104031808298
 21
400.72332947038092
 31
0.0
  0
LINE
  5
3125
  8
AM_0
 10
365.89948031808308
 20
424.41749747038108
 30
0.0
 11
384.07972031808322
 21
425.05235447038109
 31
0.0
  0
LINE
  5
3126
  8
0
 10
334.89948031808308
 20
287.91748047038112
 30
0.0
 11
334.89948031808308
 21
447.91748047038089
 31
0.0
1001
GENIUS_GENOREF_13
1005
2DA2
  0
LINE
  5
3127
  8
AM_0
 10
365.89948031808308
 20
311.41747847038118
 30
0.0
 11
365.89948031808308
 21
424.41749747038108
 31
0.0
  0
LINE
  5
3128
  8
0
 10
344.89948031808302
 20
445.91748047038118
 30
0.0
 11
344.89948031808302
 21
289.91748047038112
 31
0.0
1001
GENIUS_GENOREF_13
1005
2DA2
  0
LINE
  5
3129
  8
0
 10
334.89948031808308
 20
287.91748047038112
 30
0.0
 11
342.89948031808308
 21
287.91748047038112
 31
0.0
  0
ARC
  5
312A
  8
0
 10
342.89948031808308
 20
289.91748047038112
 30
0.0
 40
2.0
 50
270.0
 51
0.0
1001
GENIUS_GENOBJ-N-FIL_13
1002
{
1000
OWNER
1000
GEN
1002
}
1001
GENIUS_GENODEF_13
1002
{
1000
HIER
1070
     0
1002
}
1002
{
1000
MANEDIT
1070
     0
1002
}
1002
{
1000
NOSEL
1070
     0
1002
}
1002
{
1000
BEHIND
1070
     0
1002
}
1002
{
1000
OTHER
1070
     0
1002
}
1002
{
1000
REACTOR
1002
}
  0
LINE
  5
312B
  8
AM_0
 10
365.89948031808308
 20
321.91746347038122
 30
0.0
 11
344.89948031808302
 21
321.91746347038122
 31
0.0
  0
LINE
  5
312C
  8
0
 10
346.82968132467772
 20
310.75154841547823
 30
0.0
 11
365.89948031808308
 21
311.41748047038112
 31
0.0
  0
ARC
  5
312D
  8
0
 10
346.89948031808302
 20
308.75276676144028
 30
0.0
 40
2.0
 50
92.000000000003567
 51
180.0
1001
GENIUS_GENOBJ-N-FIL_13
1002
{
1000
OWNER
1000
GEN
1002
}
1001
GENIUS_GENODEF_13
1002
{
1000
HIER
1070
     0
1002
}
1002
{
1000
MANEDIT
1070
     0
1002
}
1002
{
1000
NOSEL
1070
     0
1002
}
1002
{
1000
BEHIND
1070
     0
1002
}
1002
{
1000
OTHER
1070
     0
1002
}
1002
{
1000
REACTOR
1002
}
  0
LINE
  5
312E
  8
AM_0
 10
365.89948031808308
 20
335.9800384703812
 30
0.0
 11
344.89948031808302
 21
335.9800384703812
 31
0.0
  0
LINE
  5
312F
  8
AM_0
 10
365.89948031808308
 20
399.85491947038111
 30
0.0
 11
344.89948031808302
 21
399.85491947038111
 31
0.0
  0
LINE
  5
3130
  8
AM_0
 10
365.89948031808308
 20
413.91747947038101
 30
0.0
 11
344.89948031808302
 21
413.91747947038101
 31
0.0
  0
LINE
  5
3131
  8
0
 10
346.82968132467772
 20
425.0834125252839
 30
0.0
 11
365.89948031808308
 21
424.41748047038118
 31
0.0
  0
ARC
  5
3132
  8
0
 10
346.89948031808302
 20
427.08219417932202
 30
0.0
 40
2.0
 50
180.0
 51
267.99999999999631
1001
GENIUS_GENOBJ-N-FIL_13
1002
{
1000
OWNER
1000
GEN
1002
}
1001
GENIUS_GENODEF_13
1002
{
1000
HIER
1070
     0
1002
}
1002
{
1000
MANEDIT
1070
     0
1002
}
1002
{
1000
NOSEL
1070
     0
1002
}
1002
{
1000
BEHIND
1070
     0
1002
}
1002
{
1000
OTHER
1070
     0
1002
}
1002
{
1000
REACTOR
1002
}
  0
LINE
  5
3133
  8
0
 10
334.89948031808308
 20
447.91748047038089
 30
0.0
 11
342.89948031808308
 21
447.91748047038089
 31
0.0
  0
ARC
  5
3134
  8
0
 10
342.89948031808308
 20
445.91748047038118
 30
0.0
 40
2.0
 50
0.0
 51
90.0
1001
GENIUS_GENOBJ-N-FIL_13
1002
{
1000
OWNER
1000
GEN
1002
}
1001
GENIUS_GENODEF_13
1002
{
1000
HIER
1070
     0
1002
}
1002
{
1000
MANEDIT
1070
     0
1002
}
1002
{
1000
NOSEL
1070
     0
1002
}
1002
{
1000
BEHIND
1070
     0
1002
}
1002
{
1000
OTHER
1070
     0
1002
}
1002
{
1000
REACTOR
1002
}
  0
ARC
  5
3135
  8
AM_0
 10
433.89949031808311
 20
326.12943947038121
 30
0.0
 40
4.000000199999997
 50
211.0723399999998
 51
268.0000000000029
  0
LINE
  5
3136
  8
AM_0
 10
385.89949031808288
 20
346.42193447038119
 30
0.0
 11
385.89949031808288
 21
315.97865147038112
 31
0.0
  0
LINE
  5
3137
  8
AM_0
 10
477.29482031808288
 20
301.89526247038123
 30
0.0
 11
484.46932031808308
 21
301.64472647038122
 31
0.0
  0
ARC
  5
3138
  8
AM_0
 10
381.89950031808303
 20
315.97865147038112
 30
0.0
 40
4.000000199999997
 50
271.99999999999687
 51
0.0
  0
LINE
  5
3139
  8
AM_0
 10
439.89949031808328
 20
322.41747947038112
 30
0.0
 11
471.96925031808308
 21
321.29757347038122
 31
0.0
  0
LINE
  5
313A
  8
AM_0
 10
433.75990031808283
 20
322.13187947038119
 30
0.0
 11
439.89949031808328
 21
321.91747847038118
 31
0.0
  0
ARC
  5
313B
  8
AM_0
 10
477.39949031808328
 20
304.89404147038118
 30
0.0
 40
3.0
 50
179.9999899999988
 51
268.00000999999861
  0
ARC
  5
313C
  8
AM_0
 10
471.39949031808311
 20
318.3156574703811
 30
0.0
 40
3.0
 50
0.0
 51
88.000000000002899
  0
LINE
  5
313D
  8
AM_0
 10
496.39951031808312
 20
296.41747847038118
 30
0.0
 11
581.63644031808315
 21
294.18546647038107
 31
0.0
  0
LINE
  5
313E
  8
AM_0
 10
486.39949031808328
 20
315.49969247038121
 30
0.0
 11
486.39949031808328
 21
298.69805747038117
 31
0.0
  0
LINE
  5
313F
  8
AM_0
 10
488.32975031808309
 20
296.69927747038111
 30
0.0
 11
496.39951031808312
 21
296.41747847038118
 31
0.0
  0
ARC
  5
3140
  8
AM_0
 10
484.39951031808312
 20
299.6459464703812
 30
0.0
 40
2.00000007
 50
0.0
 51
88.000000000002899
  0
ARC
  5
3141
  8
AM_0
 10
488.39950031808303
 20
298.69805747038117
 30
0.0
 40
2.00000007
 50
179.9999899999988
 51
268.00000999999861
  0
LINE
  5
3142
  8
AM_0
 10
475.87807031808302
 20
453.30015647038118
 30
0.0
 11
484.82857031808311
 21
453.30015647038118
 31
0.0
  0
LINE
  5
3143
  8
AM_0
 10
476.39950031808303
 20
462.24957347038111
 30
0.0
 11
484.39951031808312
 21
462.24957347038111
 31
0.0
  0
LINE
  5
3144
  8
AM_0
 10
405.05104031808298
 20
400.72331147038119
 30
0.0
 11
429.89950031808303
 21
356.3505094703811
 31
0.0
  0
LINE
  5
3145
  8
AM_0
 10
429.89950031808303
 20
324.80500547038122
 30
0.0
 11
429.89950031808303
 21
465.48339347038132
 31
0.0
  0
LINE
  5
3146
  8
AM_0
 10
390.89950031808303
 20
351.42195047038109
 30
0.0
 11
429.89950031808303
 21
351.42195047038109
 31
0.0
  0
LINE
  5
3147
  8
AM_0
 10
390.03907031808302
 20
327.2952874703812
 30
0.0
 11
427.18696031808298
 21
325.99804547038121
 31
0.0
  0
ARC
  5
3148
  8
AM_0
 10
389.89951031808312
 20
323.29771247038121
 30
0.0
 40
4.000000199999997
 50
88.000000000002899
 51
180.00001000000091
  0
ARC
  5
3149
  8
AM_0
 10
390.89950031808303
 20
346.42193447038119
 30
0.0
 40
5.0000001000000003
 50
90.00000299999769
 51
180.00001000000091
  0
LINE
  5
314A
  8
AM_0
 10
429.89950031808303
 20
334.33883447038107
 30
0.0
 11
474.39949031808328
 21
334.33883447038107
 31
0.0
  0
LINE
  5
314B
  8
AM_0
 10
429.89950031808303
 20
356.442810470381
 30
0.0
 11
474.39949031808328
 21
356.442810470381
 31
0.0
  0
ARC
  5
314C
  8
AM_0
 10
427.04737031808293
 20
322.00047047038117
 30
0.0
 40
4.000000199999997
 50
31.072340999998989
 51
88.000000000002899
  0
LINE
  5
314D
  8
AM_0
 10
391.79482031808311
 20
459.01860347038109
 30
0.0
 11
424.62745031808288
 21
460.16514347038111
 31
0.0
  0
LINE
  5
314E
  8
AM_0
 10
392.40016031808318
 20
426.418137470381
 30
0.0
 11
427.31632031808272
 21
461.33424347038113
 31
0.0
  0
LINE
  5
314F
  8
AM_0
 10
388.89949031808288
 20
456.0204034703811
 30
0.0
 11
388.89949031808288
 21
429.37416347038112
 31
0.0
  0
LINE
  5
3150
  8
AM_0
 10
391.28602031808299
 20
425.30400347038091
 30
0.0
 11
397.66237031808288
 21
413.91746747038098
 31
0.0
  0
ARC
  5
3151
  8
AM_0
 10
383.94013031808282
 20
429.04991147038118
 30
0.0
 40
4.000000199999997
 50
271.99999999999687
 51
309.6297900000003
  0
LINE
  5
3152
  8
AM_0
 10
384.07972031808322
 20
425.05235447038109
 30
0.0
 11
389.71132031808281
 21
425.24901047038099
 31
0.0
  0
ARC
  5
3153
  8
AM_0
 10
389.57173031808298
 20
429.24656747038108
 30
0.0
 40
4.000000199999997
 50
271.99999999999687
 51
315.0
  0
ARC
  5
3154
  8
AM_0
 10
385.89949031808288
 20
429.37416347038112
 30
0.0
 40
3.0
 50
309.6297900000003
 51
0.0
  0
LINE
  5
3155
  8
AM_0
 10
387.81295031808293
 20
427.0635844703811
 30
0.0
 11
386.4914203180831
 21
425.96916347038109
 31
0.0
  0
ARC
  5
3156
  8
AM_0
 10
411.00253031808307
 20
410.91749747038119
 30
0.0
 40
3.0
 50
315.0
 51
90.00000299999769
  0
LINE
  5
3157
  8
AM_0
 10
405.05104031808298
 20
400.72332947038092
 30
0.0
 11
413.12386031808319
 21
408.79617347038101
 31
0.0
  0
ARC
  5
3158
  8
AM_0
 10
391.89949031808288
 20
456.0204034703811
 30
0.0
 40
3.0
 50
91.999998000000545
 51
180.00001000000091
  0
LINE
  5
3159
  8
AM_0
 10
429.89950031808303
 20
457.4961334703811
 30
0.0
 11
474.39949031808328
 21
457.4961334703811
 31
0.0
  0
LINE
  5
315A
  8
AM_0
 10
429.89950031808303
 20
435.39216647038091
 30
0.0
 11
474.39949031808328
 21
435.39216647038091
 31
0.0
  0
LINE
  5
315B
  8
AM_0
 10
427.31632031808272
 20
461.33424347038113
 30
0.0
 11
428.72896031808301
 21
462.74697347038119
 31
0.0
  0
ARC
  5
315C
  8
AM_0
 10
424.48789031808309
 20
464.16270347038108
 30
0.0
 40
4.000000199999997
 50
271.99999999999687
 51
315.0
  0
ARC
  5
315D
  8
AM_0
 10
425.90053031808287
 20
465.5754034703811
 30
0.0
 40
4.000000199999997
 50
315.0
 51
0.9319899800013384
  0
ARC
  5
315E
  8
AM_0
 10
476.39950031808303
 20
464.2495534703811
 30
0.0
 40
2.00000007
 50
179.9999899999988
 51
270.0
  0
LINE
  5
315F
  8
AM_0
 10
486.39949031808328
 20
335.53722947038119
 30
0.0
 11
486.39949031808328
 21
460.24959347038111
 31
0.0
  0
LINE
  5
3160
  8
AM_0
 10
496.39951031808312
 20
426.10283147038109
 30
0.0
 11
496.40110031808291
 21
426.10283147038109
 31
0.0
  0
ARC
  5
3161
  8
AM_0
 10
484.39951031808312
 20
460.24959347038111
 30
0.0
 40
2.00000007
 50
0.0
 51
90.00000299999769
  0
LINE
  5
3162
  8
AM_0
 10
474.39949031808328
 20
475.12191347038112
 30
0.0
 11
581.39296031808306
 21
475.12191347038112
 31
0.0
  0
LINE
  5
3163
  8
AM_0
 10
477.29482031808288
 20
489.9397234703809
 30
0.0
 11
484.46932031808308
 21
490.19022347038089
 31
0.0
  0
LINE
  5
3164
  8
AM_0
 10
476.39950031808303
 20
479.22015347038109
 30
0.0
 11
484.39951031808312
 21
479.22015347038109
 31
0.0
  0
LINE
  5
3165
  8
AM_0
 10
439.89949031808328
 20
469.41747347038091
 30
0.0
 11
471.50416031808288
 21
470.52114347038088
 31
0.0
  0
LINE
  5
3166
  8
AM_0
 10
433.75990031808283
 20
469.70307347038118
 30
0.0
 11
439.89949031808328
 21
469.91745347038119
 31
0.0
  0
ARC
  5
3167
  8
AM_0
 10
476.39950031808303
 20
477.220143470381
 30
0.0
 40
2.00000007
 50
90.00000299999769
 51
180.00001000000091
  0
ARC
  5
3168
  8
AM_0
 10
471.39949031808311
 20
473.5193434703811
 30
0.0
 40
3.0
 50
271.99999999999687
 51
0.0
  0
ARC
  5
3169
  8
AM_0
 10
477.39949031808328
 20
486.94152347038113
 30
0.0
 40
3.0
 50
91.999998000000545
 51
180.00001000000091
  0
LINE
  5
316A
  8
AM_0
 10
496.39951031808312
 20
495.41751347038092
 30
0.0
 11
555.50536031808315
 21
496.96524347038098
 31
0.0
  0
LINE
  5
316B
  8
AM_0
 10
486.39949031808328
 20
481.2201034703811
 30
0.0
 11
486.39949031808328
 21
493.13688347038101
 31
0.0
  0
ARC
  5
316C
  8
AM_0
 10
484.39951031808312
 20
481.2201034703811
 30
0.0
 40
2.00000007
 50
270.0
 51
0.0
  0
LINE
  5
316D
  8
AM_0
 10
488.32975031808309
 20
495.13566347038102
 30
0.0
 11
496.39951031808312
 21
495.41745347038108
 31
0.0
  0
ARC
  5
316E
  8
AM_0
 10
484.39951031808312
 20
492.18903347038099
 30
0.0
 40
2.00000007
 50
271.99999999999687
 51
0.0
  0
ARC
  5
316F
  8
AM_0
 10
488.39950031808303
 20
493.13688347038101
 30
0.0
 40
2.00000007
 50
91.999998000000545
 51
180.00001000000091
  0
LINE
  5
3170
  8
AM_0
 10
557.49949031808285
 20
497.01744347038101
 30
0.0
 11
564.72967031808332
 21
495.8562034703811
 31
0.0
  0
ARC
  5
3171
  8
AM_0
 10
555.37447031808279
 20
501.96348347038099
 30
0.0
 40
5.0000001000000003
 50
271.50000000000261
 51
315.0
  0
ARC
  5
3172
  8
AM_0
 10
561.39949031808328
 20
475.12191347038112
 30
0.0
 40
21.000000600000011
 50
354.07597999999939
 51
80.875524999996657
  0
LINE
  5
3173
  8
AM_0
 10
601.39951031808323
 20
423.9174664703811
 30
0.0
 11
601.39951031808323
 21
514.51719347038124
 31
0.0
  0
LINE
  5
3174
  8
AM_0
 10
609.39949031808317
 20
423.9174664703811
 30
0.0
 11
609.39949031808317
 21
541.41750347038112
 31
0.0
  0
LINE
  5
3175
  8
AM_0
 10
594.39949031808328
 20
395.15322947038101
 30
0.0
 11
594.39949031808328
 21
482.82822347038098
 31
0.0
  0
LINE
  5
3176
  8
AM_0
 10
613.39951031808323
 20
318.91747847038118
 30
0.0
 11
613.39951031808323
 21
528.91749347038126
 31
0.0
  0
LINE
  5
3177
  8
ﾁｭｳｼﾝｾﾝ
 10
921.57861648545429
 20
291.14673947038108
 30
0.0
 11
921.57861648545429
 21
547.01487347038085
 31
0.0
  0
LINE
  5
3178
  8
AM_0
 10
961.33941948545464
 20
458.02143347038123
 30
0.0
 11
990.56973048545456
 21
487.25172347038108
 31
0.0
  0
LINE
  5
3179
  8
AM_0
 10
955.68255948545436
 20
463.67829347038111
 30
0.0
 11
984.91286148545441
 21
492.9085834703809
 31
0.0
  0
LINE
  5
317A
  8
AM_0
 10
881.81781048545463
 20
458.02143347038123
 30
0.0
 11
852.58749348545405
 21
487.25175347038117
 31
0.0
  0
LINE
  5
317B
  8
AM_0
 10
1039.078626485453
 20
453.91749647038108
 30
0.0
 11
1035.663771485453
 21
519.07677347038089
 31
0.0
  0
LINE
  5
317C
  8
AM_0
 10
804.0786274854546
 20
453.91746647038121
 30
0.0
 11
807.49348248545425
 21
519.07677347038089
 31
0.0
  0
LINE
  5
317D
  8
AM_0
 10
887.47467048545457
 20
463.67829347038111
 30
0.0
 11
858.24435348545421
 21
492.90861347038111
 31
0.0
  0
CIRCLE
  5
317E
  8
AM_0
 10
921.57861648545429
 20
423.9174664703811
 30
0.0
 40
105.00000299999979
  0
CIRCLE
  5
317F
  8
AM_0
 10
921.57861648545429
 20
423.9174664703811
 30
0.0
 40
99.000003000000021
  0
ARC
  5
3180
  8
AM_0
 10
921.57861648545429
 20
395.91749447038109
 30
0.0
 40
99.500004000000004
 50
29.730243000000002
 51
54.136312000000359
  0
ARC
  5
3181
  8
AM_0
 10
921.57861648545429
 20
423.9174664703811
 30
0.0
 40
48.0
 50
54.776849999997779
 51
125.2231400000008
  0
ARC
  5
3182
  8
AM_0
 10
921.57861648545429
 20
395.91749447038109
 30
0.0
 40
99.500004000000004
 50
125.863690000004
 51
150.26975999999769
  0
LINE
  5
3183
  8
AM_0
 10
951.5786164854544
 20
306.41747747038107
 30
0.0
 11
1016.737905485453
 21
309.83233547038111
 31
0.0
  0
LINE
  5
3184
  8
ﾁｭｳｼﾝｾﾝ
 10
798.91093848545415
 20
423.9174664703811
 30
0.0
 11
1043.3883604854529
 21
423.9174664703811
 31
0.0
  0
LINE
  5
3185
  8
AM_0
 10
974.57862648545461
 20
380.91749447038092
 30
0.0
 11
1007.555364485454
 21
380.91749447038092
 31
0.0
  0
LINE
  5
3186
  8
AM_0
 10
609.39949031808317
 20
306.41747747038107
 30
0.0
 11
609.39949031808317
 21
423.9174664703811
 31
0.0
  0
LINE
  5
3187
  8
AM_0
 10
594.39949031808328
 20
309.0002584703812
 30
0.0
 11
594.39949031808328
 21
359.22820847038111
 31
0.0
  0
LINE
  5
3188
  8
AM_0
 10
597.50419031808315
 20
306.00208847038112
 30
0.0
 11
609.39952031808286
 21
306.41747747038107
 31
0.0
  0
ARC
  5
3189
  8
AM_0
 10
597.39949031808317
 20
309.0002584703812
 30
0.0
 40
3.0
 50
179.9999899999988
 51
271.99999000000139
  0
LINE
  5
318A
  8
AM_0
 10
609.39949031808317
 20
318.91747847038118
 30
0.0
 11
613.39951031808323
 21
318.91747847038118
 31
0.0
  0
LINE
  5
318B
  8
AM_0
 10
601.39951031808323
 20
332.54949647038109
 30
0.0
 11
601.39951031808323
 21
423.9174664703811
 31
0.0
  0
ARC
  5
318C
  8
AM_0
 10
597.39949031808317
 20
359.22820847038111
 30
0.0
 40
3.0
 50
90.00000299999769
 51
180.00001000000091
  0
ARC
  5
318D
  8
AM_0
 10
598.39951031808323
 20
332.54949647038109
 30
0.0
 40
3.0
 50
271.99999999999687
 51
0.0
  0
LINE
  5
318E
  8
AM_0
 10
596.68405031808277
 20
329.48777747038122
 30
0.0
 11
598.50421031808298
 21
329.5513444703812
 31
0.0
  0
LINE
  5
318F
  8
AM_0
 10
597.39949031808317
 20
362.22820847038111
 30
0.0
 11
601.39951031808323
 21
362.22820847038111
 31
0.0
  0
ARC
  5
3190
  8
AM_0
 10
597.39949031808317
 20
395.15322947038101
 30
0.0
 40
3.0
 50
179.9999899999988
 51
270.0
  0
LINE
  5
3191
  8
AM_0
 10
597.39949031808317
 20
392.15322947038118
 30
0.0
 11
601.39951031808323
 21
392.15322947038118
 31
0.0
  0
LINE
  5
3192
  8
AM_0
 10
671.39950031808291
 20
439.9174654703811
 30
0.0
 11
613.39951031808323
 21
439.9174654703811
 31
0.0
  0
LINE
  5
3193
  8
AM_0
 10
671.39950031808291
 20
407.91749747038108
 30
0.0
 11
613.39951031808323
 21
407.91749747038108
 31
0.0
  0
LINE
  5
3194
  8
AM_0
 10
671.39950031808291
 20
442.91746547038099
 30
0.0
 11
626.39947031808322
 21
442.91746547038099
 31
0.0
  0
LINE
  5
3195
  8
AM_0
 10
626.39947031808322
 20
439.9174654703811
 30
0.0
 11
626.39947031808322
 21
442.91746547038099
 31
0.0
  0
LINE
  5
3196
  8
AM_0
 10
671.39950031808291
 20
407.91749747038108
 30
0.0
 11
671.39950031808291
 21
442.91746547038099
 31
0.0
  0
CIRCLE
  5
3197
  8
AM_0
 10
826.11918648545452
 20
328.45806647038103
 30
0.0
 40
7.5000002999999982
  0
ARC
  5
3198
  8
AM_0
 10
827.46607848545443
 20
329.80492847038118
 30
0.0
 40
20.000000700000001
 50
183.00000999999961
 51
267.0000000000008
  0
ARC
  5
3199
  8
AM_0
 10
921.57861648545429
 20
367.91748047038118
 30
0.0
 40
80.0
 50
228.9359903943211
 51
311.0640097249356
  0
ARC
  5
319A
  8
AM_0
 10
921.57861648545429
 20
395.91749447038109
 30
0.0
 40
99.500004000000004
 50
242.88566000000239
 51
297.11435000000108
  0
LINE
  5
319B
  8
AM_0
 10
891.57861348545396
 20
306.41747747038107
 30
0.0
 11
826.41932748545446
 21
309.83233547038111
 31
0.0
  0
LINE
  5
319C
  8
AM_0
 10
921.57861648545429
 20
306.41747747038107
 30
0.0
 11
951.5786164854544
 21
306.41747747038107
 31
0.0
  0
LINE
  5
319D
  8
AM_0
 10
921.57861648545429
 20
306.41747747038107
 30
0.0
 11
891.57861348545396
 21
306.41747747038107
 31
0.0
  0
ARC
  5
319E
  8
AM_0
 10
921.57861648545429
 20
423.9174664703811
 30
0.0
 40
48.0
 50
144.77684000000161
 51
180.00001000000091
  0
ARC
  5
319F
  8
AM_0
 10
921.57861648545429
 20
395.91749447038109
 30
0.0
 40
93.500003999999976
 50
162.1467900000001
 51
183.00788
  0
LINE
  5
31A0
  8
AM_0
 10
804.0786274854546
 20
423.9174664703811
 30
0.0
 11
804.0786274854546
 21
393.91748147038101
 31
0.0
  0
LINE
  5
31A1
  8
AM_0
 10
873.57861348545384
 20
423.9174664703811
 30
0.0
 11
873.57861348545384
 21
385.91748047038118
 31
0.0
  0
LINE
  5
31A2
  8
AM_0
 10
804.0786274854546
 20
393.91748147038101
 30
0.0
 11
807.49345248545421
 21
328.75820747038119
 31
0.0
  0
LINE
  5
31A3
  8
AM_0
 10
868.57863048545414
 20
380.91749447038092
 30
0.0
 11
835.60188348545455
 21
380.91749447038092
 31
0.0
  0
ARC
  5
31A4
  8
AM_0
 10
835.60188348545455
 20
385.91748047038118
 30
0.0
 40
5.0000001000000003
 50
203.84446999999949
 51
270.0
  0
ARC
  5
31A5
  8
AM_0
 10
868.57863048545414
 20
385.91748047038118
 30
0.0
 40
5.0000001000000003
 50
270.0
 51
0.0
  0
LINE
  5
31A6
  8
AM_0
 10
804.0786274854546
 20
423.9174664703811
 30
0.0
 11
804.0786274854546
 21
453.91746647038121
 31
0.0
  0
ARC
  5
31A7
  8
AM_0
 10
921.57861648545429
 20
423.9174664703811
 30
0.0
 40
89.000003999999961
 50
166.12423000000109
 51
179.5717700000001
  0
CIRCLE
  5
31A8
  8
AM_0
 10
921.57861648545429
 20
423.9174664703811
 30
0.0
 40
29.000001000000001
  0
LINE
  5
31A9
  8
AM_0
 10
969.5786164854544
 20
423.9174664703811
 30
0.0
 11
969.5786164854544
 21
385.91748047038118
 31
0.0
  0
LINE
  5
31AA
  8
ﾁｭｳｼﾝｾﾝ
 10
862.03384931255994
 20
367.91748047038118
 30
0.0
 11
981.12338365834864
 21
367.91748047038118
 31
0.0
  0
ARC
  5
31AB
  8
AM_0
 10
974.57862648545461
 20
385.91748047038118
 30
0.0
 40
5.0000001000000003
 50
179.9999899999988
 51
270.0
  0
ARC
  5
31AC
  8
AM_0
 10
921.57861648545429
 20
423.9174664703811
 30
0.0
 40
16.000000499999999
 50
108.2099599999986
 51
71.790051999998809
  0
ARC
  5
31AD
  8
AM_0
 10
921.57861648545429
 20
423.9174664703811
 30
0.0
 40
16.000000499999999
 50
108.2099599999986
 51
71.790051999998809
  0
CIRCLE
  5
31AE
  8
AM_5
 10
921.57861648545429
 20
423.9174664703811
 30
0.0
 40
4.000000199999997
  0
CIRCLE
  5
31AF
  8
AM_0
 10
921.57861648545429
 20
423.9174664703811
 30
0.0
 40
2.75000007
  0
CIRCLE
  5
31B0
  8
AM_0
 10
921.57861648545429
 20
423.9174664703811
 30
0.0
 40
2.75000007
  0
CIRCLE
  5
31B1
  8
AM_0
 10
921.57861648545429
 20
423.9174664703811
 30
0.0
 40
2.75000007
  0
ARC
  5
31B2
  8
AM_0
 10
891.0102094854542
 20
467.2138234703811
 30
0.0
 40
5.0000001000000003
 50
225.0
 51
305.22315000000219
  0
ARC
  5
31B3
  8
AM_0
 10
878.28227448545431
 20
454.48588847038121
 30
0.0
 40
5.0000001000000003
 50
324.77685000000031
 51
45.00000100000149
  0
LINE
  5
31B4
  8
AM_0
 10
916.57861548545441
 20
434.91749747038079
 30
0.0
 11
926.57863248545425
 21
434.91749747038079
 31
0.0
  0
LINE
  5
31B5
  8
AM_0
 10
916.57861548545441
 20
442.91746547038088
 30
0.0
 11
926.57863248545425
 21
442.91746547038088
 31
0.0
  0
LINE
  5
31B6
  8
AM_0
 10
916.57861548545441
 20
434.91749747038079
 30
0.0
 11
916.57861548545441
 21
442.91746547038088
 31
0.0
  0
LINE
  5
31B7
  8
AM_0
 10
926.57863248545425
 20
434.91749747038079
 30
0.0
 11
926.57863248545425
 21
442.91746547038088
 31
0.0
  0
ARC
  5
31B8
  8
AM_0
 10
921.57861648545429
 20
423.9174664703811
 30
0.0
 40
48.0
 50
0.0
 51
35.223151999999843
  0
ARC
  5
31B9
  8
AM_0
 10
952.14703848545412
 20
467.2138234703811
 30
0.0
 40
5.0000001000000003
 50
234.776859999999
 51
315.0
  0
ARC
  5
31BA
  8
AM_0
 10
964.87495848545416
 20
454.48588847038121
 30
0.0
 40
5.0000001000000003
 50
135.0
 51
215.22314999999929
  0
ARC
  5
31BB
  8
AM_0
 10
1015.691181485454
 20
329.80492847038118
 30
0.0
 40
20.000000700000001
 50
272.99999999999909
 51
357.00000000000108
  0
CIRCLE
  5
31BC
  8
AM_0
 10
1017.0380464854539
 20
328.45806647038103
 30
0.0
 40
7.5000002999999982
  0
LINE
  5
31BD
  8
AM_0
 10
1039.078623485454
 20
423.9174664703811
 30
0.0
 11
1039.078623485454
 21
393.91748147038101
 31
0.0
  0
ARC
  5
31BE
  8
AM_0
 10
921.57861648545429
 20
395.91749447038109
 30
0.0
 40
93.500003999999976
 50
356.99211999999977
 51
17.85321299999984
  0
LINE
  5
31BF
  8
AM_0
 10
1039.078626485453
 20
393.91748147038101
 30
0.0
 11
1035.663771485453
 21
328.75820747038119
 31
0.0
  0
ARC
  5
31C0
  8
AM_0
 10
1007.555364485454
 20
385.91748047038118
 30
0.0
 40
5.0000001000000003
 50
270.0
 51
336.15553000000051
  0
ARC
  5
31C1
  8
AM_0
 10
921.57861648545429
 20
423.9174664703811
 30
0.0
 40
89.000003999999961
 50
0.4282278599984297
 51
13.87576399999806
  0
LINE
  5
31C2
  8
AM_0
 10
1039.078623485454
 20
423.9174664703811
 30
0.0
 11
1039.078623485454
 21
453.91746647038121
 31
0.0
  0
LINE
  5
31C3
  8
AM_0
 10
951.5786164854544
 20
541.41747347038086
 30
0.0
 11
1016.737896485453
 21
538.00263347038117
 31
0.0
  0
ARC
  5
31C4
  8
AM_0
 10
994.10526648545431
 20
483.71619347038109
 30
0.0
 40
5.0000001000000003
 50
39.505817999999088
 51
135.0
  0
ARC
  5
31C5
  8
AM_0
 10
597.39949031808317
 20
537.99660347038105
 30
0.0
 40
3.0
 50
91.999998000000545
 51
180.00001000000091
  0
LINE
  5
31C6
  8
AM_0
 10
594.39949031808328
 20
482.82822347038098
 30
0.0
 11
594.39949031808328
 21
537.99660347038105
 31
0.0
  0
ARC
  5
31C7
  8
AM_0
 10
597.39949031808317
 20
482.82822347038098
 30
0.0
 40
3.0
 50
179.9999899999988
 51
270.0
  0
LINE
  5
31C8
  8
AM_0
 10
597.39949031808317
 20
479.82822347038109
 30
0.0
 11
601.39951031808323
 21
479.82822347038109
 31
0.0
  0
ARC
  5
31C9
  8
AM_0
 10
598.39951031808323
 20
514.51719347038124
 30
0.0
 40
3.0
 50
0.0
 51
91.999998000000545
  0
LINE
  5
31CA
  8
AM_0
 10
598.11493031808322
 20
517.50912347038116
 30
0.0
 11
598.29484031808295
 21
517.51536347038109
 31
0.0
  0
LINE
  5
31CB
  8
AM_0
 10
609.39949031808317
 20
528.91749347038126
 30
0.0
 11
613.39951031808323
 21
528.91749347038126
 31
0.0
  0
LINE
  5
31CC
  8
AM_0
 10
597.29479031808296
 20
540.99477347038112
 30
0.0
 11
609.39952031808286
 21
541.41747347038086
 31
0.0
  0
LINE
  5
31CD
  8
AM_0
 10
891.57863148545425
 20
541.41747347038086
 30
0.0
 11
826.41935748545427
 21
538.00260347038125
 31
0.0
  0
ARC
  5
31CE
  8
AM_0
 10
921.57861648545395
 20
395.91749447038109
 30
0.0
 40
99.500004000000004
 50
93.355817999997413
 51
121.1614999999983
  0
ARC
  5
31CF
  8
AM_0
 10
827.46607848545443
 20
518.03004347038075
 30
0.0
 40
20.000000700000001
 50
92.999999000001679
 51
176.99999000000011
  0
CIRCLE
  5
31D0
  8
AM_0
 10
826.11918648545452
 20
519.37692347038114
 30
0.0
 40
7.5000002999999982
  0
ARC
  5
31D1
  8
AM_0
 10
849.05198748545445
 20
483.71619347038109
 30
0.0
 40
5.0000001000000003
 50
45.00000100000149
 51
140.49417999999881
  0
ARC
  5
31D2
  8
AM_0
 10
861.77989248545475
 20
496.44414347038111
 30
0.0
 40
5.0000001000000003
 50
129.50581999999901
 51
225.0
  0
ARC
  5
31D3
  8
AM_0
 10
921.57861648545429
 20
395.91749447038109
 30
0.0
 40
99.500004000000004
 50
58.838493999997567
 51
86.644180000003075
  0
LINE
  5
31D4
  8
AM_0
 10
924.5786164854544
 20
504.43221347038087
 30
0.0
 11
924.5786164854544
 21
498.24171347038111
 31
0.0
  0
LINE
  5
31D5
  8
AM_0
 10
918.5786164854544
 20
504.43221347038087
 30
0.0
 11
918.5786164854544
 21
498.24171347038111
 31
0.0
  0
ARC
  5
31D6
  8
AM_0
 10
915.57861648545452
 20
498.24171347038111
 30
0.0
 40
3.0
 50
273.35581999999681
 51
0.0
  0
ARC
  5
31D7
  8
AM_0
 10
927.5786164854544
 20
498.24171347038111
 30
0.0
 40
3.0
 50
179.9999899999988
 51
266.64419000000049
  0
ARC
  5
31D8
  8
AM_0
 10
915.57861648545452
 20
504.43221347038087
 30
0.0
 40
3.0
 50
0.0
 51
90.00000299999769
  0
ARC
  5
31D9
  8
AM_0
 10
927.5786164854544
 20
504.43221347038087
 30
0.0
 40
3.0
 50
90.00000299999769
 51
180.00001000000091
  0
ARC
  5
31DA
  8
AM_0
 10
981.37733748545452
 20
496.44414347038111
 30
0.0
 40
5.0000001000000003
 50
315.0
 51
50.49418200000094
  0
LINE
  5
31DB
  8
AM_0
 10
921.57861648545429
 20
541.41750347038112
 30
0.0
 11
951.5786164854544
 21
541.41750347038112
 31
0.0
  0
LINE
  5
31DC
  8
AM_0
 10
921.57861648545429
 20
541.41750347038112
 30
0.0
 11
891.57861348545396
 21
541.41750347038112
 31
0.0
  0
ARC
  5
31DD
  8
AM_0
 10
1015.691181485454
 20
518.03004347038075
 30
0.0
 40
20.000000700000001
 50
3.0000000999988461
 51
86.99999899999699
  0
LINE
  5
31DE
  8
ﾁｭｳｼﾝｾﾝ1
 10
1007.800570976929
 20
510.1394324238729
 30
0.0
 11
1026.2821158277011
 21
528.62100343822556
 31
0.0
  0
ARC
  5
31DF
  8
ﾁｭｳｼﾝｾﾝ1
 10
921.57861648545077
 20
423.91746647037712
 30
0.0
 40
135.00000300000531
 50
38.368393000000417
 51
51.677138835350902
  0
CIRCLE
  5
31E0
  8
AM_0
 10
1017.0380464854539
 20
519.37692347038114
 30
0.0
 40
7.5000002999999982
  0
LINE
  5
31E2
  8
0
 10
344.89941031808303
 20
812.28558023060873
 30
0.0
 11
344.89941031808303
 21
656.28558023060873
 31
0.0
1001
GENIUS_GENOREF_13
1005
2F26
  0
LINE
  5
31E3
  8
0
 10
334.89941031808308
 20
654.28558023060918
 30
0.0
 11
334.89941031808308
 21
814.28558023060918
 31
0.0
1001
GENIUS_GENOREF_13
1005
2F26
  0
LINE
  5
31E4
  8
0
 10
346.8296113246779
 20
677.11964817570652
 30
0.0
 11
365.89941031808303
 21
677.7855802306093
 31
0.0
  0
LINE
  5
31E5
  8
0
 10
334.89941031808308
 20
654.28558023060918
 30
0.0
 11
342.89941031808308
 21
654.28558023060918
 31
0.0
  0
ARC
  5
31E6
  8
0
 10
342.89941031808308
 20
656.28558023060873
 30
0.0
 40
2.0
 50
270.0
 51
0.0
1001
GENIUS_GENOBJ-N-FIL_13
1002
{
1000
OWNER
1000
GEN
1002
}
1001
GENIUS_GENODEF_13
1002
{
1000
HIER
1070
     0
1002
}
1002
{
1000
MANEDIT
1070
     0
1002
}
1002
{
1000
NOSEL
1070
     0
1002
}
1002
{
1000
BEHIND
1070
     0
1002
}
1002
{
1000
OTHER
1070
     0
1002
}
1002
{
1000
REACTOR
1002
}
  0
ARC
  5
31E7
  8
0
 10
346.89941031808303
 20
675.12086652166795
 30
0.0
 40
2.0
 50
92.000000000003567
 51
180.0
1001
GENIUS_GENOBJ-N-FIL_13
1002
{
1000
OWNER
1000
GEN
1002
}
1001
GENIUS_GENODEF_13
1002
{
1000
HIER
1070
     0
1002
}
1002
{
1000
MANEDIT
1070
     0
1002
}
1002
{
1000
NOSEL
1070
     0
1002
}
1002
{
1000
BEHIND
1070
     0
1002
}
1002
{
1000
OTHER
1070
     0
1002
}
1002
{
1000
REACTOR
1002
}
  0
LINE
  5
31E8
  8
AM_0
 10
365.89941031808303
 20
702.34813823060915
 30
0.0
 11
344.89941031808303
 21
702.34813823060915
 31
0.0
  0
LINE
  5
31E9
  8
AM_0
 10
365.89941031808303
 20
688.28556323060923
 30
0.0
 11
344.89941031808303
 21
688.28556323060923
 31
0.0
  0
ARC
  5
31EA
  8
0
 10
346.89941031808303
 20
793.45029393955008
 30
0.0
 40
2.0
 50
180.0
 51
267.99999999999631
1001
GENIUS_GENOBJ-N-FIL_13
1002
{
1000
OWNER
1000
GEN
1002
}
1001
GENIUS_GENODEF_13
1002
{
1000
HIER
1070
     0
1002
}
1002
{
1000
MANEDIT
1070
     0
1002
}
1002
{
1000
NOSEL
1070
     0
1002
}
1002
{
1000
BEHIND
1070
     0
1002
}
1002
{
1000
OTHER
1070
     0
1002
}
1002
{
1000
REACTOR
1002
}
  0
LINE
  5
31EB
  8
0
 10
346.8296113246779
 20
791.45151228551185
 30
0.0
 11
365.89941031808303
 21
790.7855802306093
 31
0.0
  0
LINE
  5
31EC
  8
AM_0
 10
365.89941031808303
 20
780.28557923060919
 30
0.0
 11
344.89941031808303
 21
780.28557923060919
 31
0.0
  0
LINE
  5
31ED
  8
AM_0
 10
365.89941031808303
 20
766.22301923060934
 30
0.0
 11
344.89941031808303
 21
766.22301923060934
 31
0.0
  0
LINE
  5
31EE
  8
0
 10
334.89941031808308
 20
814.28558023060918
 30
0.0
 11
342.89941031808308
 21
814.28558023060918
 31
0.0
  0
ARC
  5
31EF
  8
0
 10
342.89941031808308
 20
812.28558023060873
 30
0.0
 40
2.0
 50
0.0
 51
90.0
1001
GENIUS_GENOBJ-N-FIL_13
1002
{
1000
OWNER
1000
GEN
1002
}
1001
GENIUS_GENODEF_13
1002
{
1000
HIER
1070
     0
1002
}
1002
{
1000
MANEDIT
1070
     0
1002
}
1002
{
1000
NOSEL
1070
     0
1002
}
1002
{
1000
BEHIND
1070
     0
1002
}
1002
{
1000
OTHER
1070
     0
1002
}
1002
{
1000
REACTOR
1002
}
  0
ARC
  5
31F1
  8
ﾁｭｳｼﾝｾﾝ1
 10
921.57861648545793
 20
423.91746647037712
 30
0.0
 40
135.00000300000531
 50
128.32286116464911
 51
141.63160699999941
  0
LINE
  5
31F2
  8
ﾁｭｳｼﾝｾﾝ1
 10
835.3566619939794
 20
510.1394324238729
 30
0.0
 11
816.87511714320681
 21
528.62100343822556
 31
0.0
  0
ARC
  5
31F3
  8
ﾁｭｳｼﾝｾﾝ1
 10
921.57861648545077
 20
423.91746647038519
 30
0.0
 40
135.00000300000531
 50
308.32286116464911
 51
321.63160699999958
  0
LINE
  5
31F4
  8
ﾁｭｳｼﾝｾﾝ1
 10
1007.800570976929
 20
337.6955005168893
 30
0.0
 11
1026.2821158277011
 21
319.21392950253647
 31
0.0
  0
LINE
  5
31F5
  8
ﾁｭｳｼﾝｾﾝ1
 10
835.3566619939794
 20
337.6955005168893
 30
0.0
 11
816.87511714320738
 21
319.21392950253647
 31
0.0
  0
ARC
  5
31F6
  8
ﾁｭｳｼﾝｾﾝ1
 10
921.57861648545793
 20
423.91746647038519
 30
0.0
 40
135.00000300000531
 50
218.3683930000004
 51
231.67713883535089
  0
TEXT
  5
33E4
  8
AM_0
 10
774.52988469542834
 20
768.29452769390514
 30
0.0
 40
15.0
  1
VX02-240AF~VX02-600AF
  0
ENDSEC
  0
EOF
