  0
SECTION
  2
HEADER
  9
$ACADVER
  1
AC1009
  9
$INSBASE
 10
0.0
 20
0.0
 30
0.0
  9
$EXTMIN
 10
278.87390500385533
 20
249.59835637258649
 30
-0.0000000000112498
  9
$EXTMAX
 10
1124.850733861502
 20
958.33893607784307
 30
0.0000000000002956
  9
$LIMMIN
 10
0.0
 20
0.0
  9
$LIMMAX
 10
1422.5
 20
925.0
  9
$ORTHOMODE
 70
     0
  9
$REGENMODE
 70
     1
  9
$FILLMODE
 70
     1
  9
$QTEXTMODE
 70
     0
  9
$MIRRTEXT
 70
     1
  9
$DRAGMODE
 70
     2
  9
$LTSCALE
 40
5.0
  9
$OSMODE
 70
   551
  9
$ATTMODE
 70
     1
  9
$TEXTSIZE
 40
2.5
  9
$TRACEWID
 40
1.0
  9
$TEXTSTYLE
  7
STANDARD
  9
$CLAYER
  8
AM_0
  9
$CELTYPE
  6
BYLAYER
  9
$CECOLOR
 62
   256
  9
$DIMSCALE
 40
5.0
  9
$DIMASZ
 40
2.5
  9
$DIMEXO
 40
1.0
  9
$DIMDLI
 40
8.0
  9
$DIMRND
 40
0.0
  9
$DIMDLE
 40
0.0
  9
$DIMEXE
 40
0.6
  9
$DIMTP
 40
0.1
  9
$DIMTM
 40
0.1
  9
$DIMTXT
 40
2.5
  9
$DIMCEN
 40
0.0
  9
$DIMTSZ
 40
0.0
  9
$DIMTOL
 70
     0
  9
$DIMLIM
 70
     0
  9
$DIMTIH
 70
     0
  9
$DIMTOH
 70
     0
  9
$DIMSE1
 70
     0
  9
$DIMSE2
 70
     0
  9
$DIMTAD
 70
     1
  9
$DIMZIN
 70
     8
  9
$DIMBLK
  1

  9
$DIMASO
 70
     1
  9
$DIMSHO
 70
     1
  9
$DIMPOST
  1

  9
$DIMAPOST
  1
"
  9
$DIMALT
 70
     0
  9
$DIMALTD
 70
     2
  9
$DIMALTF
 40
0.0393701
  9
$DIMLFAC
 40
1.0
  9
$DIMTOFL
 70
     1
  9
$DIMTVP
 40
0.0
  9
$DIMTIX
 70
     0
  9
$DIMSOXD
 70
     0
  9
$DIMSAH
 70
     0
  9
$DIMBLK1
  1

  9
$DIMBLK2
  1

  9
$DIMSTYLE
  2
AM_ISO
  9
$DIMCLRD
 70
   256
  9
$DIMCLRE
 70
   256
  9
$DIMCLRT
 70
     4
  9
$DIMTFAC
 40
0.71
  9
$DIMGAP
 40
0.8
  9
$LUNITS
 70
     2
  9
$LUPREC
 70
     2
  9
$SKETCHINC
 40
1.0
  9
$FILLETRAD
 40
25.0
  9
$AUNITS
 70
     0
  9
$AUPREC
 70
     0
  9
$MENU
  1
.
  9
$ELEVATION
 40
0.0
  9
$PELEVATION
 40
0.0
  9
$THICKNESS
 40
0.0
  9
$LIMCHECK
 70
     0
  9
$BLIPMODE
 70
     0
  9
$CHAMFERA
 40
10.0
  9
$CHAMFERB
 40
5.0
  9
$SKPOLY
 70
     0
  9
$TDCREATE
 40
2452065.7754935189
  9
$TDUPDATE
 40
2458541.5373767591
  9
$TDINDWG
 40
0.1630732176
  9
$TDUSRTIMER
 40
0.1630731944
  9
$USRTIMER
 70
     1
  9
$ANGBASE
 50
0.0
  9
$ANGDIR
 70
     0
  9
$PDMODE
 70
     0
  9
$PDSIZE
 40
0.0
  9
$PLINEWID
 40
0.0
  9
$COORDS
 70
     1
  9
$SPLFRAME
 70
     0
  9
$SPLINETYPE
 70
     6
  9
$SPLINESEGS
 70
     8
  9
$ATTDIA
 70
     1
  9
$ATTREQ
 70
     1
  9
$HANDLING
 70
     1
  9
$HANDSEED
  5
3614
  9
$SURFTAB1
 70
     6
  9
$SURFTAB2
 70
     6
  9
$SURFTYPE
 70
     6
  9
$SURFU
 70
     6
  9
$SURFV
 70
     6
  9
$UCSNAME
  2

  9
$UCSORG
 10
0.0
 20
0.0
 30
0.0
  9
$UCSXDIR
 10
1.0
 20
0.0
 30
0.0
  9
$UCSYDIR
 10
0.0
 20
1.0
 30
0.0
  9
$PUCSNAME
  2

  9
$PUCSORG
 10
0.0
 20
0.0
 30
0.0
  9
$PUCSXDIR
 10
1.0
 20
0.0
 30
0.0
  9
$PUCSYDIR
 10
0.0
 20
1.0
 30
0.0
  9
$USERI1
 70
     0
  9
$USERI2
 70
     0
  9
$USERI3
 70
     0
  9
$USERI4
 70
     0
  9
$USERI5
 70
     0
  9
$USERR1
 40
0.0
  9
$USERR2
 40
0.0
  9
$USERR3
 40
0.0
  9
$USERR4
 40
0.0
  9
$USERR5
 40
0.0
  9
$WORLDVIEW
 70
     1
  9
$SHADEDGE
 70
     3
  9
$SHADEDIF
 70
    70
  9
$TILEMODE
 70
     1
  9
$MAXACTVP
 70
    64
  9
$PLIMCHECK
 70
     0
  9
$PEXTMIN
 10
1.0000000000000000E+020
 20
1.0000000000000000E+020
 30
1.0000000000000000E+020
  9
$PEXTMAX
 10
-1.0000000000000000E+020
 20
-1.0000000000000000E+020
 30
-1.0000000000000000E+020
  9
$PLIMMIN
 10
0.0
 20
0.0
  9
$PLIMMAX
 10
420.0
 20
297.0
  9
$UNITMODE
 70
     0
  9
$VISRETAIN
 70
     1
  9
$PLINEGEN
 70
     0
  9
$PSLTSCALE
 70
     1
  0
ENDSEC
  0
SECTION
  2
TABLES
  0
TABLE
  2
VPORT
 70
     1
  0
VPORT
  2
*ACTIVE
 70
     0
 10
0.0
 20
0.0
 11
1.0
 21
1.0
 12
701.86231943267899
 22
603.9686462252148
 13
0.0
 23
0.0
 14
12.5
 24
12.5
 15
50.0
 25
50.0
 16
0.0
 26
0.0
 36
1.0
 17
0.0
 27
0.0
 37
0.0
 40
713.60607567577313
 41
1.757159221076747
 42
50.0
 43
0.0
 44
0.0
 50
0.0
 51
0.0
 71
     0
 72
   100
 73
     1
 74
     3
 75
     0
 76
     0
 77
     0
 78
     0
  0
ENDTAB
  0
TABLE
  2
LTYPE
 70
    26
  0
LTYPE
  2
CONTINUOUS
 70
     0
  3
Solid line
 72
    65
 73
     0
 40
0.0
  0
LTYPE
  2
AM_ISO02W050
 70
     0
  3
__ __ __ __ __ __ __ __ __ __ __ __ __ __ __
 72
    65
 73
     2
 40
7.5
 49
6.0
 49
-1.5
  0
LTYPE
  2
AM_ISO08W050
 70
     0
  3
____ . ____ . ____ . ____ . ____ . ____ . ____
 72
    65
 73
     4
 40
18.0
 49
12.0
 49
-1.5
 49
3.0
 49
-1.5
  0
LTYPE
  2
AM_ISO09W050
 70
     0
  3
_____ . . _____ . . _____ . . ____ .. ____
 72
    65
 73
     6
 40
22.5
 49
12.0
 49
-1.5
 49
3.0
 49
-1.5
 49
3.0
 49
-1.5
  0
LTYPE
  2
AMCONSTR
 70
     0
  3
_______________________
 72
    65
 73
     2
 40
9999.0
 49
9999.0
 49
0.0
  0
LTYPE
  2
AM_ISO08W050X2
 70
     0
  3
__ . __ . __ . __ . __ . __
 72
    65
 73
     4
 40
9.0
 49
6.0
 49
-0.75
 49
1.5
 49
-0.75
  0
LTYPE
  2
AM_ISO02W050X2
 70
     0
  3
 _ _ _ _ _ _ _ _ _ _ _ _
 72
    65
 73
     2
 40
3.75
 49
3.0
 49
-0.75
  0
LTYPE
  2
AMZIGZAG
 70
     0
  3
/\/-/\/-/\/-/\/-/\/-/\/
 72
    65
 73
     2
 40
11.000099999999991
 49
0.0001
 49
-11.0
  0
LTYPE
  2
ACISOWELD
 70
     0
  3
_ _ _ _ _
 72
    65
 73
     2
 40
2.0
 49
2.0
 49
-1.0
  0
LTYPE
  2
ACISOTGB
 70
     0
  3
__ . . __ . .
 72
    65
 73
     6
 40
9.0
 49
4.0
 49
-1.0
 49
1.0
 49
-1.0
 49
1.0
 49
-1.0
  0
LTYPE
  2
ACISOTGL
 70
     0
  3
_ _ _ _ _
 72
    65
 73
     2
 40
3.0
 49
2.0
 49
-1.0
  0
LTYPE
  2
CENTER
 70
     0
  3
__ . __
 72
    65
 73
     4
 40
7.0
 49
4.0
 49
-1.0
 49
1.0
 49
-1.0
  0
LTYPE
  2
PHANTOM2
 70
     0
  3
Phantom (.5x) ___ _ _ ___ _ _ ___ _ _ ___ _ _
 72
    65
 73
     6
 40
31.75
 49
15.875
 49
-3.174999999999998
 49
3.174999999999998
 49
-3.174999999999998
 49
3.174999999999998
 49
-3.174999999999998
  0
LTYPE
  2
ACANSTGBM
 70
     0
  3
__ . . __ . .
 72
    65
 73
     6
 40
9.0
 49
4.0
 49
-1.0
 49
1.0
 49
-1.0
 49
1.0
 49
-1.0
  0
LTYPE
  2
ACANSTGLM
 70
     0
  3
_ _ _ _ _
 72
    65
 73
     2
 40
3.0
 49
2.0
 49
-1.0
  0
LTYPE
  2
GEN7
 70
     0
  3
____ . ____ . ____ . ____ . ____ . ____ . ____
 72
    65
 73
     4
 40
14.25
 49
9.75
 49
-1.5
 49
1.5
 49
-1.5
  0
LTYPE
  2
GEN7A
 70
     0
  3
__ . __ . __
 72
    65
 73
     4
 40
7.375
 49
4.75
 49
-0.875
 49
0.875
 49
-0.875
  0
LTYPE
  2
ACJISTGB
 70
     0
  3
__ . . __ . .
 72
    65
 73
     6
 40
9.0
 49
4.0
 49
-1.0
 49
1.0
 49
-1.0
 49
1.0
 49
-1.0
  0
LTYPE
  2
ACJISTGL
 70
     0
  3
_ _ _ _ _
 72
    65
 73
     2
 40
3.0
 49
2.0
 49
-1.0
  0
LTYPE
  2
HIDDEN
 70
     0
  3
Hidden __ __ __ __ __ __ __ __ __ __ __ __ __ _
 72
    65
 73
     2
 40
0.375
 49
0.25
 49
-0.125
  0
LTYPE
  2
CENTER2
 70
     0
  3
Center (.5x) ___ _ ___ _ ___ _ ___ _ ___ _ ___
 72
    65
 73
     4
 40
1.125
 49
0.75
 49
-0.125
 49
0.125
 49
-0.125
  0
LTYPE
  2
HIDDEN2
 70
     0
  3
Hidden (.5x) _ _ _ _ _ _ _ _ _ _ _ _ _ _ _ _ _
 72
    65
 73
     2
 40
0.1875
 49
0.125
 49
-0.0625
  0
LTYPE
  2
AMZIGZAG2
 70
     0
  3
/\/-/\/-/\/-/\/-/\/-/\/
 72
    65
 73
     2
 40
0.4401
 49
0.0001
 49
-0.4400000000000002
  0
LTYPE
  2
ACANSTGB
 70
     0
  3
__ . . __ . .
 72
    65
 73
     6
 40
0.35433070866
 49
0.15748031496
 49
-0.03937007874
 49
0.03937007874
 49
-0.03937007874
 49
0.03937007874
 49
-0.03937007874
  0
LTYPE
  2
ACANSTGL
 70
     0
  3
_ _ _ _ _
 72
    65
 73
     2
 40
0.11811023622
 49
0.07874015748
 49
-0.03937007874
  0
ENDTAB
  0
TABLE
  2
LAYER
 70
     6
  0
LAYER
  2
0
 70
     0
 62
     7
  6
CONTINUOUS
  0
LAYER
  2
AM_0
 70
     0
 62
     7
  6
CONTINUOUS
  0
LAYER
  2
AM_5
 70
     0
 62
     2
  6
CONTINUOUS
  0
LAYER
  2
DEFPOINTS
 70
     0
 62
     7
  6
CONTINUOUS
  0
LAYER
  2
ﾁｭｳｼﾝｾﾝ
 70
     0
 62
     1
  6
GEN7
  0
LAYER
  2
ﾁｭｳｼﾝｾﾝ1
 70
     0
 62
     1
  6
GEN7A
  0
ENDTAB
  0
TABLE
  2
STYLE
 70
     9
  0
STYLE
  2
STANDARD
 70
     0
 40
0.0
 41
0.8299999999999999
 50
0.0
 71
     0
 42
2.5
  3
txt.shx
  4
bigfont.shx
  0
STYLE
  2
ANNOTATIVE
 70
     0
 40
0.0
 41
1.0
 50
0.0
 71
     0
 42
0.2
  3
txt
  4

  0
STYLE
  2

 70
     1
 40
0.0
 41
1.0
 50
0.0
 71
     0
 42
2.5
  3
ltypeshp.shx
  4

  0
STYLE
  2
ACISOTS
 70
     0
 40
1.0
 41
1.0
 50
0.0
 71
     0
 42
2.5
  3
isocp.shx
  4
extfont.shx
  0
STYLE
  2
ACISOGDT
 70
     0
 40
0.0
 41
1.0
 50
0.0
 71
     0
 42
2.5
  3
amgdt.shx
  4

  0
STYLE
  2
ACANSTS
 70
     0
 40
1.0
 41
1.0
 50
0.0
 71
     0
 42
2.5
  3
romans.shx
  4
bigfont.shx
  0
STYLE
  2
ACANSGDT
 70
     0
 40
0.0
 41
1.0
 50
0.0
 71
     0
 42
2.5
  3
amgdt.shx
  4

  0
STYLE
  2
ACJISTS
 70
     0
 40
1.0
 41
1.0
 50
0.0
 71
     0
 42
2.5
  3
isocp.shx
  4
bigfont.shx
  0
STYLE
  2
ACJISGDT
 70
     0
 40
0.0
 41
1.0
 50
0.0
 71
     0
 42
2.5
  3
amgdt.shx
  4

  0
ENDTAB
  0
TABLE
  2
VIEW
 70
     6
  0
VIEW
  2
AM_VIEW1
 70
     0
 40
462.5
 10
416.07965009208078
 20
693.75
 41
832.15930018416213
 11
0.0
 21
0.0
 31
1.0
 12
0.0
 22
0.0
 32
0.0
 42
50.0
 43
0.0
 44
0.0
 50
0.0
 71
     0
  0
VIEW
  2
AM_VIEW2
 70
     0
 40
462.5
 10
1006.420349907918
 20
693.75
 41
832.15930018416213
 11
0.0
 21
0.0
 31
1.0
 12
0.0
 22
0.0
 32
0.0
 42
50.0
 43
0.0
 44
0.0
 50
0.0
 71
     0
  0
VIEW
  2
AM_VIEW3
 70
     0
 40
462.5
 10
416.07965009208078
 20
231.25
 41
832.15930018416213
 11
0.0
 21
0.0
 31
1.0
 12
0.0
 22
0.0
 32
0.0
 42
50.0
 43
0.0
 44
0.0
 50
0.0
 71
     0
  0
VIEW
  2
AM_VIEW4
 70
     0
 40
462.5
 10
1006.420349907918
 20
231.25
 41
832.15930018416213
 11
0.0
 21
0.0
 31
1.0
 12
0.0
 22
0.0
 32
0.0
 42
50.0
 43
0.0
 44
0.0
 50
0.0
 71
     0
  0
VIEW
  2
AM_VIEW5
 70
     0
 40
462.5
 10
711.24999999999966
 20
462.5
 41
832.15930018416179
 11
0.0
 21
0.0
 31
1.0
 12
0.0
 22
0.0
 32
0.0
 42
50.0
 43
0.0
 44
0.0
 50
0.0
 71
     0
  0
VIEW
  2
AM_VIEW6
 70
     0
 40
924.99075000000005
 10
711.24999999999966
 20
462.5
 41
1664.3019571823199
 11
0.0
 21
0.0
 31
1.0
 12
0.0
 22
0.0
 32
0.0
 42
50.0
 43
0.0
 44
0.0
 50
0.0
 71
     0
  0
ENDTAB
  0
TABLE
  2
UCS
 70
     0
  0
ENDTAB
  0
TABLE
  2
APPID
 70
    95
  0
APPID
  2
ACAD
 70
     0
  0
APPID
  2
ACADANNOTATIVE
 70
     0
  0
APPID
  2
MCAD_NO_VIS
 70
     0
  0
APPID
  2
ACAD_TEMP_GRAPHIC
 70
     0
  0
APPID
  2
ACATTRIBSERVICES
 70
     0
  0
APPID
  2
GENIUS_GENREC_14
 70
     0
  0
APPID
  2
GENIUS_GENOBJ-N-REC_13
 70
     0
  0
APPID
  2
GENIUS_GENODEF_13
 70
     0
  0
APPID
  2
GENIUS_GENOLIS_13
 70
     0
  0
APPID
  2
GENIUS_GENOBJ-N-TIT_13
 70
     0
  0
APPID
  2
GENIUS_GENOENT_13
 70
     0
  0
APPID
  2
GENIUS_GENTITLE_13
 70
     0
  0
APPID
  2
GENIUS_GENOREF_13
 70
     0
  0
APPID
  2
GENIUS_GENSCREG_15
 70
     0
  0
APPID
  2
GENIUS_GENOBJ-N-SDF_13
 70
     0
  0
APPID
  2
GENIUS_GENFIL_13
 70
     0
  0
APPID
  2
GENIUS_GENOBJ-N-CHA_13
 70
     0
  0
APPID
  2
GENIUS_GENDTOL_13
 70
     0
  0
APPID
  2
GENIUS_GENOBJ-N-FIL_13
 70
     0
  0
APPID
  2
AD_DRAW
 70
     0
  0
APPID
  2
DESIGNERASSEMBLIES
 70
     0
  0
APPID
  2
ASURF_PCURVE_APPNAME
 70
     0
  0
APPID
  2
GENIUS_GE3SECT_13
 70
     0
  0
APPID
  2
GENIUS_GENCFG_13
 70
     0
  0
APPID
  2
GENIUS_GE3CFG0_13
 70
     0
  0
APPID
  2
GENIUS_GENCFG0_13
 70
     0
  0
APPID
  2
GENIUS_GENCFG1_13
 70
     0
  0
APPID
  2
GENIUS_GENCFG2_13
 70
     0
  0
APPID
  2
GENIUS_GENCFG3_13
 70
     0
  0
APPID
  2
GENIUS_GENCFG4_13
 70
     0
  0
APPID
  2
GENIUS_GEVCFG0_13
 70
     0
  0
APPID
  2
GENIUS_GENHINW_13
 70
     0
  0
APPID
  2
GENIUS_FIRSTVISTXT_14
 70
     0
  0
APPID
  2
GENIUS_GENOBJ-N-LEADER_13
 70
     0
  0
APPID
  2
GEV_VCCNULL_SWITCH_OFF
 70
     0
  0
APPID
  2
GENIUS_GEFCFG0_13
 70
     0
  0
APPID
  2
GENIUS_GENZVEED_13
 70
     0
  0
APPID
  2
GENIUS_GENSCREG_13
 70
     0
  0
APPID
  2
GENIUS_DUMCFG0_13
 70
     0
  0
APPID
  2
GEVID936201362
 70
     0
  0
APPID
  2
GEVDC
 70
     0
  0
APPID
  2
GEVCON
 70
     0
  0
APPID
  2
VCC
 70
     0
  0
APPID
  2
GEVPT
 70
     0
  0
APPID
  2
GEVIT
 70
     0
  0
APPID
  2
GENBH
 70
     0
  0
APPID
  2
GEVMK
 70
     0
  0
APPID
  2
GENIUS_GENBH_13
 70
     0
  0
APPID
  2
GENIUS_GENOBJ-NBEHI-BHF_13
 70
     0
  0
APPID
  2
GENIUS_GENOBJ-NBEHI-BHB_13
 70
     0
  0
APPID
  2
GENIUS_GENOBJ-F-DESC_13
 70
     0
  0
APPID
  2
GENIUS_GEFDESC_14
 70
     0
  0
APPID
  2
GENIUS_GENOBJ-F-PART_13
 70
     0
  0
APPID
  2
GENIUS_GEFSTDP_13
 70
     0
  0
APPID
  2
GENIUS_GEFPARTINS_13
 70
     0
  0
APPID
  2
GENIUS_GENTRA_14
 70
     0
  0
APPID
  2
GENIUS_GENINF13_13
 70
     0
  0
APPID
  2
GENIUS_GENOBJ-N-INFOPT_13
 70
     0
  0
APPID
  2
GENIUS_GENOBJ-N-RSSYM_13
 70
     0
  0
APPID
  2
GENIUS_GENSYMENT_13
 70
     0
  0
APPID
  2
GENIUS_GENSCSYM_13
 70
     0
  0
APPID
  2
GENIUS_GEFINFNAM_13
 70
     0
  0
APPID
  2
GENIUS_GENOBJ-N-CEN_13
 70
     0
  0
APPID
  2
GENIUS_GENOBJ-N-CRS_13
 70
     0
  0
APPID
  2
GENIUS_GENOBJ-N-CRC_13
 70
     0
  0
APPID
  2
GENIUS_GENCRC_14
 70
     0
  0
APPID
  2
GEVID942827039
 70
     0
  0
APPID
  2
GEVID942827040
 70
     0
  0
APPID
  2
GEVID942827041
 70
     0
  0
APPID
  2
GENIUS_GENOBJ-F-SCPASSM_13
 70
     0
  0
APPID
  2
GENIUS_GENDIMSH_14
 70
     0
  0
APPID
  2
GEVID942827042
 70
     0
  0
APPID
  2
GEVID946020473
 70
     0
  0
APPID
  2
GEVID946020474
 70
     0
  0
APPID
  2
GEVID946020475
 70
     0
  0
APPID
  2
GENIUS_GENOBJ-N-HTC_13
 70
     0
  0
APPID
  2
GENIUS_GENHATCH_13
 70
     0
  0
APPID
  2
GEVID948854295
 70
     0
  0
APPID
  2
GEVID939402019
 70
     0
  0
APPID
  2
GEVID952919491
 70
     0
  0
APPID
  2
GEVID952919492
 70
     0
  0
APPID
  2
GENIUS_GEFWELD_13
 70
     0
  0
APPID
  2
GENIUS_GENOBJ-F-WELS_13
 70
     0
  0
APPID
  2
GEVID952919493
 70
     0
  0
APPID
  2
GENIUS_GENOBJ-N-RSBK_13
 70
     0
  0
APPID
  2
GENIUS_GENOBJ-N-LIB_13
 70
     0
  0
APPID
  2
GENIUS_GENSCALE_13
 70
     0
  0
APPID
  2
GEVID986376691
 70
     0
  0
APPID
  2
DCO15
 70
     0
  0
APPID
  2
ACAD_DSTYLE_DIMBREAK
 70
     0
  0
APPID
  2
ACAD_DSTYLE_DIMJAG
 70
     0
  0
APPID
  2
ACAD_NAV_VCDISPLAY
 70
     0
  0
APPID
  2
ACADANNOPO
 70
     0
  0
APPID
  2
ACAD_EXEMPT_FROM_CAD_STANDARDS
 70
     0
  0
APPID
  2
ACAD_MLEADERVER
 70
     0
  0
ENDTAB
  0
TABLE
  2
DIMSTYLE
 70
    22
  0
DIMSTYLE
  2
STANDARD
 70
     0
  3

  4

  5

  6

  7

 40
1.0
 41
0.18
 42
0.0625
 43
0.38
 44
0.18
 45
0.0
 46
0.0
 47
0.0
 48
0.0
140
0.18
141
0.09
142
0.0
143
25.399999999999999
144
1.0
145
0.0
146
1.0
147
0.09
 71
     0
 72
     0
 73
     1
 74
     1
 75
     0
 76
     0
 77
     0
 78
     0
170
     0
171
     2
172
     0
173
     0
174
     0
175
     0
176
     0
177
     0
178
     0
  0
DIMSTYLE
  2
ANNOTATIVE
 70
     0
  3

  4

  5

  6

  7

 40
1.0
 41
0.18
 42
0.0625
 43
0.38
 44
0.18
 45
0.0
 46
0.0
 47
0.0
 48
0.0
140
0.18
141
0.09
142
0.0
143
25.399999999999999
144
1.0
145
0.0
146
1.0
147
0.09
 71
     0
 72
     0
 73
     1
 74
     1
 75
     0
 76
     0
 77
     0
 78
     0
170
     0
171
     2
172
     0
173
     0
174
     0
175
     0
176
     0
177
     0
178
     0
  0
DIMSTYLE
  2
AM_ISO
 70
     0
  3

  4
"
  5

  6

  7

 40
1.0
 41
2.5
 42
1.0
 43
8.0
 44
0.6
 45
0.0
 46
0.0
 47
0.1
 48
0.1
140
2.5
141
0.0
142
0.0
143
0.0393701
144
1.0
145
0.0
146
0.71
147
0.8
 71
     0
 72
     0
 73
     0
 74
     0
 75
     0
 76
     0
 77
     1
 78
     8
170
     0
171
     2
172
     1
173
     0
174
     0
175
     0
176
   256
177
   256
178
     4
  0
DIMSTYLE
  2
AM_ISO$3
 70
     0
  3

  4
"
  5

  6

  7

 40
1.0
 41
2.5
 42
1.0
 43
8.0
 44
0.6
 45
0.0
 46
0.0
 47
0.1
 48
0.1
140
2.5
141
0.0
142
0.0
143
0.0393701
144
1.0
145
0.0
146
0.71
147
0.8
 71
     0
 72
     0
 73
     0
 74
     1
 75
     0
 76
     0
 77
     1
 78
     8
170
     0
171
     2
172
     0
173
     0
174
     0
175
     0
176
   256
177
   256
178
     4
  0
DIMSTYLE
  2
AM_ISO$4
 70
     0
  3

  4
"
  5

  6

  7

 40
1.0
 41
2.5
 42
1.0
 43
8.0
 44
0.6
 45
0.0
 46
0.0
 47
0.1
 48
0.1
140
2.5
141
0.0
142
0.0
143
0.0393701
144
1.0
145
0.0
146
0.71
147
0.8
 71
     0
 72
     0
 73
     0
 74
     1
 75
     0
 76
     0
 77
     1
 78
     8
170
     0
171
     2
172
     0
173
     0
174
     0
175
     0
176
   256
177
   256
178
     4
  0
DIMSTYLE
  2
AM_ISO$6
 70
     0
  3

  4
"
  5

  6

  7

 40
1.0
 41
2.5
 42
1.0
 43
8.0
 44
0.6
 45
0.0
 46
0.0
 47
0.1
 48
0.1
140
2.5
141
0.0
142
0.0
143
0.0393701
144
1.0
145
0.0
146
0.71
147
0.8
 71
     0
 72
     0
 73
     0
 74
     0
 75
     0
 76
     0
 77
     0
 78
     8
170
     0
171
     2
172
     1
173
     0
174
     0
175
     0
176
   256
177
   256
178
     4
  0
DIMSTYLE
  2
AM_ISO$7
 70
     0
  3

  4
"
  5

  6

  7

 40
1.0
 41
2.5
 42
1.0
 43
8.0
 44
0.6
 45
0.0
 46
0.0
 47
0.1
 48
0.1
140
2.5
141
0.0
142
0.0
143
0.0393701
144
1.0
145
0.0
146
0.71
147
0.8
 71
     0
 72
     0
 73
     0
 74
     0
 75
     0
 76
     0
 77
     1
 78
     8
170
     0
171
     2
172
     1
173
     0
174
     0
175
     0
176
   256
177
   256
178
     4
  0
DIMSTYLE
  2
AM_ISO$SF
 70
     0
  3

  4
"
  5

  6

  7

 40
1.0
 41
2.5
 42
1.0
 43
10.0
 44
1.0
 45
0.0
 46
0.0
 47
0.1
 48
0.1
140
3.5
141
0.0
142
0.0
143
0.0393701
144
1.0
145
0.0
146
0.71
147
1.5
 71
     0
 72
     0
 73
     0
 74
     0
 75
     1
 76
     1
 77
     1
 78
     8
170
     0
171
     2
172
     1
173
     0
174
     0
175
     0
176
   256
177
   256
178
     2
  0
DIMSTYLE
  2
AM_ISO$SH
 70
     0
  3

  4
"
  5

  6

  7

 40
1.0
 41
2.5
 42
1.0
 43
10.0
 44
1.0
 45
0.0
 46
0.0
 47
0.1
 48
0.1
140
3.5
141
0.0
142
0.0
143
0.0393701
144
2.0
145
0.0
146
0.71
147
1.5
 71
     0
 72
     0
 73
     0
 74
     0
 75
     1
 76
     1
 77
     1
 78
     8
170
     0
171
     2
172
     1
173
     1
174
     0
175
     0
176
   256
177
   256
178
     2
  0
DIMSTYLE
  2
AM_JIS
 70
     0
  3

  4
"
  5

  6

  7

 40
1.0
 41
2.5
 42
1.0
 43
7.0
 44
1.0
 45
0.0
 46
0.0
 47
0.1
 48
0.1000000001
140
2.5
141
0.0
142
0.0
143
0.0393701
144
1.0
145
0.0
146
0.71
147
1.0
 71
     0
 72
     0
 73
     0
 74
     0
 75
     0
 76
     0
 77
     3
 78
     8
170
     0
171
     2
172
     1
173
     0
174
     0
175
     0
176
   256
177
   256
178
     4
  0
DIMSTYLE
  2
AM_JIS$3
 70
     0
  3

  4
"
  5

  6

  7

 40
1.0
 41
2.5
 42
1.0
 43
7.0
 44
1.0
 45
0.0
 46
0.0
 47
0.1
 48
0.1000000001
140
2.5
141
0.0
142
0.0
143
0.0393701
144
1.0
145
0.0
146
0.71
147
1.0
 71
     0
 72
     0
 73
     0
 74
     1
 75
     0
 76
     0
 77
     3
 78
     8
170
     0
171
     2
172
     0
173
     0
174
     0
175
     0
176
   256
177
   256
178
     4
  0
DIMSTYLE
  2
AM_JIS$4
 70
     0
  3

  4
"
  5

  6

  7

 40
1.0
 41
2.5
 42
1.0
 43
7.0
 44
1.0
 45
0.0
 46
0.0
 47
0.1
 48
0.1000000001
140
2.5
141
0.0
142
0.0
143
0.0393701
144
1.0
145
0.0
146
0.71
147
1.0
 71
     0
 72
     0
 73
     0
 74
     0
 75
     0
 76
     0
 77
     3
 78
     8
170
     0
171
     2
172
     0
173
     0
174
     0
175
     0
176
   256
177
   256
178
     4
  0
DIMSTYLE
  2
AM_JIS$6
 70
     0
  3

  4
"
  5

  6

  7

 40
1.0
 41
2.5
 42
1.0
 43
7.0
 44
1.0
 45
0.0
 46
0.0
 47
0.1
 48
0.1000000001
140
2.5
141
0.0
142
0.0
143
0.0393701
144
1.0
145
0.0
146
0.71
147
1.0
 71
     0
 72
     0
 73
     0
 74
     0
 75
     0
 76
     0
 77
     0
 78
     8
170
     0
171
     2
172
     1
173
     0
174
     0
175
     0
176
   256
177
   256
178
     4
  0
DIMSTYLE
  2
AM_JIS$7
 70
     0
  3

  4
"
  5

  6

  7

 40
1.0
 41
2.5
 42
1.0
 43
7.0
 44
1.0
 45
0.0
 46
0.0
 47
0.1
 48
0.1000000001
140
2.5
141
0.0
142
0.0
143
0.0393701
144
1.0
145
0.0
146
0.71
147
1.0
 71
     0
 72
     0
 73
     0
 74
     0
 75
     0
 76
     0
 77
     3
 78
     8
170
     0
171
     2
172
     1
173
     0
174
     0
175
     0
176
   256
177
   256
178
     4
  0
DIMSTYLE
  2
AM_JIS$SF
 70
     0
  3

  4
"
  5

  6

  7

 40
1.0
 41
2.5
 42
1.0
 43
10.0
 44
1.0
 45
0.0
 46
0.0
 47
0.1
 48
0.1
140
3.5
141
0.0
142
0.0
143
0.0393701
144
1.0
145
0.0
146
0.71
147
1.5
 71
     0
 72
     0
 73
     0
 74
     0
 75
     1
 76
     1
 77
     3
 78
     8
170
     0
171
     2
172
     1
173
     0
174
     0
175
     0
176
   256
177
   256
178
     4
  0
DIMSTYLE
  2
AM_JIS$SH
 70
     0
  3

  4
"
  5

  6

  7

 40
1.0
 41
2.5
 42
1.0
 43
10.0
 44
1.0
 45
0.0
 46
0.0
 47
0.1
 48
0.1
140
3.5
141
0.0
142
0.0
143
0.0393701
144
1.0
145
0.0
146
0.71
147
1.5
 71
     0
 72
     0
 73
     0
 74
     0
 75
     1
 76
     0
 77
     3
 78
     8
170
     0
171
     2
172
     1
173
     1
174
     0
175
     0
176
   256
177
   256
178
     4
  0
DIMSTYLE
  2
AM_ANSI
 70
     0
  3

  4
mm
  5

  6

  7

 40
1.0
 41
0.1
 42
0.05
 43
0.5
 44
0.1
 45
0.0
 46
0.0
 47
0.1
 48
0.1
140
0.12
141
0.0
142
0.0
143
25.399999999999999
144
1.0
145
0.0
146
0.71
147
0.06
 71
     0
 72
     0
 73
     1
 74
     1
 75
     0
 76
     0
 77
     0
 78
     7
170
     0
171
     2
172
     0
173
     0
174
     0
175
     0
176
   256
177
   256
178
     2
  0
DIMSTYLE
  2
AM_ANSI$3
 70
     0
  3

  4
mm
  5

  6

  7

 40
1.0
 41
0.1
 42
0.05
 43
0.5
 44
0.1
 45
0.0
 46
0.0
 47
0.1
 48
0.1
140
0.12
141
0.0
142
0.0
143
25.399999999999999
144
1.0
145
0.0
146
0.71
147
0.06
 71
     0
 72
     0
 73
     1
 74
     1
 75
     0
 76
     0
 77
     0
 78
     7
170
     0
171
     2
172
     0
173
     0
174
     0
175
     0
176
   256
177
   256
178
     2
  0
DIMSTYLE
  2
AM_ANSI$4
 70
     0
  3

  4
mm
  5

  6

  7

 40
1.0
 41
0.1
 42
0.05
 43
0.5
 44
0.1
 45
0.0
 46
0.0
 47
0.1
 48
0.1
140
0.12
141
0.0
142
0.0
143
25.399999999999999
144
1.0
145
0.0
146
0.71
147
0.06
 71
     0
 72
     0
 73
     1
 74
     1
 75
     0
 76
     0
 77
     0
 78
     7
170
     0
171
     2
172
     0
173
     0
174
     0
175
     0
176
   256
177
   256
178
     2
  0
DIMSTYLE
  2
AM_ANSI$7
 70
     0
  3

  4
mm
  5

  6

  7

 40
1.0
 41
0.1
 42
0.05
 43
0.5
 44
0.1
 45
0.0
 46
0.0
 47
0.1
 48
0.1
140
0.24
141
0.0
142
0.0
143
25.399999999999999
144
1.0
145
0.0
146
0.71
147
0.06
 71
     0
 72
     0
 73
     1
 74
     1
 75
     0
 76
     0
 77
     0
 78
     7
170
     0
171
     2
172
     0
173
     0
174
     0
175
     0
176
   256
177
   256
178
     2
  0
DIMSTYLE
  2
AM_ANSI$SF
 70
     0
  3

  4
mm
  5

  6

  7

 40
1.0
 41
0.1
 42
0.05
 43
0.5
 44
0.1
 45
0.0
 46
0.0
 47
0.1
 48
0.1
140
0.12
141
0.0
142
0.0
143
25.399999999999999
144
1.0
145
0.0
146
0.71
147
0.06
 71
     0
 72
     0
 73
     1
 74
     1
 75
     1
 76
     1
 77
     0
 78
     7
170
     0
171
     2
172
     0
173
     0
174
     0
175
     0
176
   256
177
   256
178
     2
  0
DIMSTYLE
  2
AM_ANSI$SH
 70
     0
  3

  4
mm
  5

  6

  7

 40
1.0
 41
0.1
 42
0.05
 43
0.5
 44
0.1
 45
0.0
 46
0.0
 47
0.1
 48
0.1
140
0.12
141
0.0
142
0.0
143
25.399999999999999
144
1.0
145
0.0
146
0.71
147
0.06
 71
     0
 72
     0
 73
     1
 74
     1
 75
     1
 76
     1
 77
     0
 78
     7
170
     0
171
     2
172
     0
173
     1
174
     0
175
     0
176
   256
177
   256
178
     2
  0
ENDTAB
  0
ENDSEC
  0
SECTION
  2
BLOCKS
  0
BLOCK
  8
0
  2
$MODEL_SPACE
 70
     0
 10
0.0
 20
0.0
 30
0.0
  3
$MODEL_SPACE
  1

  0
ENDBLK
  5
347A
  8
0
  0
BLOCK
 67
     1
  8
0
  2
$PAPER_SPACE
 70
     0
 10
0.0
 20
0.0
 30
0.0
  3
$PAPER_SPACE
  1

  0
ENDBLK
  5
3476
 67
     1
  8
0
  0
BLOCK
  8
0
  2
GENAXEH
 70
     0
 10
0.0
 20
0.0
 30
0.0
  3
GENAXEH
  1

  0
LINE
  5
31E2
  8
0
 10
-1.0
 20
0.0
 30
0.0
 11
1.0
 21
0.0
 31
0.0
  0
ENDBLK
  5
31E3
  8
0
  0
BLOCK
  8
0
  2
_OPEN30
 70
     0
 10
0.0
 20
0.0
 30
0.0
  3
_OPEN30
  1

  0
LINE
  5
31E6
  8
0
 62
     0
 10
-1.0
 20
0.26794919
 30
0.0
 11
0.0
 21
0.0
 31
0.0
  0
LINE
  5
31E7
  8
0
 62
     0
 10
0.0
 20
0.0
 30
0.0
 11
-1.0
 21
-0.26794919
 31
0.0
  0
LINE
  5
31E8
  8
0
 62
     0
 10
0.0
 20
0.0
 30
0.0
 11
-1.0
 21
0.0
 31
0.0
  0
ENDBLK
  5
31E9
  8
0
  0
BLOCK
  8
0
  2
_NONE
 70
     0
 10
0.0
 20
0.0
 30
0.0
  3
_NONE
  1

  0
ENDBLK
  5
31EC
  8
0
  0
BLOCK
  8
0
  2
*U5
 70
     1
 10
0.0
 20
0.0
 30
0.0
  3
*U5
  1

  0
TEXT
  5
31EF
  8
AM_0
 62
     4
 10
836.24592008672289
 20
386.74185444962171
 30
0.0
 40
12.5
  1
\U+2205
 50
90.0
 41
0.8299999999999999
  0
TEXT
  5
31F0
  8
AM_0
 62
     4
 10
836.24592008672289
 20
397.11685444962171
 30
0.0
 40
12.5
  1
240
 50
90.0
 41
0.8299999999999999
  0
TEXT
  5
31F1
  8
AM_0
 62
     4
 10
836.24592008672289
 20
426.51268778295491
 30
0.0
 40
10.0
  1
h7
 50
90.0
 41
0.8299999999999999
  0
ENDBLK
  5
31F2
  8
0
  0
BLOCK
  8
0
  2
*U6
 70
     1
 10
0.0
 20
0.0
 30
0.0
  3
*U6
  1

  0
TEXT
  5
31F5
  8
AM_0
 62
     4
 10
362.79255292139709
 20
321.08768778295479
 30
0.0
 40
12.5
  1
\U+2205
 50
90.0
 41
0.8299999999999999
  0
TEXT
  5
31F6
  8
AM_0
 62
     4
 10
362.79255292139709
 20
331.4626877829549
 30
0.0
 40
12.5
  1
110 
 50
90.0
 41
0.8299999999999999
  0
TEXT
  5
31F7
  8
AM_0
 62
     4
 10
362.79255292139709
 20
360.16685444962133
 30
0.0
 40
10.0
  1
G7
 50
90.0
 41
0.8299999999999999
  0
ENDBLK
  5
31F8
  8
0
  0
BLOCK
  8
0
  2
*U7
 70
     1
 10
0.0
 20
0.0
 30
0.0
  3
*U7
  1

  0
TEXT
  5
31FB
  8
AM_0
 62
     4
 10
334.89451202213053
 20
331.1168544496216
 30
0.0
 40
12.5
  1
\U+2205
 50
90.0
 41
0.8299999999999999
  0
TEXT
  5
31FC
  8
AM_0
 62
     4
 10
334.89451202213053
 20
341.4918544496216
 30
0.0
 40
12.5
  1
160
 50
90.0
 41
0.8299999999999999
  0
ENDBLK
  5
31FD
  8
0
  0
BLOCK
  8
0
  2
*U8
 70
     1
 10
0.0
 20
0.0
 30
0.0
  3
*U8
  1

  0
TEXT
  5
3200
  8
AM_0
 62
     4
 10
1041.808230608297
 20
617.11945781745453
 30
0.0
 40
12.5
  1
o
 41
0.8299999999999999
  0
TEXT
  5
3201
  8
AM_0
 62
     4
 10
1054.159421084486
 20
617.11945781745453
 30
0.0
 40
12.5
  1
 285
 41
0.8299999999999999
  0
ENDBLK
  5
3202
  8
0
  0
BLOCK
  8
0
  2
*U9
 70
     1
 10
0.0
 20
0.0
 30
0.0
  3
*U9
  1

  0
TEXT
  5
3205
  8
AM_0
 62
     4
 10
933.678171240952
 20
624.81251739282402
 30
0.0
 40
12.5
  1
o
 41
0.8299999999999999
  0
TEXT
  5
3206
  8
AM_0
 62
     4
 10
946.02936171714214
 20
624.81251739282402
 30
0.0
 40
12.5
  1
 285
 41
0.8299999999999999
  0
ENDBLK
  5
3207
  8
0
  0
BLOCK
  8
0
  2
*U10
 70
     1
 10
0.0
 20
0.0
 30
0.0
  3
*U10
  1

  0
TEXT
  5
320A
  8
AM_0
 62
     4
 10
728.11586071937791
 20
394.4349140249912
 30
0.0
 40
12.5
  1
\U+2205
 50
90.0
 41
0.8299999999999999
  0
TEXT
  5
320B
  8
AM_0
 62
     4
 10
728.11586071937791
 20
404.80991402499109
 30
0.0
 40
12.5
  1
240
 50
90.0
 41
0.8299999999999999
  0
TEXT
  5
320C
  8
AM_0
 62
     4
 10
728.11586071937791
 20
434.20574735832452
 30
0.0
 40
10.0
  1
h7
 50
90.0
 41
0.8299999999999999
  0
ENDBLK
  5
320D
  8
0
  0
BLOCK
  8
0
  2
*U11
 70
     1
 10
0.0
 20
0.0
 30
0.0
  3
*U11
  1

  0
TEXT
  5
3210
  8
AM_0
 62
     4
 10
226.7644526547854
 20
338.80991402499092
 30
0.0
 40
12.5
  1
\U+2205
 50
90.0
 41
0.8299999999999999
  0
TEXT
  5
3211
  8
AM_0
 62
     4
 10
226.7644526547854
 20
349.18491402499092
 30
0.0
 40
12.5
  1
160
 50
90.0
 41
0.8299999999999999
  0
ENDBLK
  5
3212
  8
0
  0
BLOCK
  8
0
  2
*U12
 70
     1
 10
0.0
 20
0.0
 30
0.0
  3
*U12
  1

  0
TEXT
  5
3215
  8
AM_0
 62
     4
 10
254.66249355405199
 20
328.78074735832422
 30
0.0
 40
12.5
  1
\U+2205
 50
90.0
 41
0.8299999999999999
  0
TEXT
  5
3216
  8
AM_0
 62
     4
 10
254.66249355405199
 20
339.15574735832422
 30
0.0
 40
12.5
  1
110 
 50
90.0
 41
0.8299999999999999
  0
TEXT
  5
3217
  8
AM_0
 62
     4
 10
254.66249355405199
 20
367.85991402499093
 30
0.0
 40
10.0
  1
G7
 50
90.0
 41
0.8299999999999999
  0
ENDBLK
  5
3218
  8
0
  0
BLOCK
  8
0
  2
_ACMFILLEDHALF
 70
     0
 10
0.0
 20
0.0
 30
0.0
  3
_ACMFILLEDHALF
  1

  0
TRACE
  5
3580
  8
AM_0
 62
     0
 10
-0.8
 20
0.0
 30
0.0
 11
-1.0
 21
0.166666666
 31
0.0
 12
0.0
 22
0.0
 32
0.0
 13
0.0
 23
0.0
 33
0.0
  0
LINE
  5
3581
  8
AM_0
 62
     0
 10
-1.0
 20
0.0
 30
0.0
 11
-0.8
 21
0.0
 31
0.0
  0
ENDBLK
  5
357F
  8
0
  0
ENDSEC
  0
SECTION
  2
ENTITIES
  0
POLYLINE
  5
321A
  8
AM_0
 66
     1
 10
0.0
 20
0.0
 30
0.0
  0
VERTEX
  5
321B
  8
AM_0
 10
369.1325192968323
 20
861.18501683565091
 30
0.0
 42
-0.011693505
  0
VERTEX
  5
321C
  8
AM_0
 10
372.69540929683222
 20
865.68138683565076
 30
0.0
 42
-0.01121677
  0
VERTEX
  5
321D
  8
AM_0
 10
376.46028929683217
 20
870.01015683565095
 30
0.0
 42
-0.011000238
  0
VERTEX
  5
321E
  8
AM_0
 10
380.4123892968322
 20
874.16659683565081
 30
0.0
  0
SEQEND
  5
321F
  8
AM_0
  0
POLYLINE
  5
3220
  8
AM_0
 66
     1
 10
0.0
 20
0.0
 30
0.0
  0
VERTEX
  5
3221
  8
AM_0
 10
369.1325192968323
 20
770.34878683565091
 30
0.0
 42
0.011693477
  0
VERTEX
  5
3222
  8
AM_0
 10
372.69540929683222
 20
765.85242683565093
 30
0.0
 42
0.01121672
  0
VERTEX
  5
3223
  8
AM_0
 10
376.46028929683217
 20
761.52365683565085
 30
0.0
 42
0.011000161
  0
VERTEX
  5
3224
  8
AM_0
 10
380.4123892968322
 20
757.36721683565099
 30
0.0
  0
SEQEND
  5
3225
  8
AM_0
  0
LINE
  5
3226
  8
AM_0
 10
378.4440692968322
 20
757.43594683565095
 30
0.0
 11
326.01279929683238
 21
759.26687683565092
 31
0.0
  0
LINE
  5
3227
  8
AM_0
 10
326.01272929683222
 20
872.26687683565092
 30
0.0
 11
378.4440692968322
 21
874.09780683565089
 31
0.0
  0
LINE
  5
3228
  8
AM_0
 10
352.01272929683228
 20
802.76687683565092
 30
0.0
 11
383.31540929683229
 21
802.76687683565092
 31
0.0
  0
LINE
  5
3229
  8
AM_0
 10
352.01272929683228
 20
828.76687683565092
 30
0.0
 11
383.31540929683229
 21
828.76687683565092
 31
0.0
  0
LINE
  5
322A
  8
ﾁｭｳｼﾝｾﾝ
 10
278.93403680017491
 20
815.76687683565103
 30
0.0
 11
665.0267692968323
 21
815.76687683565103
 31
0.0
  0
ARC
  5
322B
  8
AM_0
 10
352.01272929683228
 20
805.76687683565081
 30
0.0
 40
3.0
 50
180.00001000000091
 51
270.0
  0
LINE
  5
322C
  8
AM_0
 10
326.01272929683222
 20
759.26687683565092
 30
0.0
 11
326.01272929683222
 21
872.26687683565092
 31
0.0
  0
LINE
  5
322D
  8
AM_0
 10
326.01272929683222
 20
783.82693683565094
 30
0.0
 11
362.10507929683212
 21
783.82693683565094
 31
0.0
  0
LINE
  5
322E
  8
AM_0
 10
326.01272929683222
 20
769.76687683565092
 30
0.0
 11
367.35544929683221
 21
769.76687683565092
 31
0.0
  0
ARC
  5
322F
  8
AM_0
 10
367.35544929683221
 20
772.76687683565092
 30
0.0
 40
3.0
 50
269.999989999999
 51
35.575751000001212
  0
POLYLINE
  5
3230
  8
AM_0
 66
     1
 10
0.0
 20
0.0
 30
0.0
  0
VERTEX
  5
3231
  8
AM_0
 10
352.98228929683228
 20
802.76715683565078
 30
0.0
  0
VERTEX
  5
3232
  8
AM_0
 10
360.40956929683227
 20
783.82775683565092
 30
0.0
 42
-1.0
  0
SEQEND
  5
3233
  8
AM_0
  0
ARC
  5
3234
  8
AM_0
 10
362.10507929683212
 20
780.82693683565094
 30
0.0
 40
3.0
 50
30.468076999999081
 51
90.00000299999769
  0
POLYLINE
  5
3235
  8
AM_0
 66
     1
 10
0.0
 20
0.0
 30
0.0
  0
VERTEX
  5
3236
  8
AM_0
 10
364.69078929683218
 20
782.34812683565099
 30
0.0
 42
0.0058779346
  0
VERTEX
  5
3237
  8
AM_0
 10
365.90040929683238
 20
780.34654683565088
 30
0.0
 42
0.0056588677
  0
VERTEX
  5
3238
  8
AM_0
 10
367.15588929683219
 20
778.37339683565085
 30
0.0
 42
0.0054619133
  0
VERTEX
  5
3239
  8
AM_0
 10
368.45492929683229
 20
776.42864683565097
 30
0.0
 42
0.0052861212
  0
VERTEX
  5
323A
  8
AM_0
 10
369.79545929683229
 20
774.5122468356509
 30
0.0
  0
SEQEND
  5
323B
  8
AM_0
  0
LINE
  5
323C
  8
AM_0
 10
326.01272929683222
 20
847.70681683565078
 30
0.0
 11
362.10507929683212
 21
847.70681683565078
 31
0.0
  0
LINE
  5
323D
  8
AM_0
 10
326.01272929683222
 20
861.76687683565092
 30
0.0
 11
367.35544929683221
 21
861.76687683565092
 31
0.0
  0
POLYLINE
  5
323E
  8
AM_0
 66
     1
 10
0.0
 20
0.0
 30
0.0
  0
VERTEX
  5
323F
  8
AM_0
 10
352.98228929683228
 20
828.76660683565092
 30
0.0
  0
VERTEX
  5
3240
  8
AM_0
 10
360.40956929683227
 20
847.70603683565093
 30
0.0
 42
-1.0
  0
SEQEND
  5
3241
  8
AM_0
  0
LINE
  5
3242
  8
AM_0
 10
349.01272929683228
 20
805.76687683565081
 30
0.0
 11
349.01272929683228
 21
825.76687683565092
 31
0.0
  0
ARC
  5
3243
  8
AM_0
 10
352.01272929683228
 20
825.76687683565092
 30
0.0
 40
3.0
 50
90.00000299999769
 51
180.00001000000091
  0
POLYLINE
  5
3244
  8
AM_0
 66
     1
 10
0.0
 20
0.0
 30
0.0
  0
VERTEX
  5
3245
  8
AM_0
 10
364.69078929683218
 20
849.18566683565075
 30
0.0
 42
-0.0058779314
  0
VERTEX
  5
3246
  8
AM_0
 10
365.90040929683238
 20
851.18725683565083
 30
0.0
 42
-0.0056588672
  0
VERTEX
  5
3247
  8
AM_0
 10
367.15588929683219
 20
853.16040683565086
 30
0.0
 42
-0.0054619156
  0
VERTEX
  5
3248
  8
AM_0
 10
368.45492929683229
 20
855.10515683565086
 30
0.0
 42
-0.0052861264
  0
VERTEX
  5
3249
  8
AM_0
 10
369.79545929683229
 20
857.02155683565093
 30
0.0
  0
SEQEND
  5
324A
  8
AM_0
  0
ARC
  5
324B
  8
AM_0
 10
362.10507929683212
 20
850.7068168356509
 30
0.0
 40
3.0
 50
269.999989999999
 51
329.53192000000121
  0
ARC
  5
324C
  8
AM_0
 10
367.35544929683221
 20
858.76687683565092
 30
0.0
 40
3.0
 50
324.42424000000028
 51
90.00000299999769
  0
POLYLINE
  5
324D
  8
AM_0
 66
     1
 10
0.0
 20
0.0
 30
0.0
  0
VERTEX
  5
324E
  8
AM_0
 10
538.37703929683255
 20
867.33139683565093
 30
0.0
 42
0.030646372
  0
VERTEX
  5
324F
  8
AM_0
 10
533.9675092968323
 20
833.04798683565082
 30
0.0
 42
0.064801293
  0
VERTEX
  5
3250
  8
AM_0
 10
538.37703929683255
 20
764.20233683565095
 30
0.0
  0
SEQEND
  5
3251
  8
AM_0
  0
ARC
  5
3252
  8
AM_0
 10
383.31540929683229
 20
799.76687683565092
 30
0.0
 40
3.0
 50
0.0
 51
90.00000299999769
  0
LINE
  5
3253
  8
AM_0
 10
559.51279929683233
 20
676.77591683565095
 30
0.0
 11
559.51279929683233
 21
954.74124683565105
 31
0.0
  0
LINE
  5
3254
  8
AM_0
 10
577.51279929683233
 20
673.26687683565092
 30
0.0
 11
577.51279929683233
 21
958.26687683565092
 31
0.0
  0
LINE
  5
3255
  8
AM_0
 10
567.51279929683233
 20
704.80960683565092
 30
0.0
 11
567.51279929683233
 21
926.72415683565077
 31
0.0
  0
LINE
  5
3256
  8
AM_0
 10
581.51279929683233
 20
695.76687683565092
 30
0.0
 11
581.51279929683233
 21
935.76687683565092
 31
0.0
  0
LINE
  5
3257
  8
AM_0
 10
390.01272929683222
 20
746.47885683565084
 30
0.0
 11
390.01272929683222
 21
885.05490683565097
 31
0.0
  0
LINE
  5
3258
  8
AM_0
 10
400.01272929683222
 20
742.26687683565081
 30
0.0
 11
400.01272929683222
 21
889.26693683565088
 31
0.0
  0
LINE
  5
3259
  8
AM_0
 10
461.5127992968321
 20
676.0289068356509
 30
0.0
 11
461.5127992968321
 21
811.76687683565092
 31
0.0
  0
LINE
  5
325A
  8
AM_0
 10
653.51279929683233
 20
794.76687683565092
 30
0.0
 11
653.51279929683233
 21
836.76687683565092
 31
0.0
  0
LINE
  5
325B
  8
AM_0
 10
583.51279929683233
 20
793.26687683565092
 30
0.0
 11
583.51279929683233
 21
838.26687683565092
 31
0.0
  0
LINE
  5
325C
  8
AM_0
 10
448.51272929683211
 20
679.37991683565087
 30
0.0
 11
448.51272929683211
 21
806.22744683565088
 31
0.0
  0
LINE
  5
325D
  8
AM_0
 10
434.51279929683221
 20
701.6589068356509
 30
0.0
 11
434.51279929683221
 21
811.76687683565092
 31
0.0
  0
LINE
  5
325E
  8
AM_0
 10
557.36545929683246
 20
718.76321683565095
 30
0.0
 11
524.86264929683205
 21
738.20108683565093
 31
0.0
  0
LINE
  5
325F
  8
AM_0
 10
557.07901929683214
 20
712.52029683565092
 30
0.0
 11
515.66055929683239
 21
737.29007683565078
 31
0.0
  0
LINE
  5
3260
  8
AM_0
 10
461.5127992968321
 20
764.20236683565054
 30
0.0
 11
559.51279929683233
 21
764.20236683565054
 31
0.0
  0
LINE
  5
3261
  8
AM_0
 10
461.5127992968321
 20
686.63650683565095
 30
0.0
 11
559.51279929683233
 21
683.21426683565085
 31
0.0
  0
LINE
  5
3262
  8
AM_0
 10
461.5127992968321
 20
676.0289068356509
 30
0.0
 11
562.44638929683208
 21
673.79324683565085
 31
0.0
  0
LINE
  5
3263
  8
AM_0
 10
517.20029929683233
 20
742.86477683565079
 30
0.0
 11
559.51279929683233
 21
742.86477683565079
 31
0.0
  0
ARC
  5
3264
  8
AM_0
 10
451.51272929683228
 20
679.37991683565087
 30
0.0
 40
3.0
 50
179.9999899999988
 51
268.00000999999861
  0
ARC
  5
3265
  8
AM_0
 10
445.5127992968321
 20
694.1391368356509
 30
0.0
 40
3.0
 50
0.0
 51
79.999998000001099
  0
ARC
  5
3266
  8
AM_0
 10
450.51279929683221
 20
689.02194683565097
 30
0.0
 40
2.0
 50
179.9999899999988
 51
268.00000999999861
  0
LINE
  5
3267
  8
AM_0
 10
448.51272929683211
 20
764.20236683565054
 30
0.0
 11
461.5127992968321
 21
764.20236683565054
 31
0.0
  0
LINE
  5
3268
  8
AM_0
 10
448.51272929683211
 20
738.20108683565093
 30
0.0
 11
461.5127992968321
 21
738.20108683565093
 31
0.0
  0
ARC
  5
3269
  8
AM_0
 10
429.51279929683221
 20
736.23361683565099
 30
0.0
 40
5.0
 50
0.0
 51
87.999999999996248
  0
LINE
  5
326A
  8
AM_0
 10
436.99179929683208
 20
698.68789683565092
 30
0.0
 11
446.03372929683229
 21
697.09353683565075
 31
0.0
  0
ARC
  5
326B
  8
AM_0
 10
437.51279929683221
 20
701.64230683565086
 30
0.0
 40
3.0
 50
179.9999899999988
 51
260.00000000000119
  0
LINE
  5
326C
  8
AM_0
 10
400.0127992968321
 20
742.26687683565081
 30
0.0
 11
429.68735929683231
 21
741.23062683565092
 31
0.0
  0
LINE
  5
326D
  8
AM_0
 10
400.0127992968321
 20
776.29220683565097
 30
0.0
 11
434.51279929683221
 21
776.29220683565097
 31
0.0
  0
LINE
  5
326E
  8
AM_0
 10
400.0127992968321
 20
754.18820683565093
 30
0.0
 11
434.51279929683221
 21
754.18820683565093
 31
0.0
  0
ARC
  5
326F
  8
AM_0
 10
394.01272929683222
 20
746.47885683565084
 30
0.0
 40
4.0
 50
180.00001000000091
 51
267.99999999999631
  0
LINE
  5
3270
  8
AM_0
 10
390.01272929683222
 20
754.18820683565093
 30
0.0
 11
400.01272929683222
 21
754.18820683565093
 31
0.0
  0
LINE
  5
3271
  8
AM_0
 10
388.58578929683222
 20
749.19381683565075
 30
0.0
 11
381.80508929683231
 21
755.97445683565093
 31
0.0
  0
ARC
  5
3272
  8
AM_0
 10
385.05020929683218
 20
745.65829683565084
 30
0.0
 40
5.0
 50
5.2307202000000732
 51
44.999998000001611
  0
ARC
  5
3273
  8
AM_0
 10
378.26956929683229
 20
752.43899683565087
 30
0.0
 40
5.0
 50
44.999998000001611
 51
87.999999999996248
  0
LINE
  5
3274
  8
AM_0
 10
393.8731492968322
 20
742.48123683565086
 30
0.0
 11
400.0127992968321
 21
742.26687683565081
 31
0.0
  0
LINE
  5
3275
  8
AM_0
 10
390.01272929683222
 20
776.29220683565097
 30
0.0
 11
400.01272929683222
 21
776.29220683565097
 31
0.0
  0
ARC
  5
3276
  8
AM_0
 10
513.30856929683227
 20
735.20108683565093
 30
0.0
 40
3.0
 50
59.11902300000196
 51
90.00000299999769
  0
ARC
  5
3277
  8
AM_0
 10
517.20029929683233
 20
739.8647768356509
 30
0.0
 40
3.0
 50
90.00000299999769
 51
239.11901999999981
  0
LINE
  5
3278
  8
AM_0
 10
451.40799929683237
 20
676.38180683565065
 30
0.0
 11
461.5127992968321
 21
676.0289068356509
 31
0.0
  0
LINE
  5
3279
  8
AM_0
 10
450.44302929683209
 20
687.02310683565088
 30
0.0
 11
461.51285929683218
 21
686.63650683565095
 31
0.0
  0
LINE
  5
327A
  8
AM_0
 10
461.5127992968321
 20
738.20108683565093
 30
0.0
 11
513.30856929683227
 21
738.20108683565093
 31
0.0
  0
ARC
  5
327B
  8
AM_0
 10
562.51279929683233
 20
676.79251683565087
 30
0.0
 40
3.0
 50
179.9999899999988
 51
268.00000999999861
  0
LINE
  5
327C
  8
AM_0
 10
583.51279929683233
 20
794.76687683565092
 30
0.0
 11
653.51279929683233
 21
794.76687683565092
 31
0.0
  0
LINE
  5
327D
  8
AM_0
 10
549.38138929683225
 20
742.86477683565079
 30
0.0
 11
559.51272929683228
 21
735.3067368356509
 31
0.0
  0
ARC
  5
327E
  8
AM_0
 10
562.51279929683233
 20
704.80960683565092
 30
0.0
 40
5.0
 50
267.99999999999631
 51
0.0
  0
LINE
  5
327F
  8
AM_0
 10
562.40805929683245
 20
673.79434683565103
 30
0.0
 11
577.51279929683233
 21
673.26687683565092
 31
0.0
  0
POLYLINE
  5
3280
  8
AM_0
 66
     1
 10
0.0
 20
0.0
 30
0.0
  0
VERTEX
  5
3281
  8
AM_0
 10
551.85389929683231
 20
715.6448968356508
 30
0.0
 42
0.0052467582
  0
VERTEX
  5
3282
  8
AM_0
 10
554.2741192968324
 20
709.23506683565085
 30
0.0
 42
0.0052066449
  0
VERTEX
  5
3283
  8
AM_0
 10
556.82779929683215
 20
702.87723683565093
 30
0.0
 42
0.0051740769
  0
VERTEX
  5
3284
  8
AM_0
 10
559.51279929683233
 20
696.57400683565095
 30
0.0
  0
SEQEND
  5
3285
  8
AM_0
  0
ARC
  5
3286
  8
AM_0
 10
554.51279929683233
 20
708.22909683565092
 30
0.0
 40
5.0
 50
0.0
 51
59.11901699999779
  0
LINE
  5
3287
  8
AM_0
 10
577.51279929683233
 20
695.76687683565092
 30
0.0
 11
581.51279929683233
 21
695.76687683565092
 31
0.0
  0
ARC
  5
3288
  8
AM_0
 10
564.51279929683233
 20
749.63247683565078
 30
0.0
 40
5.0
 50
90.00000299999769
 51
180.00001000000091
  0
LINE
  5
3289
  8
AM_0
 10
581.51279929683233
 20
793.26687683565092
 30
0.0
 11
583.51279929683233
 21
793.26687683565092
 31
0.0
  0
LINE
  5
328A
  8
AM_0
 10
517.20029929683233
 20
888.66897683565094
 30
0.0
 11
559.51279929683233
 21
888.66897683565094
 31
0.0
  0
LINE
  5
328B
  8
AM_0
 10
461.5127992968321
 20
867.33139683565093
 30
0.0
 11
559.51279929683233
 21
867.33139683565093
 31
0.0
  0
LINE
  5
328C
  8
AM_0
 10
461.5127992968321
 20
944.89724683565078
 30
0.0
 11
559.5128592968324
 21
948.31942683565092
 31
0.0
  0
LINE
  5
328D
  8
AM_0
 10
461.5127992968321
 20
955.50485683565091
 30
0.0
 11
562.44632929683235
 21
957.74057683565093
 31
0.0
  0
LINE
  5
328E
  8
AM_0
 10
557.07907929683222
 20
919.0134568356508
 30
0.0
 11
515.66055929683239
 21
894.24368683565092
 31
0.0
  0
LINE
  5
328F
  8
AM_0
 10
557.36539929683215
 20
912.77053683565077
 30
0.0
 11
524.86264929683205
 21
893.33267683565077
 31
0.0
  0
ARC
  5
3290
  8
AM_0
 10
437.51279929683221
 20
929.89144683565098
 30
0.0
 40
3.0
 50
99.999999999998593
 51
180.00001000000091
  0
LINE
  5
3291
  8
AM_0
 10
448.51272929683211
 20
825.30630683565084
 30
0.0
 11
448.51272929683211
 21
952.15377683565089
 31
0.0
  0
LINE
  5
3292
  8
AM_0
 10
461.5127992968321
 20
819.76681683565096
 30
0.0
 11
461.5127992968321
 21
955.50485683565091
 31
0.0
  0
ARC
  5
3293
  8
AM_0
 10
445.51285929683218
 20
815.76687683565103
 30
0.0
 40
10.0
 50
203.5782699999985
 51
336.4217200000013
  0
ARC
  5
3294
  8
AM_0
 10
445.51285929683218
 20
815.76687683565103
 30
0.0
 40
10.0
 50
23.57803699999776
 51
156.42196000000081
  0
LINE
  5
3295
  8
AM_0
 10
429.01285929683218
 20
819.76681683565096
 30
0.0
 11
462.01285929683218
 21
819.76681683565096
 31
0.0
  0
LINE
  5
3296
  8
AM_0
 10
429.01285929683218
 20
811.76687683565092
 30
0.0
 11
462.01285929683218
 21
811.76687683565092
 31
0.0
  0
LINE
  5
3297
  8
AM_0
 10
448.51272929683211
 20
893.33267683565077
 30
0.0
 11
461.5127992968321
 21
893.33267683565077
 31
0.0
  0
LINE
  5
3298
  8
AM_0
 10
448.51272929683211
 20
867.33139683565093
 30
0.0
 11
461.5127992968321
 21
867.33139683565093
 31
0.0
  0
LINE
  5
3299
  8
AM_0
 10
434.51279929683221
 20
819.76681683565096
 30
0.0
 11
434.51279929683221
 21
929.908056835651
 31
0.0
  0
LINE
  5
329A
  8
AM_0
 10
400.0127992968321
 20
855.24154683565098
 30
0.0
 11
434.51279929683221
 21
855.24154683565098
 31
0.0
  0
LINE
  5
329B
  8
AM_0
 10
386.31540929683217
 20
804.99838683565088
 30
0.0
 11
386.31540929683217
 21
826.99893683565097
 31
0.0
  0
ARC
  5
329C
  8
AM_0
 10
383.31540929683229
 20
831.76687683565081
 30
0.0
 40
3.0
 50
269.999989999999
 51
0.0000006832429909
  0
LINE
  5
329D
  8
AM_0
 10
390.01272929683222
 20
855.24154683565098
 30
0.0
 11
400.01272929683222
 21
855.24154683565098
 31
0.0
  0
ARC
  5
329E
  8
AM_0
 10
429.01285929683218
 20
815.76687683565103
 30
0.0
 40
3.9999962
 50
90.00000299999769
 51
270.0
  0
LINE
  5
329F
  8
AM_0
 10
400.0127992968321
 20
889.26687683565092
 30
0.0
 11
429.68722929683219
 21
890.30313683565078
 31
0.0
  0
LINE
  5
32A0
  8
AM_0
 10
400.0127992968321
 20
877.34549683565081
 30
0.0
 11
434.51279929683221
 21
877.34549683565081
 31
0.0
  0
ARC
  5
32A1
  8
AM_0
 10
394.01272929683222
 20
885.05490683565097
 30
0.0
 40
4.0
 50
91.999998000000545
 51
180.00001000000091
  0
LINE
  5
32A2
  8
AM_0
 10
390.01272929683222
 20
877.34555683565077
 30
0.0
 11
400.01272929683222
 21
877.34555683565077
 31
0.0
  0
ARC
  5
32A3
  8
AM_0
 10
385.05020929683218
 20
885.87545683565088
 30
0.0
 40
5.0
 50
315.0
 51
354.76905999999741
  0
LINE
  5
32A4
  8
AM_0
 10
381.80514929683233
 20
875.55923683565095
 30
0.0
 11
388.58578929683222
 21
882.33987683565101
 31
0.0
  0
ARC
  5
32A5
  8
AM_0
 10
378.26956929683229
 20
879.09475683565086
 30
0.0
 40
5.0
 50
272.00000000000369
 51
315.0
  0
LINE
  5
32A6
  8
AM_0
 10
393.8731492968322
 20
889.05246683565053
 30
0.0
 11
400.01272929683222
 21
889.26687683565092
 31
0.0
  0
ARC
  5
32A7
  8
AM_0
 10
429.51279929683221
 20
895.30014683565093
 30
0.0
 40
5.0
 50
272.00000000000369
 51
0.0
  0
ARC
  5
32A8
  8
AM_0
 10
462.01285929683218
 20
815.76687683565103
 30
0.0
 40
3.9999962
 50
270.0
 51
90.00000299999769
  0
LINE
  5
32A9
  8
AM_0
 10
461.5127992968321
 20
893.33267683565077
 30
0.0
 11
513.30856929683227
 21
893.33267683565077
 31
0.0
  0
ARC
  5
32AA
  8
AM_0
 10
517.20029929683233
 20
891.66897683565082
 30
0.0
 40
3.0
 50
120.8809700000043
 51
270.0
  0
ARC
  5
32AB
  8
AM_0
 10
513.30856929683227
 20
896.33267683565089
 30
0.0
 40
3.0
 50
270.0
 51
300.88098000000002
  0
ARC
  5
32AC
  8
AM_0
 10
451.51272929683228
 20
952.15377683565089
 30
0.0
 40
3.0
 50
91.999998000000545
 51
180.00001000000091
  0
ARC
  5
32AD
  8
AM_0
 10
445.5127992968321
 20
937.3946268356508
 30
0.0
 40
3.0
 50
280.00001000000128
 51
0.0
  0
ARC
  5
32AE
  8
AM_0
 10
450.51279929683221
 20
942.51187683565104
 30
0.0
 40
2.0
 50
91.999998000000545
 51
180.00001000000091
  0
LINE
  5
32AF
  8
AM_0
 10
436.99185929683222
 20
932.84585683565092
 30
0.0
 11
446.03372929683229
 21
934.44021683565086
 31
0.0
  0
LINE
  5
32B0
  8
AM_0
 10
450.44302929683209
 20
944.51065683565093
 30
0.0
 11
461.5127992968321
 21
944.89724683565078
 31
0.0
  0
LINE
  5
32B1
  8
AM_0
 10
451.40805929683228
 20
955.15194683565085
 30
0.0
 11
461.5127992968321
 21
955.50479683565095
 31
0.0
  0
POLYLINE
  5
32B2
  8
AM_0
 66
     1
 10
0.0
 20
0.0
 30
0.0
  0
VERTEX
  5
32B3
  8
AM_0
 10
559.51279929683233
 20
934.95974683565078
 30
0.0
  0
VERTEX
  5
32B4
  8
AM_0
 10
551.85396929683236
 20
915.88905683565088
 30
0.0
 42
-1.0
  0
SEQEND
  5
32B5
  8
AM_0
  0
ARC
  5
32B6
  8
AM_0
 10
562.51279929683233
 20
926.72415683565077
 30
0.0
 40
5.0
 50
0.0
 51
91.999998000000545
  0
LINE
  5
32B7
  8
AM_0
 10
597.51279929683233
 20
821.76687683565081
 30
0.0
 11
653.51279929683233
 21
821.76687683565081
 31
0.0
  0
LINE
  5
32B8
  8
AM_0
 10
597.51279929683233
 20
809.76687683565092
 30
0.0
 11
653.51279929683233
 21
809.76687683565092
 31
0.0
  0
LINE
  5
32B9
  8
AM_0
 10
583.51279929683233
 20
836.76687683565092
 30
0.0
 11
653.51279929683233
 21
836.76687683565092
 31
0.0
  0
ARC
  5
32BA
  8
AM_0
 10
597.51279929683233
 20
815.76687683565103
 30
0.0
 40
6.0000037999999991
 50
90.00000299999769
 51
270.0
  0
LINE
  5
32BB
  8
AM_0
 10
597.51279929683233
 20
821.76687683565081
 30
0.0
 11
597.51279929683233
 21
809.76687683565092
 31
0.0
  0
LINE
  5
32BC
  8
AM_0
 10
581.51279929683233
 20
838.26687683565092
 30
0.0
 11
583.51279929683233
 21
838.26687683565092
 31
0.0
  0
ARC
  5
32BD
  8
AM_0
 10
564.51279929683233
 20
881.90127683565095
 30
0.0
 40
5.0
 50
179.9999899999988
 51
270.0
  0
LINE
  5
32BE
  8
AM_0
 10
549.38138929683225
 20
888.66897683565094
 30
0.0
 11
559.51279929683233
 21
896.22708683565077
 31
0.0
  0
ARC
  5
32BF
  8
AM_0
 10
554.51279929683233
 20
923.30465683565103
 30
0.0
 40
5.0
 50
300.88098000000002
 51
0.0
  0
LINE
  5
32C0
  8
AM_0
 10
562.40799929683214
 20
957.73947683565098
 30
0.0
 11
577.51279929683233
 21
958.26693683565099
 31
0.0
  0
ARC
  5
32C1
  8
AM_0
 10
562.51279929683233
 20
954.74124683565105
 30
0.0
 40
3.0
 50
91.999998000000545
 51
180.00001000000091
  0
LINE
  5
32C2
  8
AM_0
 10
577.51279929683233
 20
935.76687683565092
 30
0.0
 11
581.51279929683233
 21
935.76687683565092
 31
0.0
  0
LINE
  5
32C3
  8
AM_0
 10
597.5127992968321
 20
445.23700235832428
 30
0.0
 11
653.5127992968321
 21
445.23700235832428
 31
0.0
  0
LINE
  5
32C4
  8
AM_0
 10
583.51279929683187
 20
442.23703235832409
 30
0.0
 11
653.5127992968321
 21
442.23703235832409
 31
0.0
  0
LINE
  5
32C5
  8
AM_0
 10
583.51279929683187
 20
400.23700235832422
 30
0.0
 11
653.5127992968321
 21
400.23700235832422
 31
0.0
  0
LINE
  5
32C6
  8
ﾁｭｳｼﾝｾﾝ
 10
418.73362086506881
 20
421.2370023583241
 30
0.0
 11
657.984199296832
 21
421.23700235832422
 31
0.0
  0
LINE
  5
32C7
  8
AM_0
 10
581.5127992968321
 20
421.23700235832422
 30
0.0
 11
581.5127992968321
 21
541.23699735832429
 31
0.0
  0
LINE
  5
32C8
  8
AM_0
 10
567.51279929683187
 20
421.23700235832422
 30
0.0
 11
567.51279929683187
 21
532.19429735832432
 31
0.0
  0
LINE
  5
32C9
  8
AM_0
 10
558.37829929683255
 20
439.58993735832422
 30
0.0
 11
542.12534929683238
 21
488.72595235832449
 31
0.0
  0
LINE
  5
32CA
  8
AM_0
 10
577.5127992968321
 20
278.7369973583244
 30
0.0
 11
577.5127992968321
 21
563.73699735832417
 31
0.0
  0
LINE
  5
32CB
  8
AM_0
 10
559.5128492968322
 20
442.72384735832412
 30
0.0
 11
559.5128492968322
 21
560.21134735832425
 31
0.0
  0
LINE
  5
32CC
  8
AM_0
 10
461.5127992968321
 20
253.23699735832429
 30
0.0
 11
461.5127992968321
 21
513.23699735832429
 31
0.0
  0
LINE
  5
32CD
  8
AM_0
 10
448.51279929683221
 20
255.6223423583244
 30
0.0
 11
448.51279929683221
 21
510.85169735832437
 31
0.0
  0
LINE
  5
32CE
  8
AM_0
 10
434.5128492968322
 20
269.11245735832432
 30
0.0
 11
434.5128492968322
 21
511.23699735832417
 31
0.0
  0
LINE
  5
32CF
  8
AM_0
 10
352.51344929683199
 20
413.73764235832408
 30
0.0
 11
387.42959929683201
 21
448.65374735832432
 31
0.0
  0
LINE
  5
32D0
  8
AM_0
 10
351.01274929683228
 20
338.7414523583243
 30
0.0
 11
390.01274929683228
 21
338.7414523583243
 31
0.0
  0
LINE
  5
32D1
  8
AM_0
 10
350.15249929683227
 20
314.6148073583243
 30
0.0
 11
387.30029929683201
 21
313.31756735832431
 31
0.0
  0
LINE
  5
32D2
  8
AM_0
 10
365.16424929683222
 20
388.04287735832429
 30
0.0
 11
390.01274929683228
 21
343.6701023583243
 31
0.0
  0
LINE
  5
32D3
  8
AM_0
 10
351.90804929683202
 20
446.33813735832422
 30
0.0
 11
384.74069929683219
 21
447.48468235832422
 31
0.0
  0
LINE
  5
32D4
  8
ﾁｭｳｼﾝｾﾝ
 10
428.48254600429181
 20
355.23699735832429
 30
0.0
 11
278.93403680017468
 21
355.23699735832429
 31
0.0
  0
LINE
  5
32D5
  8
AM_0
 10
326.01269929683241
 20
298.73699735832417
 30
0.0
 11
326.01269929683241
 21
411.73703235832431
 31
0.0
  0
LINE
  5
32D6
  8
0
 10
295.01269929683252
 20
275.2369973583244
 30
0.0
 11
295.01269929683252
 21
435.23699735832417
 31
0.0
1001
GENIUS_GENOREF_13
1005
2F31
  0
LINE
  5
32D7
  8
0
 10
305.01269929683241
 20
433.23699735832429
 30
0.0
 11
305.01269929683241
 21
277.2369973583244
 31
0.0
1001
GENIUS_GENOREF_13
1005
2F31
  0
LINE
  5
32D8
  8
AM_0
 10
346.01274929683228
 20
333.7414523583243
 30
0.0
 11
346.01274929683228
 21
303.2981873583243
 31
0.0
  0
LINE
  5
32D9
  8
0
 10
306.94290030342722
 20
298.07106530342162
 30
0.0
 11
326.01269929683241
 21
298.73699735832417
 31
0.0
  0
LINE
  5
32DA
  8
AM_0
 10
326.01269929683241
 20
309.23698035832422
 30
0.0
 11
305.01269929683241
 21
309.23698035832422
 31
0.0
  0
LINE
  5
32DB
  8
AM_0
 10
326.01269929683241
 20
323.29955535832443
 30
0.0
 11
305.01269929683241
 21
323.29955535832443
 31
0.0
  0
LINE
  5
32DC
  8
0
 10
295.01269929683252
 20
275.2369973583244
 30
0.0
 11
303.01269929683241
 21
275.2369973583244
 31
0.0
  0
ARC
  5
32DD
  8
0
 10
303.01269929683241
 20
277.2369973583244
 30
0.0
 40
2.0
 50
270.0
 51
0.0
1001
GENIUS_GENOBJ-N-FIL_13
1002
{
1000
OWNER
1000
GEN
1002
}
1001
GENIUS_GENODEF_13
1002
{
1000
HIER
1070
     0
1002
}
1002
{
1000
MANEDIT
1070
     0
1002
}
1002
{
1000
NOSEL
1070
     0
1002
}
1002
{
1000
BEHIND
1070
     0
1002
}
1002
{
1000
OTHER
1070
     0
1002
}
1002
{
1000
REACTOR
1002
}
  0
ARC
  5
32DE
  8
0
 10
307.01269929683241
 20
296.07228364938351
 30
0.0
 40
2.0
 50
92.000000000003567
 51
180.0
1001
GENIUS_GENOBJ-N-FIL_13
1002
{
1000
OWNER
1000
GEN
1002
}
1001
GENIUS_GENODEF_13
1002
{
1000
HIER
1070
     0
1002
}
1002
{
1000
MANEDIT
1070
     0
1002
}
1002
{
1000
NOSEL
1070
     0
1002
}
1002
{
1000
BEHIND
1070
     0
1002
}
1002
{
1000
OTHER
1070
     0
1002
}
1002
{
1000
REACTOR
1002
}
  0
LINE
  5
32DF
  8
AM_0
 10
326.01269929683241
 20
298.73699735832417
 30
0.0
 11
342.15234929683231
 21
299.30062735832422
 31
0.0
  0
ARC
  5
32E0
  8
AM_0
 10
342.01284929683231
 20
303.2981873583243
 30
0.0
 40
4.000000049999997
 50
271.99999999999687
 51
0.0
  0
LINE
  5
32E1
  8
AM_0
 10
326.01269929683269
 20
309.23702735832438
 30
0.0
 11
346.01274929683228
 21
309.23702735832438
 31
0.0
  0
LINE
  5
32E2
  8
AM_0
 10
326.01269929683269
 20
322.43118235832452
 30
0.0
 11
346.01274929683228
 21
322.43118235832429
 31
0.0
  0
ARC
  5
32E3
  8
AM_0
 10
350.01274929683228
 20
310.61724735832422
 30
0.0
 40
4.000000049999997
 50
88.000000000002899
 51
180.00001000000091
  0
ARC
  5
32E4
  8
AM_0
 10
371.11579929683222
 20
398.23700235832428
 30
0.0
 40
3.0000000500000001
 50
315.0
 51
90.00000299999769
  0
LINE
  5
32E5
  8
AM_0
 10
326.01269929683241
 20
387.17443635832427
 30
0.0
 11
305.01269929683241
 21
387.17443635832427
 31
0.0
  0
ARC
  5
32E6
  8
AM_0
 10
351.01274929683228
 20
333.7414523583243
 30
0.0
 40
5.0
 50
90.00000299999769
 51
180.00001000000091
  0
LINE
  5
32E7
  8
AM_0
 10
326.01269929683269
 20
388.04284735832431
 30
0.0
 11
365.16424929683222
 21
388.0428473583242
 31
0.0
  0
LINE
  5
32E8
  8
AM_0
 10
365.1642992968321
 20
388.04281735832433
 30
0.0
 11
373.23719929683222
 21
396.1156623583243
 31
0.0
  0
LINE
  5
32E9
  8
0
 10
306.94290030342722
 20
412.40292941322713
 30
0.0
 11
326.01269929683241
 21
411.73699735832417
 31
0.0
  0
LINE
  5
32EA
  8
AM_0
 10
326.01269929683241
 20
401.23699635832429
 30
0.0
 11
305.01269929683241
 21
401.23699635832429
 31
0.0
  0
ARC
  5
32EB
  8
0
 10
303.01269929683241
 20
433.23699735832429
 30
0.0
 40
2.0
 50
0.0
 51
90.0
1001
GENIUS_GENOBJ-N-FIL_13
1002
{
1000
OWNER
1000
GEN
1002
}
1001
GENIUS_GENODEF_13
1002
{
1000
HIER
1070
     0
1002
}
1002
{
1000
MANEDIT
1070
     0
1002
}
1002
{
1000
NOSEL
1070
     0
1002
}
1002
{
1000
BEHIND
1070
     0
1002
}
1002
{
1000
OTHER
1070
     0
1002
}
1002
{
1000
REACTOR
1002
}
  0
ARC
  5
32EC
  8
0
 10
307.01269929683241
 20
414.4017110672653
 30
0.0
 40
2.0
 50
180.0
 51
267.99999999999631
1001
GENIUS_GENOBJ-N-FIL_13
1002
{
1000
OWNER
1000
GEN
1002
}
1001
GENIUS_GENODEF_13
1002
{
1000
HIER
1070
     0
1002
}
1002
{
1000
MANEDIT
1070
     0
1002
}
1002
{
1000
NOSEL
1070
     0
1002
}
1002
{
1000
BEHIND
1070
     0
1002
}
1002
{
1000
OTHER
1070
     0
1002
}
1002
{
1000
REACTOR
1002
}
  0
LINE
  5
32ED
  8
0
 10
295.01269929683252
 20
435.23699735832417
 30
0.0
 11
303.01269929683241
 21
435.23699735832417
 31
0.0
  0
LINE
  5
32EE
  8
AM_0
 10
349.01274929683228
 20
443.33993735832428
 30
0.0
 11
349.01274929683228
 21
416.6936973583243
 31
0.0
  0
LINE
  5
32EF
  8
AM_0
 10
351.39924929683229
 20
412.62356735832418
 30
0.0
 11
357.77564929683228
 21
401.23706235832418
 31
0.0
  0
LINE
  5
32F0
  8
AM_0
 10
326.01269929683269
 20
401.2370023583245
 30
0.0
 11
371.11579929683222
 21
401.23700235832422
 31
0.0
  0
ARC
  5
32F1
  8
AM_0
 10
346.01274929683228
 20
416.6936973583243
 30
0.0
 40
3.0000000500000001
 50
309.6297900000003
 51
0.0
  0
LINE
  5
32F2
  8
AM_0
 10
326.01269929683241
 20
411.73703235832431
 30
0.0
 11
344.1929492968323
 21
412.37188735832422
 31
0.0
  0
ARC
  5
32F3
  8
AM_0
 10
349.68499929683202
 20
416.5661023583242
 30
0.0
 40
4.000000049999997
 50
271.99999999999687
 51
315.0
  0
ARC
  5
32F4
  8
AM_0
 10
344.0533992968322
 20
416.36944735832429
 30
0.0
 40
4.000000049999997
 50
271.99999999999687
 51
309.6297900000003
  0
LINE
  5
32F5
  8
AM_0
 10
347.92624929683228
 20
414.38311735832423
 30
0.0
 11
346.604699296832
 21
413.2886973583245
 31
0.0
  0
LINE
  5
32F6
  8
AM_0
 10
344.1929492968323
 20
412.37188735832422
 30
0.0
 11
349.8244992968323
 21
412.56854235832418
 31
0.0
  0
ARC
  5
32F7
  8
AM_0
 10
352.0128492968322
 20
443.33993735832428
 30
0.0
 40
3.0000000500000001
 50
91.999998000000545
 51
180.00001000000091
  0
LINE
  5
32F8
  8
AM_0
 10
400.01274929683228
 20
309.23702735832438
 30
0.0
 11
400.01274929683228
 21
457.23703235832443
 31
0.0
  0
LINE
  5
32F9
  8
AM_0
 10
390.01274929683228
 20
312.1245123583243
 30
0.0
 11
390.01274929683228
 21
452.80291735832418
 31
0.0
  0
LINE
  5
32FA
  8
AM_0
 10
559.5128492968322
 20
281.21502735832422
 30
0.0
 11
559.5128492968322
 21
329.73016235832432
 31
0.0
  0
LINE
  5
32FB
  8
AM_0
 10
567.51279929683187
 20
421.23700235832422
 30
0.0
 11
567.51279929683187
 21
310.27969235832438
 31
0.0
  0
LINE
  5
32FC
  8
AM_0
 10
581.5127992968321
 20
421.23700235832422
 30
0.0
 11
581.5127992968321
 21
301.23699735832417
 31
0.0
  0
LINE
  5
32FD
  8
AM_0
 10
461.5127992968321
 20
253.2369823583243
 30
0.0
 11
521.24134929683225
 21
251.67294235832441
 31
0.0
  0
LINE
  5
32FE
  8
AM_0
 10
448.51279929683221
 20
275.97653235832439
 30
0.0
 11
563.33624929683253
 21
275.97653235832439
 31
0.0
  0
LINE
  5
32FF
  8
AM_0
 10
448.51279929683221
 20
261.51971235832423
 30
0.0
 11
538.29644929683195
 21
261.51971235832423
 31
0.0
  0
LINE
  5
3300
  8
AM_0
 10
489.51284929683209
 20
300.43273735832418
 30
0.0
 11
559.5128492968322
 21
300.43273735832418
 31
0.0
  0
LINE
  5
3301
  8
AM_0
 10
489.51284929683209
 20
319.87503235832418
 30
0.0
 11
559.5128492968322
 21
319.87503235832418
 31
0.0
  0
ARC
  5
3302
  8
AM_0
 10
450.51279929683221
 20
255.6223423583244
 30
0.0
 40
2.0000000500000001
 50
179.9999899999988
 51
268.00000999999861
  0
LINE
  5
3303
  8
AM_0
 10
450.44299929683223
 20
253.6235323583243
 30
0.0
 11
461.5128492968322
 21
253.23696735832431
 31
0.0
  0
ARC
  5
3304
  8
AM_0
 10
437.51279929683221
 20
269.11245735832432
 30
0.0
 40
3.0000000500000001
 50
179.9999899999988
 51
260.00000000000119
  0
LINE
  5
3305
  8
AM_0
 10
407.75134929683202
 20
300.49743735832431
 30
0.0
 11
431.77424929683229
 21
298.39569235832431
 31
0.0
  0
LINE
  5
3306
  8
AM_0
 10
390.01274929683228
 20
321.65835735832422
 30
0.0
 11
434.5128492968322
 21
321.65835735832422
 31
0.0
  0
LINE
  5
3307
  8
AM_0
 10
405.01274929683211
 20
303.48599235832438
 30
0.0
 11
405.01274929683211
 21
321.23699735832417
 31
0.0
  0
ARC
  5
3308
  8
AM_0
 10
402.01284929683209
 20
306.66534235832432
 30
0.0
 40
3.0000000500000001
 50
0.0
 51
88.000000000002899
  0
ARC
  5
3309
  8
AM_0
 10
408.01274929683228
 20
303.48599235832438
 30
0.0
 40
3.0000000500000001
 50
179.9999899999988
 51
265.00000000000028
  0
LINE
  5
330A
  8
AM_0
 10
393.87324929683223
 20
309.45141735832431
 30
0.0
 11
400.01289929683219
 21
309.23699735832417
 31
0.0
  0
ARC
  5
330B
  8
AM_0
 10
387.1606492968325
 20
309.32000735832429
 30
0.0
 40
4.000000049999997
 50
31.072340999998989
 51
88.000000000002899
  0
ARC
  5
330C
  8
AM_0
 10
394.01274929683223
 20
313.44897235832423
 30
0.0
 40
4.000000049999997
 50
211.0723399999998
 51
268.0000000000029
  0
LINE
  5
330D
  8
AM_0
 10
400.01274929683228
 20
309.73699735832417
 30
0.0
 11
402.11749929683219
 21
309.66351235832423
 31
0.0
  0
ARC
  5
330E
  8
AM_0
 10
431.51279929683221
 20
295.40710235832432
 30
0.0
 40
3.0000000500000001
 50
0.0
 51
84.999996999998572
  0
ARC
  5
330F
  8
AM_0
 10
445.51279929683199
 20
261.60928235832432
 30
0.0
 40
3.0000000500000001
 50
0.0
 51
79.999998000001099
  0
LINE
  5
3310
  8
AM_0
 10
436.9918492968323
 20
266.15804735832438
 30
0.0
 11
446.0337492968323
 21
264.56368735832439
 31
0.0
  0
LINE
  5
3311
  8
AM_0
 10
489.51284929683209
 20
302.2793873583243
 30
0.0
 11
489.51284929683209
 21
318.37939235832431
 31
0.0
  0
ARC
  5
3312
  8
AM_0
 10
489.51284929683209
 20
310.15389735832417
 30
0.0
 40
9.7211409999999994
 50
90.00000299999769
 51
270.0
  0
LINE
  5
3313
  8
AM_0
 10
521.24129929683238
 20
251.67298735832441
 30
0.0
 11
567.51279929683187
 21
278.38784735832422
 31
0.0
  0
LINE
  5
3314
  8
AM_0
 10
562.61739929683233
 20
278.21685735832432
 30
0.0
 11
577.51269929683235
 21
278.7369973583244
 31
0.0
  0
ARC
  5
3315
  8
AM_0
 10
562.51279929683221
 20
281.21502735832422
 30
0.0
 40
3.0000000500000001
 50
179.9999899999988
 51
271.99999000000139
  0
ARC
  5
3316
  8
AM_0
 10
562.51279929683221
 20
310.27969235832438
 30
0.0
 40
5.0
 50
268.0000000000029
 51
0.0
  0
LINE
  5
3317
  8
AM_0
 10
577.5127992968321
 20
301.23699735832417
 30
0.0
 11
581.5127992968321
 21
301.23699735832417
 31
0.0
  0
LINE
  5
3318
  8
AM_0
 10
448.51279929683221
 20
393.21801735832429
 30
0.0
 11
567.51279929683187
 21
393.21801735832429
 31
0.0
  0
LINE
  5
3319
  8
AM_0
 10
448.51279929683221
 20
373.25601235832431
 30
0.0
 11
567.51279929683187
 21
373.25601235832431
 31
0.0
  0
LINE
  5
331A
  8
AM_0
 10
390.01274929683228
 20
343.76232735832428
 30
0.0
 11
434.5128492968322
 21
343.76232735832428
 31
0.0
  0
LINE
  5
331B
  8
AM_0
 10
390.01274929683228
 20
422.71167235832422
 30
0.0
 11
434.5128492968322
 21
422.71167235832422
 31
0.0
  0
LINE
  5
331C
  8
AM_0
 10
390.01274929683228
 20
444.81564235832428
 30
0.0
 11
434.5128492968322
 21
444.81564235832428
 31
0.0
  0
LINE
  5
331D
  8
AM_0
 10
400.01269929683201
 20
456.73703235832443
 30
0.0
 11
429.68719929683232
 21
457.7732873583243
 31
0.0
  0
ARC
  5
331E
  8
AM_0
 10
386.0137992968323
 20
452.89492735832431
 30
0.0
 40
4.000000049999997
 50
315.0
 51
0.9319899800013384
  0
ARC
  5
331F
  8
AM_0
 10
384.60114929683232
 20
451.48220735832427
 30
0.0
 40
4.000000049999997
 50
271.99999999999687
 51
315.0
  0
LINE
  5
3320
  8
AM_0
 10
387.42959929683201
 20
448.65374735832432
 30
0.0
 11
388.84229929683221
 21
450.06646735832419
 31
0.0
  0
LINE
  5
3321
  8
AM_0
 10
393.8731492968322
 20
457.02261735832423
 30
0.0
 11
400.01269929683201
 21
457.23700235832428
 31
0.0
  0
ARC
  5
3322
  8
AM_0
 10
394.01274929683223
 20
453.0250573583242
 30
0.0
 40
4.000000049999997
 50
91.999998000000545
 51
180.9319799999995
  0
ARC
  5
3323
  8
AM_0
 10
429.51284929683231
 20
462.77023235832428
 30
0.0
 40
5.0
 50
271.99999999999687
 51
0.0
  0
ARC
  5
3324
  8
AM_0
 10
564.51284929683231
 20
329.73016235832432
 30
0.0
 40
5.0
 50
90.00000299999769
 51
180.00001000000091
  0
LINE
  5
3325
  8
AM_0
 10
583.51279929683187
 20
398.73700235832428
 30
0.0
 11
583.51279929683187
 21
443.73700235832422
 31
0.0
  0
LINE
  5
3326
  8
AM_0
 10
581.5127992968321
 20
398.73700235832428
 30
0.0
 11
583.51279929683187
 21
398.73700235832428
 31
0.0
  0
ARC
  5
3327
  8
AM_0
 10
563.12534929683238
 20
441.16015735832428
 30
0.0
 40
5.0
 50
198.30292000000031
 51
270.0
  0
LINE
  5
3328
  8
AM_0
 10
563.12534929683238
 20
436.16015735832423
 30
0.0
 11
567.51279929683187
 21
436.16015735832423
 31
0.0
  0
LINE
  5
3329
  8
AM_0
 10
581.5127992968321
 20
443.73700235832422
 30
0.0
 11
583.51279929683187
 21
443.73700235832422
 31
0.0
  0
LINE
  5
332A
  8
AM_0
 10
597.5127992968321
 20
445.23700235832428
 30
0.0
 11
597.5127992968321
 21
442.23703235832409
 31
0.0
  0
LINE
  5
332B
  8
AM_0
 10
448.51279929683221
 20
490.49753235832429
 30
0.0
 11
510.57429929683218
 21
490.49753235832429
 31
0.0
  0
LINE
  5
332C
  8
AM_0
 10
448.51279929683221
 20
504.9542973583242
 30
0.0
 11
524.42329929683217
 21
504.9542973583242
 31
0.0
  0
LINE
  5
332D
  8
AM_0
 10
461.5127992968321
 20
513.23699735832429
 30
0.0
 11
531.40099929683254
 21
515.06714735832406
 31
0.0
  0
ARC
  5
332E
  8
AM_0
 10
445.51279929683199
 20
533.73699735832429
 30
0.0
 40
20.500000499999992
 50
304.61364000000401
 51
235.3863500000021
  0
CIRCLE
  5
332F
  8
AM_0
 10
445.51279929683199
 20
533.73699735832429
 30
0.0
 40
12.5
  0
LINE
  5
3330
  8
AM_0
 10
435.51279929683221
 20
512.73699735832429
 30
0.0
 11
437.2249992968321
 21
519.12714735832424
 31
0.0
  0
LINE
  5
3331
  8
AM_0
 10
435.18989929683221
 20
512.73704735832405
 30
0.0
 11
449.84549929683237
 21
512.73704735832405
 31
0.0
  0
ARC
  5
3332
  8
AM_0
 10
437.51279929683221
 20
497.36157235832422
 30
0.0
 40
3.0000000500000001
 50
99.999999999998593
 51
180.00001000000091
  0
ARC
  5
3333
  8
AM_0
 10
431.59579929683201
 20
513.5734973583244
 30
0.0
 40
4.000000049999997
 50
347.9293300000017
 51
55.386359000001512
  0
ARC
  5
3334
  8
AM_0
 10
436.5127992968321
 20
511.23699735832417
 30
0.0
 40
2.0000000500000001
 50
131.4096200000032
 51
180.00001000000091
  0
LINE
  5
3335
  8
AM_0
 10
436.9918492968323
 20
500.31589735832421
 30
0.0
 11
446.0337492968323
 21
501.9102973583245
 31
0.0
  0
ARC
  5
3336
  8
AM_0
 10
445.51279929683199
 20
504.86474735832422
 30
0.0
 40
3.0000000500000001
 50
279.99999999999852
 51
0.0
  0
ARC
  5
3337
  8
AM_0
 10
450.51279929683221
 20
510.85169735832437
 30
0.0
 40
2.0000000500000001
 50
91.999998000000545
 51
180.00001000000091
  0
LINE
  5
3338
  8
AM_0
 10
437.69564929683219
 20
519.73704735832428
 30
0.0
 11
453.32984929683221
 21
519.73704735832428
 31
0.0
  0
LINE
  5
3339
  8
AM_0
 10
445.51269929683201
 20
521.23704735832405
 30
0.0
 11
453.01614929683222
 21
519.85169735832426
 31
0.0
  0
LINE
  5
333A
  8
AM_0
 10
438.00939929683233
 20
519.85169735832426
 30
0.0
 11
445.5128492968322
 21
521.23699735832429
 31
0.0
  0
ARC
  5
333B
  8
AM_0
 10
438.19094929683229
 20
518.8682973583243
 30
0.0
 40
1.0
 50
100.4607200000025
 51
164.99999000000179
  0
ARC
  5
333C
  8
AM_0
 10
459.42969929683221
 20
513.5734973583244
 30
0.0
 40
4.000000049999997
 50
124.6136499999977
 51
187.86824999999891
  0
LINE
  5
333D
  8
AM_0
 10
455.43574929683211
 20
513.02479735832435
 30
0.0
 11
453.80059929683199
 21
519.12714735832424
 31
0.0
  0
LINE
  5
333E
  8
AM_0
 10
459.5128492968322
 20
513.1671973583243
 30
0.0
 11
459.5128492968322
 21
513.23704735832405
 31
0.0
  0
LINE
  5
333F
  8
AM_0
 10
450.4429492968323
 20
512.85054735832432
 30
0.0
 11
461.51269929683218
 21
513.23704735832405
 31
0.0
  0
LINE
  5
3340
  8
AM_0
 10
459.5128492968322
 20
513.23704735832405
 30
0.0
 11
461.5127992968321
 21
513.23704735832405
 31
0.0
  0
ARC
  5
3341
  8
AM_0
 10
452.83469929683213
 20
518.8682973583243
 30
0.0
 40
1.0
 50
15.000000000000741
 51
79.539281000002589
  0
ARC
  5
3342
  8
AM_0
 10
554.51284929683231
 20
543.3080473583243
 30
0.0
 40
5.0
 50
315.0
 51
0.0
  0
LINE
  5
3343
  8
AM_0
 10
557.07904929683252
 20
524.48359735832435
 30
0.0
 11
520.02014929683253
 21
502.32099735832418
 31
0.0
  0
LINE
  5
3344
  8
AM_0
 10
534.80569929683202
 20
516.52984735832433
 30
0.0
 11
558.04834929683227
 21
539.77254735832435
 31
0.0
  0
LINE
  5
3345
  8
AM_0
 10
557.36544929683248
 20
518.2406473583244
 30
0.0
 11
515.60729929683225
 21
493.26776235832421
 31
0.0
  0
LINE
  5
3346
  8
AM_0
 10
543.45554929683215
 20
489.7183223583242
 30
0.0
 11
559.51279929683221
 21
501.69719735832427
 31
0.0
  0
LINE
  5
3347
  8
AM_0
 10
513.01279929683221
 20
488.72592235832411
 30
0.0
 11
540.46579929683219
 21
488.72592235832411
 31
0.0
  0
ARC
  5
3348
  8
AM_0
 10
491.7125992968322
 20
515.03209735832434
 30
0.0
 40
30.946884499999999
 50
307.55230999999719
 51
335.59612999999888
  0
ARC
  5
3349
  8
AM_0
 10
513.01279929683221
 20
493.72592235832423
 30
0.0
 40
5.0
 50
229.76332999999909
 51
270.0
  0
ARC
  5
334A
  8
AM_0
 10
540.46579929683219
 20
493.72592235832423
 30
0.0
 40
5.0
 50
270.0
 51
306.72320999999818
  0
ARC
  5
334B
  8
AM_0
 10
531.27009929683231
 20
520.06534735832406
 30
0.0
 40
5.0
 50
271.50000000000261
 51
315.0
  0
LINE
  5
334C
  8
AM_0
 10
534.72049929683237
 20
511.1123473583242
 30
0.0
 11
533.39509929683186
 21
515.11934735832415
 31
0.0
  0
ARC
  5
334D
  8
AM_0
 10
554.51284929683231
 20
528.77479735832435
 30
0.0
 40
5.0
 50
300.88098000000002
 51
0.0
  0
ARC
  5
334E
  8
AM_0
 10
562.51279929683221
 20
532.19429735832432
 30
0.0
 40
5.0
 50
0.0
 51
91.999998000000545
  0
LINE
  5
334F
  8
AM_0
 10
577.5127992968321
 20
541.23699735832429
 30
0.0
 11
581.5127992968321
 21
541.23699735832429
 31
0.0
  0
LINE
  5
3350
  8
AM_0
 10
562.40804929683225
 20
563.20954735832447
 30
0.0
 11
577.5127992968321
 21
563.73699735832417
 31
0.0
  0
ARC
  5
3351
  8
AM_0
 10
562.51279929683221
 20
560.21134735832425
 30
0.0
 40
3.0000000500000001
 50
91.999998000000545
 51
180.00001000000091
  0
LINE
  5
3352
  8
AM_0
 10
1016.888803887474
 20
493.74093735832429
 30
0.0
 11
987.69483388747494
 21
464.5469673583242
 31
0.0
  0
ARC
  5
3353
  8
AM_0
 10
897.53940888747411
 20
475.15359735832419
 30
0.0
 40
5.0
 50
225.0
 51
306.41631999999822
  0
LINE
  5
3354
  8
AM_0
 10
857.73883888747457
 20
493.74093735832429
 30
0.0
 11
886.93283888747453
 21
464.5469373583241
 31
0.0
  0
ARC
  5
3355
  8
AM_0
 10
977.08823888747463
 20
475.15359735832419
 30
0.0
 40
5.0
 50
233.58368000000161
 51
315.0
  0
LINE
  5
3356
  8
AM_0
 10
1079.813838887474
 20
471.23700235832422
 30
0.0
 11
1079.813838887474
 21
421.23700235832422
 31
0.0
  0
LINE
  5
3357
  8
AM_0
 10
794.81380888747435
 20
471.23700235832422
 30
0.0
 11
794.81380888747435
 21
421.23700235832422
 31
0.0
  0
ARC
  5
3358
  8
AM_0
 10
937.31382388747477
 20
383.23700235832428
 30
0.0
 40
122.0
 50
124.67318000000159
 51
157.4280199999998
  0
ARC
  5
3359
  8
AM_0
 10
937.31382388747477
 20
383.23700235832428
 30
0.0
 40
122.0
 50
22.571976999999318
 51
55.326819999998243
  0
CIRCLE
  5
335A
  8
AM_0
 10
937.31382388747477
 20
421.23700235832422
 30
0.0
 40
113.0
  0
CIRCLE
  5
335B
  8
AM_0
 10
937.31382388747477
 20
421.23700235832422
 30
0.0
 40
120.0
  0
LINE
  5
335C
  8
ﾁｭｳｼﾝｾﾝ
 10
937.31382388747477
 20
568.39077679120044
 30
0.0
 11
937.31382388747477
 21
249.6087668479633
 31
0.0
  0
LINE
  5
335D
  8
AM_0
 10
1058.985668887474
 20
281.23986735832432
 30
0.0
 11
987.31382388747477
 21
278.73702735832438
 31
0.0
  0
LINE
  5
335E
  8
AM_0
 10
1042.836343887474
 20
393.23700235832428
 30
0.0
 11
1007.313823887475
 21
393.23700235832428
 31
0.0
  0
LINE
  5
335F
  8
ﾁｭｳｼﾝｾﾝ
 10
788.6480237772638
 20
421.23700235832422
 30
0.0
 11
1085.7102561247041
 21
421.2370023583245
 31
0.0
  0
ARC
  5
3360
  8
AM_0
 10
816.30506388747483
 20
300.22827235832432
 30
0.0
 40
19.000000499999999
 50
182.0000000000004
 51
268.0000000000029
  0
ARC
  5
3361
  8
ﾁｭｳｼﾝｾﾝ1
 10
937.31382388747136
 20
421.23700235832172
 30
0.0
 40
170.0000049999955
 50
218.7196975924563
 51
231.01461
  0
LINE
  5
3362
  8
AM_0
 10
797.31670888747453
 20
299.56518235832431
 30
0.0
 11
794.81380888747435
 21
371.23703235832431
 31
0.0
  0
LINE
  5
3363
  8
AM_0
 10
653.5127992968321
 20
400.23700235832422
 30
0.0
 11
653.5127992968321
 21
445.23700235832428
 31
0.0
  0
LINE
  5
3364
  8
AM_0
 10
794.81380888747435
 20
371.23699735832429
 30
0.0
 11
794.81380888747435
 21
421.23700235832422
 31
0.0
  0
ARC
  5
3365
  8
AM_0
 10
937.31382388747477
 20
383.23700235832428
 30
0.0
 40
130.0
 50
246.6310400000028
 51
293.36895999999689
  0
LINE
  5
3366
  8
AM_0
 10
887.31381888747444
 20
278.7369973583244
 30
0.0
 11
937.31382388747477
 21
278.7369973583244
 31
0.0
  0
LINE
  5
3367
  8
AM_0
 10
815.64200888747439
 20
281.23983735832422
 30
0.0
 11
887.31381888747444
 21
278.7369973583244
 31
0.0
  0
LINE
  5
3368
  8
AM_0
 10
862.65454888747479
 20
268.06552235832442
 30
0.0
 11
859.53519388747452
 21
279.70709235832442
 31
0.0
  0
LINE
  5
3369
  8
ﾁｭｳｼﾝｾﾝ1
 10
806.15417482069643
 20
290.07736768362861
 30
0.0
 11
827.89110644980622
 21
311.81431191007721
 31
0.0
  0
CIRCLE
  5
336A
  8
AM_0
 10
817.10565888747476
 20
301.02886735832431
 30
0.0
 40
9.5
  0
ARC
  5
336B
  8
AM_0
 10
872.31381888747421
 20
270.6537173583244
 30
0.0
 40
10.0
 50
195.0000099999981
 51
285.00000000000148
  0
LINE
  5
336C
  8
AM_0
 10
874.90198388747456
 20
260.99444235832442
 30
0.0
 11
885.74921388747453
 21
263.90093735832443
 31
0.0
  0
LINE
  5
336D
  8
AM_0
 10
987.31382388747477
 20
278.7369973583244
 30
0.0
 11
937.31382388747477
 21
278.7369973583244
 31
0.0
  0
ARC
  5
336E
  8
AM_0
 10
1002.313823887474
 20
270.6537173583244
 30
0.0
 40
10.0
 50
254.99999999999821
 51
344.99999999999909
  0
LINE
  5
336F
  8
AM_0
 10
999.7256888874748
 20
260.99444235832442
 30
0.0
 11
988.87842888747434
 21
263.90093735832443
 31
0.0
  0
LINE
  5
3370
  8
AM_0
 10
1011.973123887474
 20
268.06548735832439
 30
0.0
 11
1015.092478887475
 21
279.70703235832428
 31
0.0
  0
CIRCLE
  5
3371
  8
AM_0
 10
937.31382388747477
 20
421.23700235832422
 30
0.0
 40
41.000000499999992
  0
ARC
  5
3372
  8
AM_0
 10
937.31382388747477
 20
421.23700235832422
 30
0.0
 40
20.9999985
 50
106.6015499999988
 51
73.398451999997818
  0
LINE
  5
3373
  8
ﾁｭｳｼﾝｾﾝ
 10
862.15951263948045
 20
355.23700235832428
 30
0.0
 11
1012.468135135469
 21
355.23700235832428
 31
0.0
  0
ARC
  5
3374
  8
AM_0
 10
867.31381888747433
 20
401.23700235832422
 30
0.0
 40
8.0
 50
270.0
 51
0.0
  0
LINE
  5
3375
  8
AM_0
 10
831.79132888747449
 20
393.23700235832428
 30
0.0
 11
867.31381888747433
 21
393.23700235832428
 31
0.0
  0
ARC
  5
3376
  8
AM_0
 10
831.79132888747449
 20
398.23700235832428
 30
0.0
 40
5.0
 50
192.29603999999881
 51
270.0
  0
ARC
  5
3377
  8
AM_0
 10
937.31382388747477
 20
421.23700235832422
 30
0.0
 40
61.999994999999998
 50
142.1149900000004
 51
180.00001000000091
  0
LINE
  5
3378
  8
AM_0
 10
875.31381888747455
 20
421.23700235832422
 30
0.0
 11
875.31381888747455
 21
401.23700235832422
 31
0.0
  0
ARC
  5
3379
  8
AM_0
 10
883.39728888747413
 20
461.01144735832429
 30
0.0
 40
5.0
 50
323.58368000000172
 51
45.00000100000149
  0
ARC
  5
337A
  8
AM_0
 10
1007.313823887475
 20
401.23700235832422
 30
0.0
 40
8.0
 50
179.9999899999988
 51
270.0
  0
CIRCLE
  5
337B
  8
AM_0
 10
937.31382388747477
 20
421.23700235832422
 30
0.0
 40
3.5000000500000001
  0
CIRCLE
  5
337C
  8
AM_5
 10
937.31382388747477
 20
421.23700235832422
 30
0.0
 40
5.0
  0
LINE
  5
337D
  8
AM_0
 10
931.31382388747465
 20
445.23700235832428
 30
0.0
 11
943.31382388747431
 21
445.23700235832428
 31
0.0
  0
LINE
  5
337E
  8
AM_0
 10
931.31382388747465
 20
437.2370323583242
 30
0.0
 11
943.31382388747431
 21
437.2370323583242
 31
0.0
  0
LINE
  5
337F
  8
AM_0
 10
931.31382388747465
 20
445.23700235832428
 30
0.0
 11
931.31382388747465
 21
437.2370323583242
 31
0.0
  0
LINE
  5
3380
  8
AM_0
 10
943.31382388747431
 20
445.23700235832428
 30
0.0
 11
943.31382388747431
 21
437.2370323583242
 31
0.0
  0
ARC
  5
3381
  8
AM_0
 10
937.31382388747477
 20
421.23700235832422
 30
0.0
 40
61.999994999999998
 50
0.0
 51
36.416318000003159
  0
LINE
  5
3382
  8
AM_0
 10
999.31382388747443
 20
421.23700235832422
 30
0.0
 11
999.31382388747443
 21
401.23700235832422
 31
0.0
  0
ARC
  5
3383
  8
AM_0
 10
991.23038888747442
 20
461.01144735832429
 30
0.0
 40
5.0
 50
135.0
 51
216.41631999999831
  0
LINE
  5
3384
  8
AM_0
 10
1077.3109988874739
 20
299.56518235832431
 30
0.0
 11
1079.813838887474
 21
371.23703235832431
 31
0.0
  0
ARC
  5
3385
  8
AM_0
 10
1058.3225838874739
 20
300.22827235832432
 30
0.0
 40
19.000000499999999
 50
271.99999999999687
 51
357.9999999999992
  0
CIRCLE
  5
3386
  8
AM_0
 10
1057.5219838874741
 20
301.02886735832431
 30
0.0
 40
9.5
  0
LINE
  5
3387
  8
AM_0
 10
1079.813838887474
 20
371.23699735832429
 30
0.0
 11
1079.813838887474
 21
421.23700235832422
 31
0.0
  0
ARC
  5
3388
  8
AM_0
 10
1042.836343887474
 20
398.23700235832428
 30
0.0
 40
5.0
 50
270.0
 51
347.70395000000082
  0
LINE
  5
3389
  8
AM_0
 10
1058.985668887474
 20
561.23419735832431
 30
0.0
 11
987.31385388747435
 21
563.73699735832417
 31
0.0
  0
ARC
  5
338A
  8
AM_0
 10
816.30506388747483
 20
542.24574735832425
 30
0.0
 40
19.000000499999999
 50
91.999998000000545
 51
177.9999999999994
  0
LINE
  5
338B
  8
AM_0
 10
797.31660888747422
 20
542.90879735832425
 30
0.0
 11
794.81380888747435
 21
471.2370323583242
 31
0.0
  0
ARC
  5
338C
  8
AM_0
 10
937.31382388747477
 20
421.23700235832422
 30
0.0
 40
61.999994999999998
 50
53.583681000000588
 51
126.41631999999819
  0
LINE
  5
338D
  8
AM_0
 10
887.31381888747444
 20
563.73699735832417
 30
0.0
 11
937.31382388747477
 21
563.73699735832417
 31
0.0
  0
CIRCLE
  5
338E
  8
AM_0
 10
817.10565888747476
 20
541.44514735832422
 30
0.0
 40
9.5
  0
ARC
  5
338F
  8
AM_0
 10
854.20328388747441
 20
490.20538735832417
 30
0.0
 40
5.0
 50
45.00000100000149
 51
140.31278000000091
  0
ARC
  5
3390
  8
AM_0
 10
868.34543888747453
 20
504.34754735832422
 30
0.0
 40
5.0
 50
129.6872200000015
 51
225.0
  0
LINE
  5
3391
  8
AM_0
 10
864.80991388747441
 20
500.81199735832428
 30
0.0
 11
894.00391388747482
 21
471.61801235832422
 31
0.0
  0
LINE
  5
3392
  8
AM_0
 10
815.64200888747439
 20
561.23419735832431
 30
0.0
 11
887.31385388747435
 21
563.73699735832417
 31
0.0
  0
ARC
  5
3393
  8
AM_0
 10
937.31382388747477
 20
383.23700235832428
 30
0.0
 40
122.0
 50
60.143060000003558
 51
86.162371999997163
  0
ARC
  5
3394
  8
AM_0
 10
945.81382388747431
 20
509.95224735832443
 30
0.0
 40
5.0
 50
179.9999899999988
 51
266.16236000000072
  0
ARC
  5
3395
  8
AM_0
 10
928.81382388747431
 20
509.95224735832443
 30
0.0
 40
5.0
 50
273.83763000000209
 51
0.0
  0
ARC
  5
3396
  8
AM_0
 10
937.31382388747477
 20
383.23700235832428
 30
0.0
 40
122.0
 50
93.837626000003567
 51
119.8569400000037
  0
ARC
  5
3397
  8
AM_0
 10
945.81382388747431
 20
528.90199735832425
 30
0.0
 40
5.0
 50
85.485944000000941
 51
180.00001000000091
  0
LINE
  5
3398
  8
AM_0
 10
933.81382388747477
 20
528.90199735832425
 30
0.0
 11
933.81382388747477
 21
509.95224735832443
 31
0.0
  0
LINE
  5
3399
  8
AM_0
 10
940.81382388747477
 20
528.90199735832425
 30
0.0
 11
940.81382388747477
 21
509.95224735832443
 31
0.0
  0
ARC
  5
339A
  8
AM_0
 10
928.81382388747431
 20
528.90199735832425
 30
0.0
 40
5.0
 50
0.0
 51
94.514061000000083
  0
ARC
  5
339B
  8
AM_0
 10
1006.282238887474
 20
504.34754735832422
 30
0.0
 40
5.0
 50
315.0
 51
50.312775000000542
  0
LINE
  5
339C
  8
AM_0
 10
1009.817728887474
 20
500.81199735832428
 30
0.0
 11
980.62375888747431
 21
471.61804235832409
 31
0.0
  0
ARC
  5
339D
  8
AM_0
 10
1020.424358887474
 20
490.20538735832417
 30
0.0
 40
5.0
 50
39.687223999999532
 51
135.0
  0
LINE
  5
339E
  8
AM_0
 10
987.31382388747477
 20
563.73699735832417
 30
0.0
 11
937.31382388747477
 21
563.73699735832417
 31
0.0
  0
LINE
  5
339F
  8
ﾁｭｳｼﾝｾﾝ1
 10
1067.2840573559561
 20
551.20727675500495
 30
0.0
 11
1046.782946210988
 21
530.70613650742484
 31
0.0
  0
CIRCLE
  5
33A0
  8
AM_0
 10
1057.5219838874741
 20
541.44514735832422
 30
0.0
 40
9.5
  0
ARC
  5
33A1
  8
ﾁｭｳｼﾝｾﾝ1
 10
937.31382388746465
 20
421.23700235831478
 30
0.0
 40
170.0000050000134
 50
38.903106396336788
 51
51.014604000000709
  0
LINE
  5
33A2
  8
AM_0
 10
1077.3109988874739
 20
542.90879735832425
 30
0.0
 11
1079.813838887474
 21
471.2370323583242
 31
0.0
  0
ARC
  5
33A3
  8
AM_0
 10
1058.3225838874739
 20
542.24574735832425
 30
0.0
 40
19.000000499999999
 50
2.0000000000004712
 51
88.000000000002899
  0
LINE
  5
33A5
  8
0
 10
305.01272929683222
 20
893.76685933565091
 30
0.0
 11
305.01272929683222
 21
737.76685933565091
 31
0.0
1001
GENIUS_GENOREF_13
1005
30B4
  0
LINE
  5
33A6
  8
0
 10
295.01272929683222
 20
735.76685933565091
 30
0.0
 11
295.01272929683222
 21
895.76685933565079
 31
0.0
1001
GENIUS_GENOREF_13
1005
30B4
  0
LINE
  5
33A7
  8
AM_0
 10
326.01272929683222
 20
783.82941733565087
 30
0.0
 11
305.01272929683222
 21
783.82941733565087
 31
0.0
  0
LINE
  5
33A8
  8
AM_0
 10
326.01272929683222
 20
769.76684233565095
 30
0.0
 11
305.01272929683222
 21
769.76684233565095
 31
0.0
  0
LINE
  5
33A9
  8
0
 10
306.94293030342692
 20
758.60092728074812
 30
0.0
 11
326.01272929683222
 21
759.26685933565091
 31
0.0
  0
ARC
  5
33AA
  8
0
 10
303.01272929683222
 20
737.76685933565091
 30
0.0
 40
2.0
 50
270.0
 51
0.0
1001
GENIUS_GENOBJ-N-FIL_13
1002
{
1000
OWNER
1000
GEN
1002
}
1001
GENIUS_GENODEF_13
1002
{
1000
HIER
1070
     0
1002
}
1002
{
1000
MANEDIT
1070
     0
1002
}
1002
{
1000
NOSEL
1070
     0
1002
}
1002
{
1000
BEHIND
1070
     0
1002
}
1002
{
1000
OTHER
1070
     0
1002
}
1002
{
1000
REACTOR
1002
}
  0
LINE
  5
33AB
  8
0
 10
295.01272929683222
 20
735.76685933565091
 30
0.0
 11
303.01272929683222
 21
735.76685933565091
 31
0.0
  0
ARC
  5
33AC
  8
0
 10
307.01272929683222
 20
756.60214562671001
 30
0.0
 40
2.0
 50
92.000000000003567
 51
180.0
1001
GENIUS_GENOBJ-N-FIL_13
1002
{
1000
OWNER
1000
GEN
1002
}
1001
GENIUS_GENODEF_13
1002
{
1000
HIER
1070
     0
1002
}
1002
{
1000
MANEDIT
1070
     0
1002
}
1002
{
1000
NOSEL
1070
     0
1002
}
1002
{
1000
BEHIND
1070
     0
1002
}
1002
{
1000
OTHER
1070
     0
1002
}
1002
{
1000
REACTOR
1002
}
  0
LINE
  5
33AD
  8
AM_0
 10
326.01272929683222
 20
861.76685833565091
 30
0.0
 11
305.01272929683222
 21
861.76685833565091
 31
0.0
  0
LINE
  5
33AE
  8
AM_0
 10
326.01272929683222
 20
847.70429833565095
 30
0.0
 11
305.01272929683222
 21
847.70429833565095
 31
0.0
  0
LINE
  5
33AF
  8
0
 10
306.94293030342692
 20
872.93279139055323
 30
0.0
 11
326.01272929683222
 21
872.26685933565091
 31
0.0
  0
ARC
  5
33B0
  8
0
 10
307.01272929683222
 20
874.93157304459157
 30
0.0
 40
2.0
 50
180.0
 51
267.99999999999631
1001
GENIUS_GENOBJ-N-FIL_13
1002
{
1000
OWNER
1000
GEN
1002
}
1001
GENIUS_GENODEF_13
1002
{
1000
HIER
1070
     0
1002
}
1002
{
1000
MANEDIT
1070
     0
1002
}
1002
{
1000
NOSEL
1070
     0
1002
}
1002
{
1000
BEHIND
1070
     0
1002
}
1002
{
1000
OTHER
1070
     0
1002
}
1002
{
1000
REACTOR
1002
}
  0
LINE
  5
33B1
  8
0
 10
295.01272929683222
 20
895.76685933565079
 30
0.0
 11
303.01272929683222
 21
895.76685933565079
 31
0.0
  0
ARC
  5
33B2
  8
0
 10
303.01272929683222
 20
893.76685933565091
 30
0.0
 40
2.0
 50
0.0
 51
90.0
1001
GENIUS_GENOBJ-N-FIL_13
1002
{
1000
OWNER
1000
GEN
1002
}
1001
GENIUS_GENODEF_13
1002
{
1000
HIER
1070
     0
1002
}
1002
{
1000
MANEDIT
1070
     0
1002
}
1002
{
1000
NOSEL
1070
     0
1002
}
1002
{
1000
BEHIND
1070
     0
1002
}
1002
{
1000
OTHER
1070
     0
1002
}
1002
{
1000
REACTOR
1002
}
  0
ARC
  5
33B4
  8
ﾁｭｳｼﾝｾﾝ1
 10
937.31382388746465
 20
421.23700235833388
 30
0.0
 40
170.0000050000134
 50
308.9853959999993
 51
321.0968936036632
  0
LINE
  5
33B5
  8
ﾁｭｳｼﾝｾﾝ1
 10
1067.2840573559561
 20
291.26672796164399
 30
0.0
 11
1046.782946210988
 21
311.76786820922399
 31
0.0
  0
ARC
  5
33B6
  8
ﾁｭｳｼﾝｾﾝ1
 10
937.31382388747136
 20
421.23700235832717
 30
0.0
 40
170.0000049999955
 50
128.98538999999991
 51
141.2803024075435
  0
LINE
  5
33B7
  8
ﾁｭｳｼﾝｾﾝ1
 10
806.15417482069643
 20
552.39663703302006
 30
0.0
 11
827.89110644980622
 21
530.65969280657157
 31
0.0
  0
TEXT
  5
35A5
  8
AM_0
 10
817.31610327705755
 20
848.20870929313674
 30
0.0
 40
15.0
  1
VX02-800AF~VX02-K20AF
  0
ENDSEC
  0
EOF
