  0
SECTION
  2
HEADER
  9
$ACADVER
  1
AC1009
  9
$INSBASE
 10
0.0
 20
0.0
 30
0.0
  9
$EXTMIN
 10
207.0456412663284
 20
167.49252468055639
 30
-0.0000000000000058
  9
$EXTMAX
 10
675.4964922585018
 20
547.05642828491557
 30
0.0000000000000104
  9
$LIMMIN
 10
0.0
 20
0.0
  9
$LIMMAX
 10
853.5
 20
555.00000000000011
  9
$ORTHOMODE
 70
     0
  9
$REGENMODE
 70
     1
  9
$FILLMODE
 70
     1
  9
$QTEXTMODE
 70
     0
  9
$MIRRTEXT
 70
     1
  9
$DRAGMODE
 70
     2
  9
$LTSCALE
 40
3.0
  9
$OSMODE
 70
   551
  9
$ATTMODE
 70
     1
  9
$TEXTSIZE
 40
2.5
  9
$TRACEWID
 40
1.0
  9
$TEXTSTYLE
  7
STANDARD
  9
$CLAYER
  8
AM_0
  9
$CELTYPE
  6
BYLAYER
  9
$CECOLOR
 62
   256
  9
$DIMSCALE
 40
1.0
  9
$DIMASZ
 40
0.1
  9
$DIMEXO
 40
0.05
  9
$DIMDLI
 40
0.5
  9
$DIMRND
 40
0.0
  9
$DIMDLE
 40
0.0
  9
$DIMEXE
 40
0.1
  9
$DIMTP
 40
0.1
  9
$DIMTM
 40
0.1
  9
$DIMTXT
 40
0.12
  9
$DIMCEN
 40
0.0
  9
$DIMTSZ
 40
0.0
  9
$DIMTOL
 70
     0
  9
$DIMLIM
 70
     0
  9
$DIMTIH
 70
     1
  9
$DIMTOH
 70
     1
  9
$DIMSE1
 70
     0
  9
$DIMSE2
 70
     0
  9
$DIMTAD
 70
     0
  9
$DIMZIN
 70
     8
  9
$DIMBLK
  1

  9
$DIMASO
 70
     1
  9
$DIMSHO
 70
     1
  9
$DIMPOST
  1

  9
$DIMAPOST
  1
mm
  9
$DIMALT
 70
     0
  9
$DIMALTD
 70
     2
  9
$DIMALTF
 40
25.399999999999999
  9
$DIMLFAC
 40
1.0
  9
$DIMTOFL
 70
     0
  9
$DIMTVP
 40
0.0
  9
$DIMTIX
 70
     0
  9
$DIMSOXD
 70
     0
  9
$DIMSAH
 70
     0
  9
$DIMBLK1
  1

  9
$DIMBLK2
  1

  9
$DIMSTYLE
  2
AM_ANSI
  9
$DIMCLRD
 70
   256
  9
$DIMCLRE
 70
   256
  9
$DIMCLRT
 70
     2
  9
$DIMTFAC
 40
0.71
  9
$DIMGAP
 40
0.06
  9
$LUNITS
 70
     2
  9
$LUPREC
 70
     2
  9
$SKETCHINC
 40
1.0
  9
$FILLETRAD
 40
15.0
  9
$AUNITS
 70
     0
  9
$AUPREC
 70
     0
  9
$MENU
  1
.
  9
$ELEVATION
 40
0.0
  9
$PELEVATION
 40
0.0
  9
$THICKNESS
 40
0.0
  9
$LIMCHECK
 70
     0
  9
$BLIPMODE
 70
     0
  9
$CHAMFERA
 40
6.0
  9
$CHAMFERB
 40
3.0
  9
$SKPOLY
 70
     0
  9
$TDCREATE
 40
2452065.79127368
  9
$TDUPDATE
 40
2458541.537839225
  9
$TDINDWG
 40
0.0926218403
  9
$TDUSRTIMER
 40
0.0926214699
  9
$USRTIMER
 70
     1
  9
$ANGBASE
 50
0.0
  9
$ANGDIR
 70
     0
  9
$PDMODE
 70
     0
  9
$PDSIZE
 40
0.0
  9
$PLINEWID
 40
0.0
  9
$COORDS
 70
     1
  9
$SPLFRAME
 70
     0
  9
$SPLINETYPE
 70
     6
  9
$SPLINESEGS
 70
     8
  9
$ATTDIA
 70
     1
  9
$ATTREQ
 70
     1
  9
$HANDLING
 70
     1
  9
$HANDSEED
  5
36E8
  9
$SURFTAB1
 70
     6
  9
$SURFTAB2
 70
     6
  9
$SURFTYPE
 70
     6
  9
$SURFU
 70
     6
  9
$SURFV
 70
     6
  9
$UCSNAME
  2

  9
$UCSORG
 10
0.0
 20
0.0
 30
0.0
  9
$UCSXDIR
 10
1.0
 20
0.0
 30
0.0
  9
$UCSYDIR
 10
0.0
 20
1.0
 30
0.0
  9
$PUCSNAME
  2

  9
$PUCSORG
 10
0.0
 20
0.0
 30
0.0
  9
$PUCSXDIR
 10
1.0
 20
0.0
 30
0.0
  9
$PUCSYDIR
 10
0.0
 20
1.0
 30
0.0
  9
$USERI1
 70
     0
  9
$USERI2
 70
     0
  9
$USERI3
 70
     0
  9
$USERI4
 70
     0
  9
$USERI5
 70
     0
  9
$USERR1
 40
0.0
  9
$USERR2
 40
0.0
  9
$USERR3
 40
0.0
  9
$USERR4
 40
0.0
  9
$USERR5
 40
0.0
  9
$WORLDVIEW
 70
     1
  9
$SHADEDGE
 70
     3
  9
$SHADEDIF
 70
    70
  9
$TILEMODE
 70
     1
  9
$MAXACTVP
 70
    64
  9
$PLIMCHECK
 70
     0
  9
$PEXTMIN
 10
1.0000000000000000E+020
 20
1.0000000000000000E+020
 30
1.0000000000000000E+020
  9
$PEXTMAX
 10
-1.0000000000000000E+020
 20
-1.0000000000000000E+020
 30
-1.0000000000000000E+020
  9
$PLIMMIN
 10
0.0
 20
0.0
  9
$PLIMMAX
 10
420.0
 20
297.0
  9
$UNITMODE
 70
     0
  9
$VISRETAIN
 70
     1
  9
$PLINEGEN
 70
     0
  9
$PSLTSCALE
 70
     1
  0
ENDSEC
  0
SECTION
  2
TABLES
  0
TABLE
  2
VPORT
 70
     1
  0
VPORT
  2
*ACTIVE
 70
     0
 10
0.0
 20
0.0
 11
1.0
 21
1.0
 12
441.2710667624151
 22
357.27447648273608
 13
0.0
 23
0.0
 14
7.5
 24
7.5
 15
30.0
 25
30.0
 16
0.0
 26
0.0
 36
1.0
 17
0.0
 27
0.0
 37
0.0
 40
382.16960545976667
 41
1.7571592210767459
 42
50.0
 43
0.0
 44
0.0
 50
0.0
 51
0.0
 71
     0
 72
   100
 73
     1
 74
     3
 75
     0
 76
     0
 77
     0
 78
     0
  0
ENDTAB
  0
TABLE
  2
LTYPE
 70
    25
  0
LTYPE
  2
CONTINUOUS
 70
     0
  3
Solid line
 72
    65
 73
     0
 40
0.0
  0
LTYPE
  2
AM_ISO02W050
 70
     0
  3
__ __ __ __ __ __ __ __ __ __ __ __ __ __ __
 72
    65
 73
     2
 40
7.5
 49
6.0
 49
-1.5
  0
LTYPE
  2
AM_ISO08W050
 70
     0
  3
____ . ____ . ____ . ____ . ____ . ____ . ____
 72
    65
 73
     4
 40
18.0
 49
12.0
 49
-1.5
 49
3.0
 49
-1.5
  0
LTYPE
  2
AM_ISO09W050
 70
     0
  3
_____ . . _____ . . _____ . . ____ .. ____
 72
    65
 73
     6
 40
22.5
 49
12.0
 49
-1.5
 49
3.0
 49
-1.5
 49
3.0
 49
-1.5
  0
LTYPE
  2
AMCONSTR
 70
     0
  3
_______________________
 72
    65
 73
     2
 40
9999.0
 49
9999.0
 49
0.0
  0
LTYPE
  2
AM_ISO08W050X2
 70
     0
  3
__ . __ . __ . __ . __ . __
 72
    65
 73
     4
 40
9.0
 49
6.0
 49
-0.75
 49
1.5
 49
-0.75
  0
LTYPE
  2
AM_ISO02W050X2
 70
     0
  3
 _ _ _ _ _ _ _ _ _ _ _ _
 72
    65
 73
     2
 40
3.75
 49
3.0
 49
-0.75
  0
LTYPE
  2
AMZIGZAG
 70
     0
  3
/\/-/\/-/\/-/\/-/\/-/\/
 72
    65
 73
     2
 40
11.000099999999991
 49
0.0001
 49
-11.0
  0
LTYPE
  2
ACISOWELD
 70
     0
  3
_ _ _ _ _
 72
    65
 73
     2
 40
2.0
 49
2.0
 49
-1.0
  0
LTYPE
  2
ACISOTGB
 70
     0
  3
__ . . __ . .
 72
    65
 73
     6
 40
9.0
 49
4.0
 49
-1.0
 49
1.0
 49
-1.0
 49
1.0
 49
-1.0
  0
LTYPE
  2
ACISOTGL
 70
     0
  3
_ _ _ _ _
 72
    65
 73
     2
 40
3.0
 49
2.0
 49
-1.0
  0
LTYPE
  2
CENTER
 70
     0
  3
__ . __
 72
    65
 73
     4
 40
7.0
 49
4.0
 49
-1.0
 49
1.0
 49
-1.0
  0
LTYPE
  2
PHANTOM2
 70
     0
  3
Phantom (.5x) ___ _ _ ___ _ _ ___ _ _ ___ _ _
 72
    65
 73
     6
 40
31.75
 49
15.875
 49
-3.174999999999998
 49
3.174999999999998
 49
-3.174999999999998
 49
3.174999999999998
 49
-3.174999999999998
  0
LTYPE
  2
ACANSTGBM
 70
     0
  3
__ . . __ . .
 72
    65
 73
     6
 40
9.0
 49
4.0
 49
-1.0
 49
1.0
 49
-1.0
 49
1.0
 49
-1.0
  0
LTYPE
  2
ACANSTGLM
 70
     0
  3
_ _ _ _ _
 72
    65
 73
     2
 40
3.0
 49
2.0
 49
-1.0
  0
LTYPE
  2
GEN7A
 70
     0
  3
__ . __ . __
 72
    65
 73
     4
 40
7.375
 49
4.75
 49
-0.875
 49
0.875
 49
-0.875
  0
LTYPE
  2
ACJISTGB
 70
     0
  3
__ . . __ . .
 72
    65
 73
     6
 40
9.0
 49
4.0
 49
-1.0
 49
1.0
 49
-1.0
 49
1.0
 49
-1.0
  0
LTYPE
  2
ACJISTGL
 70
     0
  3
_ _ _ _ _
 72
    65
 73
     2
 40
3.0
 49
2.0
 49
-1.0
  0
LTYPE
  2
HIDDEN
 70
     0
  3
Hidden __ __ __ __ __ __ __ __ __ __ __ __ __ _
 72
    65
 73
     2
 40
0.375
 49
0.25
 49
-0.125
  0
LTYPE
  2
CENTER2
 70
     0
  3
Center (.5x) ___ _ ___ _ ___ _ ___ _ ___ _ ___
 72
    65
 73
     4
 40
1.125
 49
0.75
 49
-0.125
 49
0.125
 49
-0.125
  0
LTYPE
  2
HIDDEN2
 70
     0
  3
Hidden (.5x) _ _ _ _ _ _ _ _ _ _ _ _ _ _ _ _ _
 72
    65
 73
     2
 40
0.1875
 49
0.125
 49
-0.0625
  0
LTYPE
  2
AMZIGZAG2
 70
     0
  3
/\/-/\/-/\/-/\/-/\/-/\/
 72
    65
 73
     2
 40
0.4401
 49
0.0001
 49
-0.4400000000000003
  0
LTYPE
  2
ACANSTGB
 70
     0
  3
__ . . __ . .
 72
    65
 73
     6
 40
0.35433070866
 49
0.15748031496
 49
-0.03937007874
 49
0.03937007874
 49
-0.03937007874
 49
0.03937007874
 49
-0.03937007874
  0
LTYPE
  2
ACANSTGL
 70
     0
  3
_ _ _ _ _
 72
    65
 73
     2
 40
0.11811023622
 49
0.07874015748
 49
-0.03937007874
  0
ENDTAB
  0
TABLE
  2
LAYER
 70
     5
  0
LAYER
  2
0
 70
     0
 62
     7
  6
CONTINUOUS
  0
LAYER
  2
AM_0
 70
     0
 62
     7
  6
CONTINUOUS
  0
LAYER
  2
AM_5
 70
     0
 62
     2
  6
CONTINUOUS
  0
LAYER
  2
DEFPOINTS
 70
     0
 62
     7
  6
CONTINUOUS
  0
LAYER
  2
ﾁｭｳｼﾝｾﾝ1
 70
     0
 62
     1
  6
GEN7A
  0
ENDTAB
  0
TABLE
  2
STYLE
 70
     9
  0
STYLE
  2
STANDARD
 70
     0
 40
0.0
 41
0.8299999999999999
 50
0.0
 71
     0
 42
2.5
  3
txt.shx
  4
bigfont.shx
  0
STYLE
  2
ANNOTATIVE
 70
     0
 40
0.0
 41
1.0
 50
0.0
 71
     0
 42
0.2
  3
txt
  4

  0
STYLE
  2

 70
     1
 40
0.0
 41
1.0
 50
0.0
 71
     0
 42
2.5
  3
ltypeshp.shx
  4

  0
STYLE
  2
ACISOTS
 70
     0
 40
1.0
 41
1.0
 50
0.0
 71
     0
 42
2.5
  3
isocp.shx
  4
extfont.shx
  0
STYLE
  2
ACISOGDT
 70
     0
 40
0.0
 41
1.0
 50
0.0
 71
     0
 42
2.5
  3
amgdt.shx
  4

  0
STYLE
  2
ACANSTS
 70
     0
 40
1.0
 41
1.0
 50
0.0
 71
     0
 42
2.5
  3
romans.shx
  4
bigfont.shx
  0
STYLE
  2
ACANSGDT
 70
     0
 40
0.0
 41
1.0
 50
0.0
 71
     0
 42
2.5
  3
amgdt.shx
  4

  0
STYLE
  2
ACJISTS
 70
     0
 40
1.0
 41
1.0
 50
0.0
 71
     0
 42
2.5
  3
isocp.shx
  4
bigfont.shx
  0
STYLE
  2
ACJISGDT
 70
     0
 40
0.0
 41
1.0
 50
0.0
 71
     0
 42
2.5
  3
amgdt.shx
  4

  0
ENDTAB
  0
TABLE
  2
VIEW
 70
     6
  0
VIEW
  2
AM_VIEW1
 70
     0
 40
277.49999999999989
 10
249.64779005524841
 20
416.24999999999989
 41
499.2955801104971
 11
0.0
 21
0.0
 31
1.0
 12
0.0
 22
0.0
 32
0.0
 42
50.0
 43
0.0
 44
0.0
 50
0.0
 71
     0
  0
VIEW
  2
AM_VIEW2
 70
     0
 40
277.49999999999989
 10
603.85220994475117
 20
416.24999999999989
 41
499.2955801104971
 11
0.0
 21
0.0
 31
1.0
 12
0.0
 22
0.0
 32
0.0
 42
50.0
 43
0.0
 44
0.0
 50
0.0
 71
     0
  0
VIEW
  2
AM_VIEW3
 70
     0
 40
277.49999999999989
 10
249.64779005524841
 20
138.7499999999998
 41
499.2955801104971
 11
0.0
 21
0.0
 31
1.0
 12
0.0
 22
0.0
 32
0.0
 42
50.0
 43
0.0
 44
0.0
 50
0.0
 71
     0
  0
VIEW
  2
AM_VIEW4
 70
     0
 40
277.49999999999989
 10
603.85220994475117
 20
138.7499999999998
 41
499.2955801104971
 11
0.0
 21
0.0
 31
1.0
 12
0.0
 22
0.0
 32
0.0
 42
50.0
 43
0.0
 44
0.0
 50
0.0
 71
     0
  0
VIEW
  2
AM_VIEW5
 70
     0
 40
277.49999999999989
 10
426.75
 20
277.49999999999989
 41
499.2955801104971
 11
0.0
 21
0.0
 31
1.0
 12
0.0
 22
0.0
 32
0.0
 42
50.0
 43
0.0
 44
0.0
 50
0.0
 71
     0
  0
VIEW
  2
AM_VIEW6
 70
     0
 40
554.99445000000014
 10
426.75
 20
277.49999999999989
 41
998.5811743093924
 11
0.0
 21
0.0
 31
1.0
 12
0.0
 22
0.0
 32
0.0
 42
50.0
 43
0.0
 44
0.0
 50
0.0
 71
     0
  0
ENDTAB
  0
TABLE
  2
UCS
 70
     0
  0
ENDTAB
  0
TABLE
  2
APPID
 70
    95
  0
APPID
  2
ACAD
 70
     0
  0
APPID
  2
ACADANNOTATIVE
 70
     0
  0
APPID
  2
MCAD_NO_VIS
 70
     0
  0
APPID
  2
ACAD_TEMP_GRAPHIC
 70
     0
  0
APPID
  2
ACATTRIBSERVICES
 70
     0
  0
APPID
  2
GENIUS_GENREC_14
 70
     0
  0
APPID
  2
GENIUS_GENOBJ-N-REC_13
 70
     0
  0
APPID
  2
GENIUS_GENODEF_13
 70
     0
  0
APPID
  2
GENIUS_GENOLIS_13
 70
     0
  0
APPID
  2
GENIUS_GENOBJ-N-TIT_13
 70
     0
  0
APPID
  2
GENIUS_GENOENT_13
 70
     0
  0
APPID
  2
GENIUS_GENTITLE_13
 70
     0
  0
APPID
  2
GENIUS_GENOREF_13
 70
     0
  0
APPID
  2
GENIUS_GENSCREG_15
 70
     0
  0
APPID
  2
GENIUS_GENOBJ-N-SDF_13
 70
     0
  0
APPID
  2
GENIUS_GENFIL_13
 70
     0
  0
APPID
  2
GENIUS_GENOBJ-N-CHA_13
 70
     0
  0
APPID
  2
GENIUS_GENDTOL_13
 70
     0
  0
APPID
  2
GENIUS_GENOBJ-N-FIL_13
 70
     0
  0
APPID
  2
AD_DRAW
 70
     0
  0
APPID
  2
DESIGNERASSEMBLIES
 70
     0
  0
APPID
  2
ASURF_PCURVE_APPNAME
 70
     0
  0
APPID
  2
GENIUS_GE3SECT_13
 70
     0
  0
APPID
  2
GENIUS_GENCFG_13
 70
     0
  0
APPID
  2
GENIUS_GE3CFG0_13
 70
     0
  0
APPID
  2
GENIUS_GENCFG0_13
 70
     0
  0
APPID
  2
GENIUS_GENCFG1_13
 70
     0
  0
APPID
  2
GENIUS_GENCFG2_13
 70
     0
  0
APPID
  2
GENIUS_GENCFG3_13
 70
     0
  0
APPID
  2
GENIUS_GENCFG4_13
 70
     0
  0
APPID
  2
GENIUS_GEVCFG0_13
 70
     0
  0
APPID
  2
GENIUS_GENHINW_13
 70
     0
  0
APPID
  2
GENIUS_FIRSTVISTXT_14
 70
     0
  0
APPID
  2
GENIUS_GENOBJ-N-LEADER_13
 70
     0
  0
APPID
  2
GEV_VCCNULL_SWITCH_OFF
 70
     0
  0
APPID
  2
GENIUS_GEFCFG0_13
 70
     0
  0
APPID
  2
GENIUS_GENZVEED_13
 70
     0
  0
APPID
  2
GENIUS_GENSCREG_13
 70
     0
  0
APPID
  2
GENIUS_DUMCFG0_13
 70
     0
  0
APPID
  2
GEVID936201362
 70
     0
  0
APPID
  2
GEVDC
 70
     0
  0
APPID
  2
GEVCON
 70
     0
  0
APPID
  2
VCC
 70
     0
  0
APPID
  2
GEVPT
 70
     0
  0
APPID
  2
GEVIT
 70
     0
  0
APPID
  2
GENBH
 70
     0
  0
APPID
  2
GEVMK
 70
     0
  0
APPID
  2
GENIUS_GENBH_13
 70
     0
  0
APPID
  2
GENIUS_GENOBJ-NBEHI-BHF_13
 70
     0
  0
APPID
  2
GENIUS_GENOBJ-NBEHI-BHB_13
 70
     0
  0
APPID
  2
GENIUS_GENOBJ-F-DESC_13
 70
     0
  0
APPID
  2
GENIUS_GEFDESC_14
 70
     0
  0
APPID
  2
GENIUS_GENOBJ-F-PART_13
 70
     0
  0
APPID
  2
GENIUS_GEFSTDP_13
 70
     0
  0
APPID
  2
GENIUS_GEFPARTINS_13
 70
     0
  0
APPID
  2
GENIUS_GENTRA_14
 70
     0
  0
APPID
  2
GENIUS_GENINF13_13
 70
     0
  0
APPID
  2
GENIUS_GENOBJ-N-INFOPT_13
 70
     0
  0
APPID
  2
GENIUS_GENOBJ-N-RSSYM_13
 70
     0
  0
APPID
  2
GENIUS_GENSYMENT_13
 70
     0
  0
APPID
  2
GENIUS_GENSCSYM_13
 70
     0
  0
APPID
  2
GENIUS_GEFINFNAM_13
 70
     0
  0
APPID
  2
GENIUS_GENOBJ-N-CEN_13
 70
     0
  0
APPID
  2
GENIUS_GENOBJ-N-CRS_13
 70
     0
  0
APPID
  2
GENIUS_GENOBJ-N-CRC_13
 70
     0
  0
APPID
  2
GENIUS_GENCRC_14
 70
     0
  0
APPID
  2
GEVID942827039
 70
     0
  0
APPID
  2
GEVID942827040
 70
     0
  0
APPID
  2
GEVID942827041
 70
     0
  0
APPID
  2
GENIUS_GENOBJ-F-SCPASSM_13
 70
     0
  0
APPID
  2
GENIUS_GENDIMSH_14
 70
     0
  0
APPID
  2
GEVID942827042
 70
     0
  0
APPID
  2
GEVID946020473
 70
     0
  0
APPID
  2
GEVID946020474
 70
     0
  0
APPID
  2
GEVID946020475
 70
     0
  0
APPID
  2
GENIUS_GENOBJ-N-HTC_13
 70
     0
  0
APPID
  2
GENIUS_GENHATCH_13
 70
     0
  0
APPID
  2
GEVID948854295
 70
     0
  0
APPID
  2
GEVID939402019
 70
     0
  0
APPID
  2
GEVID952919491
 70
     0
  0
APPID
  2
GEVID952919492
 70
     0
  0
APPID
  2
GENIUS_GEFWELD_13
 70
     0
  0
APPID
  2
GENIUS_GENOBJ-F-WELS_13
 70
     0
  0
APPID
  2
GEVID952919493
 70
     0
  0
APPID
  2
GENIUS_GENOBJ-N-RSBK_13
 70
     0
  0
APPID
  2
GENIUS_GENOBJ-N-LIB_13
 70
     0
  0
APPID
  2
GENIUS_GENSCALE_13
 70
     0
  0
APPID
  2
GEVID986376691
 70
     0
  0
APPID
  2
DCO15
 70
     0
  0
APPID
  2
ACAD_DSTYLE_DIMBREAK
 70
     0
  0
APPID
  2
ACAD_DSTYLE_DIMJAG
 70
     0
  0
APPID
  2
ACAD_NAV_VCDISPLAY
 70
     0
  0
APPID
  2
ACADANNOPO
 70
     0
  0
APPID
  2
ACAD_EXEMPT_FROM_CAD_STANDARDS
 70
     0
  0
APPID
  2
ACAD_MLEADERVER
 70
     0
  0
ENDTAB
  0
TABLE
  2
DIMSTYLE
 70
    22
  0
DIMSTYLE
  2
STANDARD
 70
     0
  3

  4

  5

  6

  7

 40
1.0
 41
0.18
 42
0.0625
 43
0.38
 44
0.18
 45
0.0
 46
0.0
 47
0.0
 48
0.0
140
0.18
141
0.09
142
0.0
143
25.399999999999999
144
1.0
145
0.0
146
1.0
147
0.09
 71
     0
 72
     0
 73
     1
 74
     1
 75
     0
 76
     0
 77
     0
 78
     0
170
     0
171
     2
172
     0
173
     0
174
     0
175
     0
176
     0
177
     0
178
     0
  0
DIMSTYLE
  2
ANNOTATIVE
 70
     0
  3

  4

  5

  6

  7

 40
1.0
 41
0.18
 42
0.0625
 43
0.38
 44
0.18
 45
0.0
 46
0.0
 47
0.0
 48
0.0
140
0.18
141
0.09
142
0.0
143
25.399999999999999
144
1.0
145
0.0
146
1.0
147
0.09
 71
     0
 72
     0
 73
     1
 74
     1
 75
     0
 76
     0
 77
     0
 78
     0
170
     0
171
     2
172
     0
173
     0
174
     0
175
     0
176
     0
177
     0
178
     0
  0
DIMSTYLE
  2
AM_ISO
 70
     0
  3

  4
"
  5

  6

  7

 40
1.0
 41
2.5
 42
1.0
 43
8.0
 44
0.6
 45
0.0
 46
0.0
 47
0.1
 48
0.1
140
2.5
141
0.0
142
0.0
143
0.0393701
144
1.0
145
0.0
146
0.71
147
0.8
 71
     0
 72
     0
 73
     0
 74
     0
 75
     0
 76
     0
 77
     1
 78
     8
170
     0
171
     2
172
     1
173
     0
174
     0
175
     0
176
   256
177
   256
178
     4
  0
DIMSTYLE
  2
AM_ISO$3
 70
     0
  3

  4
"
  5

  6

  7

 40
1.0
 41
2.5
 42
1.0
 43
8.0
 44
0.6
 45
0.0
 46
0.0
 47
0.1
 48
0.1
140
2.5
141
0.0
142
0.0
143
0.0393701
144
1.0
145
0.0
146
0.71
147
0.8
 71
     0
 72
     0
 73
     0
 74
     1
 75
     0
 76
     0
 77
     1
 78
     8
170
     0
171
     2
172
     0
173
     0
174
     0
175
     0
176
   256
177
   256
178
     4
  0
DIMSTYLE
  2
AM_ISO$4
 70
     0
  3

  4
"
  5

  6

  7

 40
1.0
 41
2.5
 42
1.0
 43
8.0
 44
0.6
 45
0.0
 46
0.0
 47
0.1
 48
0.1
140
2.5
141
0.0
142
0.0
143
0.0393701
144
1.0
145
0.0
146
0.71
147
0.8
 71
     0
 72
     0
 73
     0
 74
     1
 75
     0
 76
     0
 77
     1
 78
     8
170
     0
171
     2
172
     0
173
     0
174
     0
175
     0
176
   256
177
   256
178
     4
  0
DIMSTYLE
  2
AM_ISO$6
 70
     0
  3

  4
"
  5

  6

  7

 40
1.0
 41
2.5
 42
1.0
 43
8.0
 44
0.6
 45
0.0
 46
0.0
 47
0.1
 48
0.1
140
2.5
141
0.0
142
0.0
143
0.0393701
144
1.0
145
0.0
146
0.71
147
0.8
 71
     0
 72
     0
 73
     0
 74
     0
 75
     0
 76
     0
 77
     0
 78
     8
170
     0
171
     2
172
     1
173
     0
174
     0
175
     0
176
   256
177
   256
178
     4
  0
DIMSTYLE
  2
AM_ISO$7
 70
     0
  3

  4
"
  5

  6

  7

 40
1.0
 41
2.5
 42
1.0
 43
8.0
 44
0.6
 45
0.0
 46
0.0
 47
0.1
 48
0.1
140
2.5
141
0.0
142
0.0
143
0.0393701
144
1.0
145
0.0
146
0.71
147
0.8
 71
     0
 72
     0
 73
     0
 74
     0
 75
     0
 76
     0
 77
     1
 78
     8
170
     0
171
     2
172
     1
173
     0
174
     0
175
     0
176
   256
177
   256
178
     4
  0
DIMSTYLE
  2
AM_ISO$SF
 70
     0
  3

  4
"
  5

  6

  7

 40
1.0
 41
2.5
 42
1.0
 43
10.0
 44
1.0
 45
0.0
 46
0.0
 47
0.1
 48
0.1
140
3.5
141
0.0
142
0.0
143
0.0393701
144
1.0
145
0.0
146
0.71
147
1.5
 71
     0
 72
     0
 73
     0
 74
     0
 75
     1
 76
     1
 77
     1
 78
     8
170
     0
171
     2
172
     1
173
     0
174
     0
175
     0
176
   256
177
   256
178
     2
  0
DIMSTYLE
  2
AM_ISO$SH
 70
     0
  3

  4
"
  5

  6

  7

 40
1.0
 41
2.5
 42
1.0
 43
10.0
 44
1.0
 45
0.0
 46
0.0
 47
0.1
 48
0.1
140
3.5
141
0.0
142
0.0
143
0.0393701
144
2.0
145
0.0
146
0.71
147
1.5
 71
     0
 72
     0
 73
     0
 74
     0
 75
     1
 76
     1
 77
     1
 78
     8
170
     0
171
     2
172
     1
173
     1
174
     0
175
     0
176
   256
177
   256
178
     2
  0
DIMSTYLE
  2
AM_JIS
 70
     0
  3

  4
"
  5

  6

  7

 40
1.0
 41
2.5
 42
1.0
 43
7.0
 44
1.0
 45
0.0
 46
0.0
 47
0.1
 48
0.1000000001
140
2.5
141
0.0
142
0.0
143
0.0393701
144
1.0
145
0.0
146
0.71
147
1.0
 71
     0
 72
     0
 73
     0
 74
     0
 75
     0
 76
     0
 77
     3
 78
     8
170
     0
171
     2
172
     1
173
     0
174
     0
175
     0
176
   256
177
   256
178
     4
  0
DIMSTYLE
  2
AM_JIS$3
 70
     0
  3

  4
"
  5

  6

  7

 40
1.0
 41
2.5
 42
1.0
 43
7.0
 44
1.0
 45
0.0
 46
0.0
 47
0.1
 48
0.1000000001
140
2.5
141
0.0
142
0.0
143
0.0393701
144
1.0
145
0.0
146
0.71
147
1.0
 71
     0
 72
     0
 73
     0
 74
     1
 75
     0
 76
     0
 77
     3
 78
     8
170
     0
171
     2
172
     0
173
     0
174
     0
175
     0
176
   256
177
   256
178
     4
  0
DIMSTYLE
  2
AM_JIS$4
 70
     0
  3

  4
"
  5

  6

  7

 40
1.0
 41
2.5
 42
1.0
 43
7.0
 44
1.0
 45
0.0
 46
0.0
 47
0.1
 48
0.1000000001
140
2.5
141
0.0
142
0.0
143
0.0393701
144
1.0
145
0.0
146
0.71
147
1.0
 71
     0
 72
     0
 73
     0
 74
     0
 75
     0
 76
     0
 77
     3
 78
     8
170
     0
171
     2
172
     0
173
     0
174
     0
175
     0
176
   256
177
   256
178
     4
  0
DIMSTYLE
  2
AM_JIS$6
 70
     0
  3

  4
"
  5

  6

  7

 40
1.0
 41
2.5
 42
1.0
 43
7.0
 44
1.0
 45
0.0
 46
0.0
 47
0.1
 48
0.1000000001
140
2.5
141
0.0
142
0.0
143
0.0393701
144
1.0
145
0.0
146
0.71
147
1.0
 71
     0
 72
     0
 73
     0
 74
     0
 75
     0
 76
     0
 77
     0
 78
     8
170
     0
171
     2
172
     1
173
     0
174
     0
175
     0
176
   256
177
   256
178
     4
  0
DIMSTYLE
  2
AM_JIS$7
 70
     0
  3

  4
"
  5

  6

  7

 40
1.0
 41
2.5
 42
1.0
 43
7.0
 44
1.0
 45
0.0
 46
0.0
 47
0.1
 48
0.1000000001
140
2.5
141
0.0
142
0.0
143
0.0393701
144
1.0
145
0.0
146
0.71
147
1.0
 71
     0
 72
     0
 73
     0
 74
     0
 75
     0
 76
     0
 77
     3
 78
     8
170
     0
171
     2
172
     1
173
     0
174
     0
175
     0
176
   256
177
   256
178
     4
  0
DIMSTYLE
  2
AM_JIS$SF
 70
     0
  3

  4
"
  5

  6

  7

 40
1.0
 41
2.5
 42
1.0
 43
10.0
 44
1.0
 45
0.0
 46
0.0
 47
0.1
 48
0.1
140
3.5
141
0.0
142
0.0
143
0.0393701
144
1.0
145
0.0
146
0.71
147
1.5
 71
     0
 72
     0
 73
     0
 74
     0
 75
     1
 76
     1
 77
     3
 78
     8
170
     0
171
     2
172
     1
173
     0
174
     0
175
     0
176
   256
177
   256
178
     4
  0
DIMSTYLE
  2
AM_JIS$SH
 70
     0
  3

  4
"
  5

  6

  7

 40
1.0
 41
2.5
 42
1.0
 43
10.0
 44
1.0
 45
0.0
 46
0.0
 47
0.1
 48
0.1
140
3.5
141
0.0
142
0.0
143
0.0393701
144
1.0
145
0.0
146
0.71
147
1.5
 71
     0
 72
     0
 73
     0
 74
     0
 75
     1
 76
     0
 77
     3
 78
     8
170
     0
171
     2
172
     1
173
     1
174
     0
175
     0
176
   256
177
   256
178
     4
  0
DIMSTYLE
  2
AM_ANSI
 70
     0
  3

  4
mm
  5

  6

  7

 40
1.0
 41
0.1
 42
0.05
 43
0.5
 44
0.1
 45
0.0
 46
0.0
 47
0.1
 48
0.1
140
0.12
141
0.0
142
0.0
143
25.399999999999999
144
1.0
145
0.0
146
0.71
147
0.06
 71
     0
 72
     0
 73
     1
 74
     1
 75
     0
 76
     0
 77
     0
 78
     7
170
     0
171
     2
172
     0
173
     0
174
     0
175
     0
176
   256
177
   256
178
     2
  0
DIMSTYLE
  2
AM_ANSI$3
 70
     0
  3

  4
mm
  5

  6

  7

 40
1.0
 41
0.1
 42
0.05
 43
0.5
 44
0.1
 45
0.0
 46
0.0
 47
0.1
 48
0.1
140
0.12
141
0.0
142
0.0
143
25.399999999999999
144
1.0
145
0.0
146
0.71
147
0.06
 71
     0
 72
     0
 73
     1
 74
     1
 75
     0
 76
     0
 77
     0
 78
     7
170
     0
171
     2
172
     0
173
     0
174
     0
175
     0
176
   256
177
   256
178
     2
  0
DIMSTYLE
  2
AM_ANSI$4
 70
     0
  3

  4
mm
  5

  6

  7

 40
1.0
 41
0.1
 42
0.05
 43
0.5
 44
0.1
 45
0.0
 46
0.0
 47
0.1
 48
0.1
140
0.12
141
0.0
142
0.0
143
25.399999999999999
144
1.0
145
0.0
146
0.71
147
0.06
 71
     0
 72
     0
 73
     1
 74
     1
 75
     0
 76
     0
 77
     0
 78
     7
170
     0
171
     2
172
     0
173
     0
174
     0
175
     0
176
   256
177
   256
178
     2
  0
DIMSTYLE
  2
AM_ANSI$7
 70
     0
  3

  4
mm
  5

  6

  7

 40
1.0
 41
0.1
 42
0.05
 43
0.5
 44
0.1
 45
0.0
 46
0.0
 47
0.1
 48
0.1
140
0.24
141
0.0
142
0.0
143
25.399999999999999
144
1.0
145
0.0
146
0.71
147
0.06
 71
     0
 72
     0
 73
     1
 74
     1
 75
     0
 76
     0
 77
     0
 78
     7
170
     0
171
     2
172
     0
173
     0
174
     0
175
     0
176
   256
177
   256
178
     2
  0
DIMSTYLE
  2
AM_ANSI$SF
 70
     0
  3

  4
mm
  5

  6

  7

 40
1.0
 41
0.1
 42
0.05
 43
0.5
 44
0.1
 45
0.0
 46
0.0
 47
0.1
 48
0.1
140
0.12
141
0.0
142
0.0
143
25.399999999999999
144
1.0
145
0.0
146
0.71
147
0.06
 71
     0
 72
     0
 73
     1
 74
     1
 75
     1
 76
     1
 77
     0
 78
     7
170
     0
171
     2
172
     0
173
     0
174
     0
175
     0
176
   256
177
   256
178
     2
  0
DIMSTYLE
  2
AM_ANSI$SH
 70
     0
  3

  4
mm
  5

  6

  7

 40
1.0
 41
0.1
 42
0.05
 43
0.5
 44
0.1
 45
0.0
 46
0.0
 47
0.1
 48
0.1
140
0.12
141
0.0
142
0.0
143
25.399999999999999
144
1.0
145
0.0
146
0.71
147
0.06
 71
     0
 72
     0
 73
     1
 74
     1
 75
     1
 76
     1
 77
     0
 78
     7
170
     0
171
     2
172
     0
173
     1
174
     0
175
     0
176
   256
177
   256
178
     2
  0
ENDTAB
  0
ENDSEC
  0
SECTION
  2
BLOCKS
  0
BLOCK
  8
0
  2
$MODEL_SPACE
 70
     0
 10
0.0
 20
0.0
 30
0.0
  3
$MODEL_SPACE
  1

  0
ENDBLK
  5
3556
  8
0
  0
BLOCK
 67
     1
  8
0
  2
$PAPER_SPACE
 70
     0
 10
0.0
 20
0.0
 30
0.0
  3
$PAPER_SPACE
  1

  0
ENDBLK
  5
3552
 67
     1
  8
0
  0
BLOCK
  8
0
  2
GENAXEH
 70
     0
 10
0.0
 20
0.0
 30
0.0
  3
GENAXEH
  1

  0
LINE
  5
32D3
  8
0
 10
-1.0
 20
0.0
 30
0.0
 11
1.0
 21
0.0
 31
0.0
  0
ENDBLK
  5
32D4
  8
0
  0
BLOCK
  8
0
  2
_OPEN30
 70
     0
 10
0.0
 20
0.0
 30
0.0
  3
_OPEN30
  1

  0
LINE
  5
32D7
  8
0
 62
     0
 10
-1.0
 20
0.26794919
 30
0.0
 11
0.0
 21
0.0
 31
0.0
  0
LINE
  5
32D8
  8
0
 62
     0
 10
0.0
 20
0.0
 30
0.0
 11
-1.0
 21
-0.26794919
 31
0.0
  0
LINE
  5
32D9
  8
0
 62
     0
 10
0.0
 20
0.0
 30
0.0
 11
-1.0
 21
0.0
 31
0.0
  0
ENDBLK
  5
32DA
  8
0
  0
BLOCK
  8
0
  2
_NONE
 70
     0
 10
0.0
 20
0.0
 30
0.0
  3
_NONE
  1

  0
ENDBLK
  5
32DD
  8
0
  0
BLOCK
  8
0
  2
*U5
 70
     1
 10
0.0
 20
0.0
 30
0.0
  3
*U5
  1

  0
TEXT
  5
32E0
  8
AM_0
 62
     4
 10
274.60798842152758
 20
225.2595157378268
 30
0.0
 40
7.5
  1
\U+2205
 50
90.0
 41
0.8299999999999999
  0
TEXT
  5
32E1
  8
AM_0
 62
     4
 10
274.60798842152758
 20
231.484515737827
 30
0.0
 40
7.5
  1
110
 50
90.0
 41
0.8299999999999999
  0
TEXT
  5
32E2
  8
AM_0
 62
     4
 10
274.60798842152758
 20
244.97201573782701
 30
0.0
 40
6.0
  1
G7
 50
90.0
 41
0.8299999999999999
  0
ENDBLK
  5
32E3
  8
0
  0
BLOCK
  8
0
  2
*U6
 70
     1
 10
0.0
 20
0.0
 30
0.0
  3
*U6
  1

  0
TEXT
  5
32E6
  8
AM_0
 62
     4
 10
254.67492232600549
 20
229.40951573782689
 30
0.0
 40
7.5
  1
\U+2205
 50
90.0
 41
0.8299999999999999
  0
TEXT
  5
32E7
  8
AM_0
 62
     4
 10
254.67492232600549
 20
235.634515737827
 30
0.0
 40
7.5
  1
160
 50
90.0
 41
0.8299999999999999
  0
ENDBLK
  5
32E8
  8
0
  0
BLOCK
  8
0
  2
*U7
 70
     1
 10
0.0
 20
0.0
 30
0.0
  3
*U7
  1

  0
TEXT
  5
32EB
  8
AM_0
 62
     4
 10
517.58728526792675
 20
243.47201673782689
 30
0.0
 40
7.5
  1
\U+2205
 50
90.0
 41
0.8299999999999999
  0
TEXT
  5
32EC
  8
AM_0
 62
     4
 10
517.58728526792675
 20
249.697016737827
 30
0.0
 40
7.5
  1
140
 50
90.0
 41
0.8299999999999999
  0
TEXT
  5
32ED
  8
AM_0
 62
     4
 10
517.58728526792675
 20
265.25951673782708
 30
0.0
 40
6.0
  1
h7
 50
90.0
 41
0.8299999999999999
  0
ENDBLK
  5
32EE
  8
0
  0
BLOCK
  8
0
  2
*U8
 70
     1
 10
0.0
 20
0.0
 30
0.0
  3
*U8
  1

  0
TEXT
  5
32F1
  8
AM_0
 62
     4
 10
166.9271418434339
 20
246.1628555752398
 30
0.0
 40
7.5
  1
\U+2205
 50
90.0
 41
0.8299999999999999
  0
TEXT
  5
32F2
  8
AM_0
 62
     4
 10
166.9271418434339
 20
252.38785557523991
 30
0.0
 40
7.5
  1
160
 50
90.0
 41
0.8299999999999999
  0
ENDBLK
  5
32F3
  8
0
  0
BLOCK
  8
0
  2
*U9
 70
     1
 10
0.0
 20
0.0
 30
0.0
  3
*U9
  1

  0
TEXT
  5
32F6
  8
AM_0
 62
     4
 10
186.86020793895591
 20
242.01285557523991
 30
0.0
 40
7.5
  1
\U+2205
 50
90.0
 41
0.8299999999999999
  0
TEXT
  5
32F7
  8
AM_0
 62
     4
 10
186.86020793895591
 20
248.23785557523959
 30
0.0
 40
7.5
  1
110
 50
90.0
 41
0.8299999999999999
  0
TEXT
  5
32F8
  8
AM_0
 62
     4
 10
186.86020793895591
 20
261.72535557523992
 30
0.0
 40
6.0
  1
G7
 50
90.0
 41
0.8299999999999999
  0
ENDBLK
  5
32F9
  8
0
  0
BLOCK
  8
0
  2
*U10
 70
     1
 10
0.0
 20
0.0
 30
0.0
  3
*U10
  1

  0
TEXT
  5
32FC
  8
AM_0
 62
     4
 10
429.83950478535502
 20
260.22535657523991
 30
0.0
 40
7.5
  1
\U+2205
 50
90.0
 41
0.8299999999999999
  0
TEXT
  5
32FD
  8
AM_0
 62
     4
 10
429.83950478535502
 20
266.45035657523982
 30
0.0
 40
7.5
  1
140
 50
90.0
 41
0.8299999999999999
  0
TEXT
  5
32FE
  8
AM_0
 62
     4
 10
429.83950478535502
 20
282.01285657523982
 30
0.0
 40
6.0
  1
h7
 50
90.0
 41
0.8299999999999999
  0
ENDBLK
  5
32FF
  8
0
  0
BLOCK
  8
0
  2
_ACMFILLEDHALF
 70
     0
 10
0.0
 20
0.0
 30
0.0
  3
_ACMFILLEDHALF
  1

  0
TRACE
  5
3656
  8
AM_0
 62
     0
 10
-0.8
 20
0.0
 30
0.0
 11
-1.0
 21
0.166666666
 31
0.0
 12
0.0
 22
0.0
 32
0.0
 13
0.0
 23
0.0
 33
0.0
  0
LINE
  5
3657
  8
AM_0
 62
     0
 10
-1.0
 20
0.0
 30
0.0
 11
-0.8
 21
0.0
 31
0.0
  0
ENDBLK
  5
3655
  8
0
  0
ENDSEC
  0
SECTION
  2
ENTITIES
  0
LINE
  5
3301
  8
ﾁｭｳｼﾝｾﾝ1
 10
207.09215522482501
 20
467.03126808617981
 30
0.0
 11
396.8977821558658
 21
467.03126808617992
 31
0.0
  0
LINE
  5
3302
  8
AM_0
 10
333.53401215586581
 20
531.26233808618008
 30
0.0
 11
333.53401215586581
 21
402.8176380861799
 31
0.0
  0
LINE
  5
3303
  8
AM_0
 10
360.53401215586581
 20
537.03126808617992
 30
0.0
 11
360.53401215586581
 21
397.03119808617998
 31
0.0
  0
LINE
  5
3304
  8
AM_0
 10
356.53395215586568
 20
542.0311980861801
 30
0.0
 11
356.53395215586568
 21
392.03119808617998
 31
0.0
  0
LINE
  5
3305
  8
AM_0
 10
351.53401215586581
 20
526.53126808617992
 30
0.0
 11
351.53401215586581
 21
407.53119808617993
 31
0.0
  0
LINE
  5
3306
  8
AM_0
 10
361.53395215586579
 20
486.0570780861799
 30
0.0
 11
361.53395215586579
 21
447.78681808618012
 31
0.0
  0
LINE
  5
3307
  8
AM_0
 10
363.53395215586579
 20
457.03126808617998
 30
0.0
 11
363.53395215586579
 21
477.03126808617992
 31
0.0
  0
LINE
  5
3308
  8
AM_0
 10
391.53395215586568
 20
457.53126808617998
 30
0.0
 11
391.53395215586568
 21
476.53126808617992
 31
0.0
  0
LINE
  5
3309
  8
AM_0
 10
269.03401215586558
 20
428.97639808617993
 30
0.0
 11
269.03401215586558
 21
505.08613808617997
 31
0.0
  0
LINE
  5
330A
  8
AM_0
 10
264.0340121558657
 20
403.03126808617998
 30
0.0
 11
264.0340121558657
 21
531.03126808617992
 31
0.0
  0
LINE
  5
330B
  8
AM_0
 10
301.5340121558657
 20
407.03126808617998
 30
0.0
 11
301.5340121558657
 21
527.03126808617992
 31
0.0
  0
LINE
  5
330C
  8
AM_0
 10
333.5339821558656
 20
406.19327808617987
 30
0.0
 11
301.5340121558657
 21
407.03123808617988
 31
0.0
  0
LINE
  5
330D
  8
AM_0
 10
301.5340121558657
 20
411.50489808617988
 30
0.0
 11
333.53401215586581
 21
411.50489808617988
 31
0.0
  0
LINE
  5
330E
  8
AM_0
 10
264.0340121558657
 20
428.97639808617993
 30
0.0
 11
269.03401215586558
 21
428.97639808617993
 31
0.0
  0
LINE
  5
330F
  8
AM_0
 10
264.0340121558657
 20
415.53095808617991
 30
0.0
 11
276.15913215586562
 21
415.53095808617991
 31
0.0
  0
LINE
  5
3310
  8
AM_0
 10
268.06017215586581
 20
403.1366680861799
 30
0.0
 11
264.0340121558657
 21
403.03123808617988
 31
0.0
  0
LINE
  5
3311
  8
AM_0
 10
287.0340121558657
 20
418.71146808617988
 30
0.0
 11
287.0340121558657
 21
428.68165808617988
 31
0.0
  0
LINE
  5
3312
  8
AM_0
 10
277.03401215586558
 20
417.74293808617989
 30
0.0
 11
277.03401215586558
 21
427.65616808617989
 31
0.0
  0
LINE
  5
3313
  8
AM_0
 10
269.03401215586558
 20
411.50489808617988
 30
0.0
 11
301.5340121558657
 21
411.50489808617988
 31
0.0
  0
LINE
  5
3314
  8
AM_0
 10
269.03401215586558
 20
406.18021808617988
 30
0.0
 11
301.5340121558657
 21
407.03126808617998
 31
0.0
  0
LINE
  5
3315
  8
AM_0
 10
269.03401215586558
 20
404.13633808617999
 30
0.0
 11
269.03401215586558
 21
415.53095808617991
 31
0.0
  0
ARC
  5
3316
  8
AM_0
 10
268.0340121558657
 20
404.13633808617999
 30
0.0
 40
1.0
 50
271.4999999999992
 51
0.0
  0
LINE
  5
3317
  8
AM_0
 10
287.03398215586571
 20
417.29420808617988
 30
0.0
 11
277.89562215586562
 21
415.68287808617998
 31
0.0
  0
ARC
  5
3318
  8
AM_0
 10
276.15913215586562
 20
425.53095808618002
 30
0.0
 40
10.0
 50
270.0
 51
280.00001000000128
  0
LINE
  5
3319
  8
AM_0
 10
269.03401215586558
 20
429.85126808617991
 30
0.0
 11
287.0340121558657
 21
429.85126808617991
 31
0.0
  0
LINE
  5
331A
  8
AM_0
 10
363.53395215586579
 20
457.53126808617998
 30
0.0
 11
391.53395215586568
 21
457.53126808617998
 31
0.0
  0
LINE
  5
331B
  8
AM_0
 10
346.53395215586568
 20
394.31183808617999
 30
0.0
 11
346.53395215586568
 21
426.59083808617999
 31
0.0
  0
LINE
  5
331C
  8
AM_0
 10
338.35948215586569
 20
397.80314808617999
 30
0.0
 11
343.63869215586578
 21
397.61878808617979
 31
0.0
  0
ARC
  5
331D
  8
AM_0
 10
338.53395215586562
 20
402.80012808617988
 30
0.0
 40
5.0
 50
179.9999899999988
 51
268.00000999999861
  0
LINE
  5
331E
  8
AM_0
 10
348.46416215586572
 20
392.31302808618
 30
0.0
 11
356.53398215586571
 21
392.03123808617988
 31
0.0
  0
ARC
  5
331F
  8
AM_0
 10
343.53395215586562
 20
394.62061808617989
 30
0.0
 40
3.0
 50
0.0
 51
87.999999999999503
  0
ARC
  5
3320
  8
AM_0
 10
348.53401215586581
 20
394.31183808617999
 30
0.0
 40
2.0
 50
179.9999899999988
 51
268.00000999999861
  0
ARC
  5
3321
  8
AM_0
 10
348.53401215586581
 20
407.53119808617993
 30
0.0
 40
3.0
 50
270.0
 51
0.0
  0
LINE
  5
3322
  8
AM_0
 10
356.53395215586568
 20
397.03119808617998
 30
0.0
 11
360.53401215586581
 21
397.03119808617998
 31
0.0
  0
ARC
  5
3323
  8
AM_0
 10
348.53401215586581
 20
426.59083808617999
 30
0.0
 40
2.0
 50
88.485353000001084
 51
180.00001000000091
  0
ARC
  5
3324
  8
AM_0
 10
359.53395215586579
 20
447.93250808618012
 30
0.0
 40
2.0
 50
315.0
 51
0.0
  0
LINE
  5
3325
  8
AM_0
 10
360.53398215586571
 20
446.10407808617992
 30
0.0
 11
360.94823215586581
 21
446.51829808617998
 31
0.0
  0
LINE
  5
3326
  8
AM_0
 10
361.53401215586581
 20
457.03126808617998
 30
0.0
 11
363.53395215586579
 21
457.03126808617998
 31
0.0
  0
LINE
  5
3327
  8
AM_0
 10
301.5340121558657
 20
527.03126808617992
 30
0.0
 11
333.53401215586581
 21
527.86921808618001
 31
0.0
  0
LINE
  5
3328
  8
AM_0
 10
301.5340121558657
 20
522.55756808617991
 30
0.0
 11
333.53401215586581
 21
522.55756808617991
 31
0.0
  0
LINE
  5
3329
  8
AM_0
 10
269.03401215586558
 20
518.53126808617992
 30
0.0
 11
269.03401215586558
 21
529.92615808617995
 31
0.0
  0
LINE
  5
332A
  8
AM_0
 10
264.0340121558657
 20
518.53153808617992
 30
0.0
 11
276.15913215586562
 21
518.53153808617992
 31
0.0
  0
LINE
  5
332B
  8
AM_0
 10
264.0340121558657
 20
505.08613808617997
 30
0.0
 11
269.03401215586558
 21
505.08613808617997
 31
0.0
  0
LINE
  5
332C
  8
AM_0
 10
269.03401215586558
 20
522.55759808617995
 30
0.0
 11
301.5340121558657
 21
522.55759808617995
 31
0.0
  0
LINE
  5
332D
  8
AM_0
 10
269.03401215586558
 20
527.88227808618001
 30
0.0
 11
301.5340121558657
 21
527.03123808618
 31
0.0
  0
LINE
  5
332E
  8
AM_0
 10
287.0340121558657
 20
515.35102808618001
 30
0.0
 11
287.0340121558657
 21
505.38080808618002
 31
0.0
  0
LINE
  5
332F
  8
AM_0
 10
277.03401215586558
 20
516.31956808617986
 30
0.0
 11
277.03401215586558
 21
506.40632808617988
 31
0.0
  0
LINE
  5
3330
  8
AM_0
 10
269.03401215586558
 20
504.21122808617991
 30
0.0
 11
287.0340121558657
 21
504.21122808617991
 31
0.0
  0
LINE
  5
3331
  8
AM_0
 10
287.03398215586571
 20
516.76829808617993
 30
0.0
 11
277.89558215586561
 21
518.37961808618002
 31
0.0
  0
ARC
  5
3332
  8
AM_0
 10
276.15913215586562
 20
508.53153808617992
 30
0.0
 40
10.0
 50
79.999998000001099
 51
90.000003000000945
  0
LINE
  5
3333
  8
AM_0
 10
268.06017215586581
 20
530.92582808617999
 30
0.0
 11
264.0340121558657
 21
531.03123808618
 31
0.0
  0
ARC
  5
3334
  8
AM_0
 10
268.0340121558657
 20
529.92615808617995
 30
0.0
 40
1.0
 50
0.0
 51
88.499997000000647
  0
ARC
  5
3335
  8
AM_0
 10
348.53401215586581
 20
526.53126808617992
 30
0.0
 40
3.0
 50
0.0
 51
90.000003000000945
  0
LINE
  5
3336
  8
AM_0
 10
346.53395215586568
 20
539.75062808618009
 30
0.0
 11
346.53395215586568
 21
507.47162808617998
 31
0.0
  0
ARC
  5
3337
  8
AM_0
 10
369.53395215586579
 20
467.03126808617992
 30
0.0
 40
3.0
 50
89.986013999999244
 51
270.01398999999992
  0
LINE
  5
3338
  8
AM_0
 10
363.53395215586579
 20
476.53126808617992
 30
0.0
 11
391.53395215586568
 21
476.53126808617992
 31
0.0
  0
LINE
  5
3339
  8
AM_0
 10
361.53401215586581
 20
477.03126808617992
 30
0.0
 11
363.53395215586579
 21
477.03126808617992
 31
0.0
  0
ARC
  5
333A
  8
AM_0
 10
359.53395215586579
 20
486.1299580861799
 30
0.0
 40
2.0
 50
0.0
 51
45.000000999996892
  0
LINE
  5
333B
  8
AM_0
 10
360.53398215586571
 20
487.95838808617992
 30
0.0
 11
360.94820215586572
 21
487.54413808617988
 31
0.0
  0
ARC
  5
333C
  8
AM_0
 10
348.53401215586581
 20
507.47162808617998
 30
0.0
 40
2.0
 50
179.9999899999988
 51
271.51463999999902
  0
LINE
  5
333D
  8
AM_0
 10
369.53395215586579
 20
470.03126808617998
 30
0.0
 11
391.53395215586568
 21
470.03126808617998
 31
0.0
  0
LINE
  5
333E
  8
AM_0
 10
369.53395215586579
 20
464.03126808617992
 30
0.0
 11
391.53395215586568
 21
464.03126808617992
 31
0.0
  0
LINE
  5
333F
  8
AM_0
 10
369.53395215586579
 20
464.03126808617992
 30
0.0
 11
369.53395215586579
 21
470.03126808617998
 31
0.0
  0
LINE
  5
3340
  8
AM_0
 10
338.35954215586582
 20
536.25928808618005
 30
0.0
 11
343.63872215586571
 21
536.44364808617968
 31
0.0
  0
ARC
  5
3341
  8
AM_0
 10
338.53395215586562
 20
531.26233808618008
 30
0.0
 40
5.0
 50
91.999998000000545
 51
180.00001000000091
  0
LINE
  5
3342
  8
AM_0
 10
348.4641921558657
 20
541.74943808617991
 30
0.0
 11
356.53401215586581
 21
542.03123808617988
 31
0.0
  0
ARC
  5
3343
  8
AM_0
 10
343.53395215586562
 20
539.44184808618002
 30
0.0
 40
3.0
 50
272.0000000000004
 51
0.0
  0
ARC
  5
3344
  8
AM_0
 10
348.53401215586581
 20
539.75062808618009
 30
0.0
 40
2.0
 50
91.999998000000545
 51
180.00001000000091
  0
LINE
  5
3345
  8
AM_0
 10
356.53395215586568
 20
537.03126808617992
 30
0.0
 11
360.53401215586581
 21
537.03126808617992
 31
0.0
  0
LINE
  5
3346
  8
ﾁｭｳｼﾝｾﾝ1
 10
272.534148146934
 20
266.94136159095461
 30
0.0
 11
393.26744215586581
 21
266.94136159095461
 31
0.0
  0
LINE
  5
3347
  8
AM_0
 10
341.08916215586549
 20
185.9869375909544
 30
0.0
 11
337.53395215586568
 21
185.9869375909544
 31
0.0
  0
LINE
  5
3348
  8
AM_0
 10
341.08916215586549
 20
188.86193959095431
 30
0.0
 11
337.53395215586568
 21
188.86193959095431
 31
0.0
  0
LINE
  5
3349
  8
AM_0
 10
338.5077521558656
 20
200.86457959095441
 30
0.0
 11
346.53398215586571
 21
201.0747385909545
 31
0.0
  0
LINE
  5
334A
  8
AM_0
 10
341.08916215586549
 20
197.48693959095439
 30
0.0
 11
337.53395215586568
 21
197.48693959095439
 31
0.0
  0
LINE
  5
334B
  8
AM_0
 10
341.08916215586549
 20
194.6119375909546
 30
0.0
 11
337.53395215586568
 21
194.6119375909546
 31
0.0
  0
LINE
  5
334C
  8
AM_0
 10
338.53391215586561
 20
220.2060565909546
 30
0.0
 11
346.53395215586568
 21
220.2060565909546
 31
0.0
  0
LINE
  5
334D
  8
AM_0
 10
338.3594321558657
 20
336.16941859095482
 30
0.0
 11
343.63868215586558
 21
336.35376859095447
 31
0.0
  0
LINE
  5
334E
  8
0
  6
CONTINUOUS
 62
     7
 10
253.03395215586551
 20
311.94136059095462
 30
0.0
 11
253.03395215586551
 21
187.9413605909545
 31
0.0
  0
LINE
  5
334F
  8
0
 10
230.0339582355395
 20
327.94136059095462
 30
0.0
 11
230.0339582355395
 21
171.9413605909545
 31
0.0
  0
LINE
  5
3350
  8
0
 10
220.0339582355395
 20
329.94136059095462
 30
0.0
 11
220.0339582355395
 21
169.9413605909545
 31
0.0
  0
LINE
  5
3351
  8
AM_0
 10
301.53395215586562
 20
185.12744059095439
 30
0.0
 11
301.53395215586562
 21
309.94136359095461
 31
0.0
  0
LINE
  5
3352
  8
AM_0
 10
264.03395215586562
 20
313.44136459095461
 30
0.0
 11
264.03395215586562
 21
186.4412845909545
 31
0.0
  0
LINE
  5
3353
  8
AM_0
 10
333.53396215586559
 20
331.17246859095462
 30
0.0
 11
333.53396215586559
 21
225.20605459095441
 31
0.0
  0
ARC
  5
3354
  8
AM_0
 10
270.03395215586562
 20
289.93766959095461
 30
0.0
 40
2.00000007
 50
270.0
 51
0.0
  0
LINE
  5
3355
  8
AM_0
 10
272.03396215586559
 20
200.4413455909546
 30
0.0
 11
272.03396215586559
 21
209.94505459095461
 31
0.0
  0
LINE
  5
3356
  8
AM_0
 10
270.00776215586552
 20
189.1157845909546
 30
0.0
 11
301.53395215586562
 21
189.9413155909545
 31
0.0
  0
LINE
  5
3357
  8
AM_0
 10
271.48853215586581
 20
184.3406665909545
 30
0.0
 11
301.53395215586562
 21
185.1274255909546
 31
0.0
  0
ARC
  5
3358
  8
AM_0
 10
270.03395215586562
 20
200.4413455909546
 30
0.0
 40
2.00000007
 50
270.0
 51
0.0
  0
LINE
  5
3359
  8
0
 10
251.03395215586551
 20
191.9413605909545
 30
0.0
 11
235.0339582355393
 21
191.9413605909545
 31
0.0
  0
LINE
  5
335A
  8
0
 10
220.0339582355395
 20
169.9413605909545
 30
0.0
 11
228.0339582355395
 21
169.9413605909545
 31
0.0
  0
ARC
  5
335B
  8
0
 10
228.0339582355395
 20
171.9413605909545
 30
0.0
 40
2.0
 50
270.0
 51
0.0
1001
GENIUS_GENODEF_13
1002
{
1000
HIER
1070
     0
1002
}
1002
{
1000
MANEDIT
1070
     0
1002
}
1002
{
1000
NOSEL
1070
     0
1002
}
1002
{
1000
BEHIND
1070
     0
1002
}
1002
{
1000
OTHER
1070
     0
1002
}
1002
{
1000
REACTOR
1002
}
1001
GENIUS_GENOBJ-N-FIL_13
1002
{
1000
OWNER
1000
GEN
1002
}
  0
ARC
  5
335C
  8
0
 10
235.0339582355393
 20
186.94136059095439
 30
0.0
 40
5.0
 50
90.0
 51
180.0
1001
GENIUS_GENOBJ-N-FIL_13
1002
{
1000
OWNER
1000
GEN
1002
}
1001
GENIUS_GENODEF_13
1002
{
1000
HIER
1070
     0
1002
}
1002
{
1000
MANEDIT
1070
     0
1002
}
1002
{
1000
NOSEL
1070
     0
1002
}
1002
{
1000
BEHIND
1070
     0
1002
}
1002
{
1000
OTHER
1070
     0
1002
}
1002
{
1000
REACTOR
1002
}
  0
LINE
  5
335D
  8
0
 10
264.03395215586562
 20
185.94136059095439
 30
0.0
 11
255.03395215586551
 21
185.94136059095439
 31
0.0
  0
LINE
  5
335E
  8
AM_0
 10
264.03395215586562
 20
198.4413445909544
 30
0.0
 11
253.03395215586551
 21
198.4413445909544
 31
0.0
  0
ARC
  5
335F
  8
0
 10
251.03395215586551
 20
189.94136059095439
 30
0.0
 40
2.0
 50
0.0
 51
90.0
1001
GENIUS_GENODEF_13
1002
{
1000
HIER
1070
     0
1002
}
1002
{
1000
MANEDIT
1070
     0
1002
}
1002
{
1000
NOSEL
1070
     0
1002
}
1002
{
1000
BEHIND
1070
     0
1002
}
1002
{
1000
OTHER
1070
     0
1002
}
1002
{
1000
REACTOR
1002
}
1001
GENIUS_GENOBJ-N-FIL_13
1002
{
1000
OWNER
1000
GEN
1002
}
  0
ARC
  5
3360
  8
0
 10
255.03395215586551
 20
187.9413605909545
 30
0.0
 40
2.0
 50
180.0
 51
270.0
1001
GENIUS_GENODEF_13
1002
{
1000
HIER
1070
     0
1002
}
1002
{
1000
MANEDIT
1070
     0
1002
}
1002
{
1000
NOSEL
1070
     0
1002
}
1002
{
1000
BEHIND
1070
     0
1002
}
1002
{
1000
OTHER
1070
     0
1002
}
1002
{
1000
REACTOR
1002
}
1001
GENIUS_GENOBJ-N-FIL_13
1002
{
1000
OWNER
1000
GEN
1002
}
  0
LINE
  5
3361
  8
AM_0
 10
269.03396215586548
 20
187.54643359095439
 30
0.0
 11
269.03396215586548
 21
198.4413445909544
 31
0.0
  0
LINE
  5
3362
  8
AM_0
 10
264.03395215586562
 20
186.4413445909546
 30
0.0
 11
268.99331215586551
 21
186.5712115909545
 31
0.0
  0
LINE
  5
3363
  8
AM_0
 10
269.88545215586561
 20
186.0715795909544
 30
0.0
 11
270.59633215586558
 21
184.84033159095441
 31
0.0
  0
ARC
  5
3364
  8
AM_0
 10
268.03394215586559
 20
187.54643359095439
 30
0.0
 40
1.0000000199999981
 50
271.4999999999992
 51
0.0
  0
ARC
  5
3365
  8
AM_0
 10
270.03395215586562
 20
188.1161335909546
 30
0.0
 40
1.0000000199999981
 50
91.500001000001546
 51
180.00001000000091
  0
ARC
  5
3366
  8
AM_0
 10
269.01947215586563
 20
185.57154859095439
 30
0.0
 40
1.0000000199999981
 50
30.00000099999983
 51
91.500001000001546
  0
ARC
  5
3367
  8
AM_0
 10
271.46234215586549
 20
185.3403175909545
 30
0.0
 40
1.0000000199999981
 50
210.0000000000004
 51
271.4999999999992
  0
LINE
  5
3368
  8
AM_0
 10
264.03395215586562
 20
198.4413445909544
 30
0.0
 11
270.03395215586562
 21
198.4413445909544
 31
0.0
  0
LINE
  5
3369
  8
AM_0
 10
301.53395215586562
 20
197.1607195909545
 30
0.0
 11
337.53395215586568
 21
197.1607195909545
 31
0.0
  0
LINE
  5
336A
  8
AM_0
 10
301.53395215586562
 20
185.12744059095439
 30
0.0
 11
337.5339821558656
 21
183.8702995909546
 31
0.0
  0
LINE
  5
336B
  8
AM_0
 10
337.53395215586568
 20
200.1401365909546
 30
0.0
 11
337.53395215586568
 21
183.9413455909546
 31
0.0
  0
ARC
  5
336C
  8
AM_0
 10
338.53391215586561
 20
199.8649135909545
 30
0.0
 40
1.0000000199999981
 50
91.500001000001546
 51
180.00001000000091
  0
LINE
  5
336D
  8
ﾁｭｳｼﾝｾﾝ1
 10
207.09215522482501
 20
249.94136059095439
 30
0.0
 11
294.35316450263161
 21
249.94136059095439
 31
0.0
  0
ARC
  5
336E
  8
AM_0
 10
270.03395215586562
 20
209.94505459095461
 30
0.0
 40
2.00000007
 50
0.0
 51
90.000003000000945
  0
LINE
  5
336F
  8
AM_0
 10
269.03396215586548
 20
211.9450375909546
 30
0.0
 11
269.03396215586548
 21
287.93767159095472
 31
0.0
  0
LINE
  5
3370
  8
AM_0
 10
264.03395215586562
 20
212.7934255909546
 30
0.0
 11
253.03395215586551
 21
212.7934255909546
 31
0.0
  0
LINE
  5
3371
  8
AM_0
 10
264.03395215586562
 20
211.9450375909546
 30
0.0
 11
270.03395215586562
 21
211.9450375909546
 31
0.0
  0
LINE
  5
3372
  8
AM_0
 10
264.03395215586562
 20
287.08928059095462
 30
0.0
 11
253.03395215586551
 21
287.08928059095462
 31
0.0
  0
LINE
  5
3373
  8
AM_0
 10
264.03395215586562
 20
287.93767159095472
 30
0.0
 11
270.03395215586562
 21
287.93767159095472
 31
0.0
  0
ARC
  5
3374
  8
AM_0
 10
338.53391215586561
 20
225.20605459095441
 30
0.0
 40
5.0000001000000003
 50
179.9999899999988
 51
270.0
  0
LINE
  5
3375
  8
AM_0
 10
270.00776215586552
 20
310.76689459095462
 30
0.0
 11
301.53395215586562
 21
309.94136359095461
 31
0.0
  0
ARC
  5
3376
  8
AM_0
 10
270.03395215586562
 20
299.44136359095461
 30
0.0
 40
2.00000007
 50
0.0
 51
90.000003000000945
  0
LINE
  5
3377
  8
0
 10
251.03395215586551
 20
307.94136059095462
 30
0.0
 11
235.0339582355393
 21
307.94136059095462
 31
0.0
  0
ARC
  5
3378
  8
0
 10
235.0339582355393
 20
312.94136059095462
 30
0.0
 40
5.0
 50
180.0
 51
270.0
1001
GENIUS_GENOBJ-N-FIL_13
1002
{
1000
OWNER
1000
GEN
1002
}
1001
GENIUS_GENODEF_13
1002
{
1000
HIER
1070
     0
1002
}
1002
{
1000
MANEDIT
1070
     0
1002
}
1002
{
1000
NOSEL
1070
     0
1002
}
1002
{
1000
BEHIND
1070
     0
1002
}
1002
{
1000
OTHER
1070
     0
1002
}
1002
{
1000
REACTOR
1002
}
  0
LINE
  5
3379
  8
0
 10
220.0339582355395
 20
329.94136059095462
 30
0.0
 11
228.0339582355395
 21
329.94136059095462
 31
0.0
  0
ARC
  5
337A
  8
0
 10
228.0339582355395
 20
327.94136059095462
 30
0.0
 40
2.0
 50
0.0
 51
90.0
1001
GENIUS_GENODEF_13
1002
{
1000
HIER
1070
     0
1002
}
1002
{
1000
MANEDIT
1070
     0
1002
}
1002
{
1000
NOSEL
1070
     0
1002
}
1002
{
1000
BEHIND
1070
     0
1002
}
1002
{
1000
OTHER
1070
     0
1002
}
1002
{
1000
REACTOR
1002
}
1001
GENIUS_GENOBJ-N-FIL_13
1002
{
1000
OWNER
1000
GEN
1002
}
  0
LINE
  5
337B
  8
AM_0
 10
269.03396215586548
 20
301.44136459095461
 30
0.0
 11
269.03396215586548
 21
312.33626059095462
 31
0.0
  0
ARC
  5
337C
  8
0
 10
251.03395215586551
 20
309.94136059095462
 30
0.0
 40
2.0
 50
270.0
 51
0.0
1001
GENIUS_GENODEF_13
1002
{
1000
HIER
1070
     0
1002
}
1002
{
1000
MANEDIT
1070
     0
1002
}
1002
{
1000
NOSEL
1070
     0
1002
}
1002
{
1000
BEHIND
1070
     0
1002
}
1002
{
1000
OTHER
1070
     0
1002
}
1002
{
1000
REACTOR
1002
}
1001
GENIUS_GENOBJ-N-FIL_13
1002
{
1000
OWNER
1000
GEN
1002
}
  0
LINE
  5
337D
  8
AM_0
 10
264.03395215586562
 20
301.4413705909547
 30
0.0
 11
253.03395215586551
 21
301.4413705909547
 31
0.0
  0
LINE
  5
337E
  8
AM_0
 10
272.03396215586559
 20
289.93766959095461
 30
0.0
 11
272.03396215586559
 21
299.44136359095461
 31
0.0
  0
LINE
  5
337F
  8
AM_0
 10
264.03395215586562
 20
301.44136459095461
 30
0.0
 11
270.03395215586562
 21
301.44136459095461
 31
0.0
  0
LINE
  5
3380
  8
0
 10
264.03395215586562
 20
313.94136059095462
 30
0.0
 11
255.03395215586551
 21
313.94136059095462
 31
0.0
  0
ARC
  5
3381
  8
0
 10
255.03395215586551
 20
311.94136059095462
 30
0.0
 40
2.0
 50
90.0
 51
180.0
1001
GENIUS_GENODEF_13
1002
{
1000
HIER
1070
     0
1002
}
1002
{
1000
MANEDIT
1070
     0
1002
}
1002
{
1000
NOSEL
1070
     0
1002
}
1002
{
1000
BEHIND
1070
     0
1002
}
1002
{
1000
OTHER
1070
     0
1002
}
1002
{
1000
REACTOR
1002
}
1001
GENIUS_GENOBJ-N-FIL_13
1002
{
1000
OWNER
1000
GEN
1002
}
  0
LINE
  5
3382
  8
AM_0
 10
264.03395215586562
 20
313.44136459095461
 30
0.0
 11
268.06007215586573
 21
313.33592659095461
 31
0.0
  0
ARC
  5
3383
  8
AM_0
 10
270.03395215586562
 20
311.76659059095471
 30
0.0
 40
1.0000000199999981
 50
179.9999899999988
 51
268.50000999999872
  0
ARC
  5
3384
  8
AM_0
 10
268.03394215586559
 20
312.33626059095462
 30
0.0
 40
1.0000000199999981
 50
0.0
 51
88.499997000000747
  0
ARC
  5
3385
  8
AM_0
 10
338.53391215586561
 20
331.17246859095462
 30
0.0
 40
5.0000001000000003
 50
91.999998000000545
 51
180.00001000000091
  0
LINE
  5
3386
  8
AM_0
 10
301.53395215586562
 20
292.54820659095452
 30
0.0
 11
331.72997215586571
 21
292.54820659095452
 31
0.0
  0
LINE
  5
3387
  8
AM_0
 10
301.53395215586562
 20
309.94136359095461
 30
0.0
 11
330.61247215586559
 21
310.70280859095448
 31
0.0
  0
LINE
  5
3388
  8
AM_0
 10
273.48635215586557
 20
292.54820659095452
 30
0.0
 11
301.53395215586562
 21
292.54820659095452
 31
0.0
  0
ARC
  5
3389
  8
AM_0
 10
330.53396215586571
 20
313.70180059095458
 30
0.0
 40
3.0
 50
271.4999999999992
 51
0.0
  0
LINE
  5
338A
  8
ﾁｭｳｼﾝｾﾝ1
 10
544.76512384979992
 20
167.5194832555419
 30
0.0
 11
544.76512384979992
 21
346.25273038828828
 31
0.0
  0
LINE
  5
338B
  8
AM_0
 10
360.53396215586571
 20
336.94137859095463
 30
0.0
 11
360.53396215586571
 21
266.94136159095461
 31
0.0
  0
LINE
  5
338C
  8
AM_0
 10
599.74640284980001
 20
285.40658959095452
 30
0.0
 11
599.74640284980001
 21
291.18007159095453
 31
0.0
  0
LINE
  5
338D
  8
AM_0
 10
589.7464008497999
 20
291.18007159095453
 30
0.0
 11
589.7464008497999
 21
285.40658959095452
 31
0.0
  0
LINE
  5
338E
  8
AM_0
 10
499.7838738498001
 20
285.40658959095452
 30
0.0
 11
499.7838738498001
 21
291.18007159095453
 31
0.0
  0
LINE
  5
338F
  8
AM_0
 10
489.78387484979987
 20
291.18007159095453
 30
0.0
 11
489.78387484979987
 21
285.40658959095452
 31
0.0
  0
LINE
  5
3390
  8
AM_0
 10
619.76512384979992
 20
286.94133259095452
 30
0.0
 11
616.07168884980001
 21
329.15752159095462
 31
0.0
  0
LINE
  5
3391
  8
AM_0
 10
469.7651058497998
 20
286.94136259095461
 30
0.0
 11
473.45855584979989
 21
329.15755159095471
 31
0.0
  0
CIRCLE
  5
3392
  8
AM_0
 10
594.74638684980005
 20
288.29332159095452
 30
0.0
 40
4.9999998000000003
  0
ARC
  5
3393
  8
AM_0
 10
544.76512384979992
 20
266.94136159095461
 30
0.0
 40
44.000000999999983
 50
19.99999899999905
 51
42.452681999998767
  0
ARC
  5
3394
  8
AM_0
 10
544.76512384979992
 20
266.94136159095461
 30
0.0
 40
70.000001999999995
 50
290.65615000000031
 51
249.34383999999821
  0
ARC
  5
3395
  8
AM_0
 10
544.76512384979992
 20
266.94136159095461
 30
0.0
 40
66.000003000000007
 50
291.27995999999911
 51
248.7200300000012
  0
CIRCLE
  5
3396
  8
AM_0
 10
494.78387284979988
 20
288.29332159095452
 30
0.0
 40
4.9999998000000003
  0
ARC
  5
3397
  8
AM_0
 10
518.16445984979987
 20
286.4709505909546
 30
0.0
 40
3.0
 50
323.71473999999961
 51
45.000000999999187
  0
ARC
  5
3398
  8
AM_0
 10
544.76512384979992
 20
266.94136159095461
 30
0.0
 40
44.000000999999983
 50
137.54732000000001
 51
174.50581000000039
  0
ARC
  5
3399
  8
AM_0
 10
544.76512384979992
 20
266.94136159095461
 30
0.0
 40
30.0
 50
17.592213999998641
 51
225.82602999999909
  0
ARC
  5
339A
  8
AM_0
 10
571.36578484979975
 20
286.4709505909546
 30
0.0
 40
3.0
 50
135.0
 51
216.28526000000031
  0
LINE
  5
339B
  8
AM_0
 10
356.53391215586578
 20
341.94135859095462
 30
0.0
 11
356.53391215586578
 21
197.0375365909544
 31
0.0
  0
LINE
  5
339C
  8
AM_0
 10
351.53396215586559
 20
326.44136359095461
 30
0.0
 11
351.53396215586559
 21
212.32603459095441
 31
0.0
  0
ARC
  5
339D
  8
AM_0
 10
566.31514084979995
 20
232.0613425909545
 30
0.0
 40
20.000000700000001
 50
225.82602999999909
 51
17.592213999998641
  0
LINE
  5
339E
  8
ﾁｭｳｼﾝｾﾝ1
 10
468.32711584980001
 20
266.94136159095461
 30
0.0
 11
624.13774796721009
 21
266.94136159095461
 31
0.0
  0
ARC
  5
339F
  8
AM_0
 10
544.76512384979992
 20
249.94136059095439
 30
0.0
 40
80.0
 50
222.45416476485431
 51
317.54583523514549
  0
LINE
  5
33A0
  8
AM_0
 10
583.26408484979993
 20
195.9413155909545
 30
0.0
 11
580.08865684980015
 21
201.44131459095439
 31
0.0
  0
LINE
  5
33A1
  8
AM_0
 10
585.37977784979955
 20
238.10614159095439
 30
0.0
 11
573.36209284980009
 21
276.00856159095463
 31
0.0
  0
ARC
  5
33A2
  8
AM_0
 10
582.0275598497999
 20
216.14259259095439
 30
0.0
 40
3.0
 50
211.7091199999995
 51
306.26120000000037
  0
LINE
  5
33A3
  8
AM_0
 10
346.53395215586568
 20
199.31811559095439
 30
0.0
 11
346.53395215586568
 21
226.40635759095451
 31
0.0
  0
LINE
  5
33A4
  8
AM_0
 10
360.53396215586571
 20
266.94136159095461
 30
0.0
 11
360.53396215586571
 21
201.44134459095449
 31
0.0
  0
LINE
  5
33A5
  8
AM_0
 10
348.46418215586561
 20
197.31933559095441
 30
0.0
 11
356.5339421558657
 21
197.0375365909544
 31
0.0
  0
LINE
  5
33A6
  8
AM_0
 10
341.53391215586561
 20
196.0494385909544
 30
0.0
 11
341.53391215586561
 21
187.4244235909546
 31
0.0
  0
ARC
  5
33A7
  8
AM_0
 10
332.0194421558657
 20
191.7369385909544
 30
0.0
 40
9.5144921999999994
 50
342.41196000000002
 51
17.588032999999289
  0
ARC
  5
33A8
  8
AM_0
 10
338.98853215586581
 20
187.4244235909546
 30
0.0
 40
2.5454064299999981
 50
325.615569999998
 51
34.384438999999539
  0
ARC
  5
33A9
  8
AM_0
 10
348.53396215586571
 20
199.31811559095439
 30
0.0
 40
2.00000007
 50
179.9999899999988
 51
268.00000999999861
  0
ARC
  5
33AA
  8
AM_0
 10
338.98853215586581
 20
196.0494385909544
 30
0.0
 40
2.5454064299999981
 50
325.615569999998
 51
34.384438999999539
  0
LINE
  5
33AB
  8
AM_0
 10
356.5339421558657
 20
201.3366085909546
 30
0.0
 11
360.53396215586571
 21
201.44134459095449
 31
0.0
  0
ARC
  5
33AC
  8
AM_0
 10
349.53395215586579
 20
212.32603459095441
 30
0.0
 40
2.00000007
 50
267.9999999999996
 51
0.0
  0
ARC
  5
33AD
  8
AM_0
 10
348.53396215586571
 20
226.40635759095451
 30
0.0
 40
2.00000007
 50
90.000003000000945
 51
180.00001000000091
  0
LINE
  5
33AE
  8
AM_0
 10
363.53393215586578
 20
276.4413775909544
 30
0.0
 11
391.53395215586568
 21
276.4413775909544
 31
0.0
  0
LINE
  5
33AF
  8
AM_0
 10
363.53393215586578
 20
257.44136359095461
 30
0.0
 11
391.53395215586568
 21
257.44136359095461
 31
0.0
  0
LINE
  5
33B0
  8
AM_0
 10
369.53393215586578
 20
278.94136359095461
 30
0.0
 11
391.53395215586568
 21
278.94136359095461
 31
0.0
  0
LINE
  5
33B1
  8
AM_0
 10
363.53393215586578
 20
256.9413775909544
 30
0.0
 11
363.53393215586578
 21
266.94136159095461
 31
0.0
  0
LINE
  5
33B2
  8
AM_0
 10
361.53395215586568
 20
285.96721159095461
 30
0.0
 11
361.53395215586568
 21
247.69693159095439
 31
0.0
  0
LINE
  5
33B3
  8
AM_0
 10
360.53399215586558
 20
245.8684555909544
 30
0.0
 11
360.94820215586572
 21
246.28267159095461
 31
0.0
  0
ARC
  5
33B4
  8
AM_0
 10
359.53391215586572
 20
247.69693159095439
 30
0.0
 40
2.00000007
 50
315.0
 51
0.0
  0
LINE
  5
33B5
  8
AM_0
 10
361.53395215586568
 20
256.9413775909544
 30
0.0
 11
363.53393215586578
 21
256.9413775909544
 31
0.0
  0
LINE
  5
33B6
  8
AM_0
 10
369.53393215586578
 20
276.4413775909544
 30
0.0
 11
369.53393215586578
 21
278.94136359095461
 31
0.0
  0
LINE
  5
33B7
  8
AM_0
 10
363.53393215586578
 20
276.94136359095461
 30
0.0
 11
363.53393215586578
 21
266.94136159095461
 31
0.0
  0
LINE
  5
33B8
  8
AM_0
 10
361.53395215586568
 20
276.94136359095461
 30
0.0
 11
363.53393215586578
 21
276.94136359095461
 31
0.0
  0
LINE
  5
33B9
  8
AM_0
 10
360.53396215586571
 20
287.8684885909546
 30
0.0
 11
360.94820215586572
 21
287.4542725909547
 31
0.0
  0
ARC
  5
33BA
  8
AM_0
 10
359.53391215586572
 20
286.04008759095461
 30
0.0
 40
2.00000007
 50
0.0
 51
45.000000999999187
  0
LINE
  5
33BB
  8
AM_0
 10
391.53395215586568
 20
257.44136359095461
 30
0.0
 11
391.53395215586568
 21
278.94136359095461
 31
0.0
  0
LINE
  5
33BC
  8
ﾁｭｳｼﾝｾﾝ1
 10
491.16728579149998
 20
213.34350853265479
 30
0.0
 11
478.64458976955882
 21
200.82081251071341
 31
0.0
  0
ARC
  5
33BD
  8
ﾁｭｳｼﾝｾﾝ1
 10
544.76512384980401
 20
266.94136159095842
 30
0.0
 40
85.000002000005679
 50
218.7785415463469
 51
231.18880219959189
  0
ARC
  5
33BE
  8
AM_0
 10
483.39034984979992
 20
205.9413295909545
 30
0.0
 40
10.000000200000001
 50
184.9999899999992
 51
270.0
  0
LINE
  5
33BF
  8
AM_0
 10
509.4416058498
 20
201.4413295909545
 30
0.0
 11
544.76512384979992
 21
201.4413295909545
 31
0.0
  0
ARC
  5
33C0
  8
AM_0
 10
520.65606784980014
 20
191.7369235909544
 30
0.0
 40
7.0000007999999987
 50
161.7480200000015
 51
270.0
  0
ARC
  5
33C1
  8
AM_0
 10
509.25981184979997
 20
195.4952845909545
 30
0.0
 40
5.0000001000000003
 50
341.74802000000147
 51
56.890859000001697
  0
LINE
  5
33C2
  8
AM_0
 10
506.26618984979967
 20
195.9413455909546
 30
0.0
 11
483.39034984979992
 21
195.9413455909546
 31
0.0
  0
LINE
  5
33C3
  8
AM_0
 10
506.26621984979982
 20
195.9413455909546
 30
0.0
 11
509.44163584979998
 21
201.44134459095449
 31
0.0
  0
ARC
  5
33C4
  8
AM_0
 10
544.76512384979992
 20
249.94136059095439
 30
0.0
 40
60.000002999999992
 50
233.9334099999989
 51
236.89084999999881
  0
LINE
  5
33C5
  8
AM_0
 10
520.65606784980014
 20
184.73693959095439
 30
0.0
 11
568.87420684979975
 21
184.73693959095439
 31
0.0
  0
LINE
  5
33C6
  8
AM_0
 10
580.08864184979996
 20
201.4413295909545
 30
0.0
 11
544.76512384979992
 21
201.4413295909545
 31
0.0
  0
CIRCLE
  5
33C7
  8
AM_0
 10
520.65606784980014
 20
191.7369535909545
 30
0.0
 40
4.9999998000000003
  0
LINE
  5
33C8
  8
AM_0
 10
515.65606684980003
 20
194.62370359095439
 30
0.0
 11
515.65606684980003
 21
188.8501735909546
 31
0.0
  0
LINE
  5
33C9
  8
AM_0
 10
525.65605084979995
 20
188.8501735909546
 30
0.0
 11
525.65605084979995
 21
194.62370359095439
 31
0.0
  0
LINE
  5
33CA
  8
AM_0
 10
520.65608284979987
 20
185.9634385909545
 30
0.0
 11
525.6560838498001
 21
188.85018859095439
 31
0.0
  0
LINE
  5
33CB
  8
AM_0
 10
515.65609684979995
 20
188.8501735909546
 30
0.0
 11
520.65609784979995
 21
185.96342359095439
 31
0.0
  0
LINE
  5
33CC
  8
AM_0
 10
525.6560838498001
 20
194.6236735909545
 30
0.0
 11
520.65609784979995
 21
197.5104205909546
 31
0.0
  0
LINE
  5
33CD
  8
AM_0
 10
520.65608284979987
 20
197.5104355909545
 30
0.0
 11
515.65609684979995
 21
194.6236885909544
 31
0.0
  0
CIRCLE
  5
33CE
  8
AM_0
 10
568.87420684979975
 20
191.7369535909545
 30
0.0
 40
4.9999998000000003
  0
LINE
  5
33CF
  8
AM_0
 10
563.87420884979986
 20
188.8501735909546
 30
0.0
 11
568.87420684979975
 21
185.96342359095439
 31
0.0
  0
LINE
  5
33D0
  8
AM_0
 10
568.87419184980013
 20
197.5104535909546
 30
0.0
 11
563.87419384979967
 21
194.6236885909544
 31
0.0
  0
LINE
  5
33D1
  8
AM_0
 10
563.87419384979967
 20
194.62370359095439
 30
0.0
 11
563.87419384979967
 21
188.8501735909546
 31
0.0
  0
ARC
  5
33D2
  8
AM_0
 10
568.87420684979975
 20
191.7369235909544
 30
0.0
 40
7.0000007999999987
 50
270.0
 51
18.251978000000921
  0
LINE
  5
33D3
  8
AM_0
 10
573.87419284980001
 20
188.8501735909546
 30
0.0
 11
573.87419284980001
 21
194.62370359095439
 31
0.0
  0
LINE
  5
33D4
  8
AM_0
 10
568.87419184980013
 20
185.9634385909545
 30
0.0
 11
573.87419284980001
 21
188.85018859095439
 31
0.0
  0
LINE
  5
33D5
  8
AM_0
 10
573.87420784980009
 20
194.6236735909545
 30
0.0
 11
568.87420684979975
 21
197.5104205909546
 31
0.0
  0
ARC
  5
33D6
  8
AM_0
 10
544.76512384979992
 20
249.94136059095439
 30
0.0
 40
60.000002999999992
 50
303.10914000000031
 51
304.41150999999832
  0
ARC
  5
33D7
  8
AM_0
 10
544.76512384979992
 20
249.94136059095439
 30
0.0
 40
60.000002999999992
 50
303.10914000000031
 51
306.06659000000082
  0
ARC
  5
33D8
  8
AM_0
 10
580.27046284979986
 20
195.4952845909545
 30
0.0
 40
5.0000001000000003
 50
123.1091299999986
 51
198.25197999999841
  0
LINE
  5
33D9
  8
AM_0
 10
520.28578084979995
 20
245.2904515909544
 30
0.0
 11
498.94369384979967
 21
223.9483645909545
 31
0.0
  0
LINE
  5
33DA
  8
AM_0
 10
522.89335684980006
 20
242.2411675909544
 30
0.0
 11
501.77212384979993
 21
221.11993459095461
 31
0.0
  0
LINE
  5
33DB
  8
AM_0
 10
469.76513584979972
 20
246.94134559095451
 30
0.0
 11
473.42843584979988
 21
205.0697785909544
 31
0.0
  0
ARC
  5
33DC
  8
AM_0
 10
544.76512384979992
 20
266.94136159095461
 30
0.0
 40
44.000000999999983
 50
185.49418999999921
 51
222.45267999999999
  0
ARC
  5
33DD
  8
AM_0
 10
544.76512384979992
 20
249.94136059095439
 30
0.0
 40
80.0
 50
159.6358404961945
 51
205.41337079564309
  0
CIRCLE
  5
33DE
  8
AM_0
 10
484.66107184979973
 20
206.8372645909545
 30
0.0
 40
5.0000001000000003
  0
ARC
  5
33DF
  8
AM_0
 10
496.82238784979972
 20
226.06967359095461
 30
0.0
 40
3.0
 50
220.4479199999985
 51
315.0
  0
ARC
  5
33E0
  8
AM_0
 10
503.8934478498
 20
218.99861359095439
 30
0.0
 40
3.0
 50
135.0
 51
229.5520800000011
  0
ARC
  5
33E1
  8
AM_0
 10
481.92602584979988
 20
262.44136159095461
 30
0.0
 40
3.0
 50
90.000003000000945
 51
184.0960400000009
  0
ARC
  5
33E2
  8
AM_0
 10
481.92602584979988
 20
271.4413615909545
 30
0.0
 40
3.0
 50
175.90394999999901
 51
270.0
  0
LINE
  5
33E3
  8
AM_0
 10
469.76513584979972
 20
266.94136159095461
 30
0.0
 11
469.76513584979972
 21
246.9413605909545
 31
0.0
  0
LINE
  5
33E4
  8
AM_0
 10
469.76513584979972
 20
266.94136159095461
 30
0.0
 11
469.76513584979972
 21
286.94133259095452
 31
0.0
  0
LINE
  5
33E5
  8
AM_0
 10
481.92602584979988
 20
265.44136159095461
 30
0.0
 11
497.98103284979987
 21
265.44136159095461
 31
0.0
  0
ARC
  5
33E6
  8
AM_0
 10
497.98103284979987
 20
262.44136159095461
 30
0.0
 40
3.0
 50
5.4941789999992992
 51
90.000003000000945
  0
LINE
  5
33E7
  8
AM_0
 10
481.92602584979988
 20
268.44136159095461
 30
0.0
 11
497.98103284979987
 21
268.44136159095461
 31
0.0
  0
LINE
  5
33E8
  8
AM_0
 10
494.78387284979988
 20
282.51980959095448
 30
0.0
 11
499.78388884979989
 21
285.40655659095461
 31
0.0
  0
LINE
  5
33E9
  8
AM_0
 10
489.78390484979963
 20
285.40654159095448
 30
0.0
 11
494.78390584980002
 21
282.51979459095452
 31
0.0
  0
ARC
  5
33EA
  8
AM_0
 10
497.98103284979987
 20
271.4413615909545
 30
0.0
 40
3.0
 50
270.0
 51
354.50582000000048
  0
LINE
  5
33EB
  8
AM_0
 10
552.37835884979995
 20
217.71678259095441
 30
0.0
 11
523.85995384979992
 21
245.4245305909545
 31
0.0
  0
LINE
  5
33EC
  8
AM_0
 10
568.7182188498
 20
205.4413465909544
 30
0.0
 11
520.81204384979969
 21
205.4413465909544
 31
0.0
  0
LINE
  5
33ED
  8
AM_0
 10
515.06663584979992
 20
234.41444659095461
 30
0.0
 11
538.9184118497999
 21
210.5626675909545
 31
0.0
  0
ARC
  5
33EE
  8
AM_0
 10
536.79709084980004
 20
208.4413465909544
 30
0.0
 40
3.0
 50
270.0
 51
45.000000999999187
  0
ARC
  5
33EF
  8
AM_0
 10
525.01468084980002
 20
240.1198435909545
 30
0.0
 40
3.0
 50
45.82603099999853
 51
135.0
  0
ARC
  5
33F0
  8
AM_0
 10
573.52029484980017
 20
210.8865355909544
 30
0.0
 40
3.0
 50
297.15705000000082
 51
31.70912200000048
  0
LINE
  5
33F1
  8
AM_0
 10
578.47604584980013
 20
216.18329059095461
 30
0.0
 11
579.47539084980008
 21
214.5657805909546
 31
0.0
  0
LINE
  5
33F2
  8
AM_0
 10
575.07313684979999
 20
214.08085759095439
 30
0.0
 11
576.07248184980006
 21
212.4633475909545
 31
0.0
  0
LINE
  5
33F3
  8
ﾁｭｳｼﾝｾﾝ1
 10
578.45633217273007
 20
249.94136059095439
 30
0.0
 11
511.07391552686943
 21
249.94136059095439
 31
0.0
  0
ARC
  5
33F4
  8
AM_0
 10
544.76512384979992
 20
266.94136159095461
 30
0.0
 40
20.000000700000001
 50
270.0
 51
90.000003000000945
  0
ARC
  5
33F5
  8
AM_0
 10
544.76512384979992
 20
266.94136159095461
 30
0.0
 40
20.000000700000001
 50
270.0
 51
90.000003000000945
  0
ARC
  5
33F6
  8
AM_0
 10
544.76512384979992
 20
266.94136159095461
 30
0.0
 40
9.5000003999999993
 50
108.4084799999998
 51
71.591512000000776
  0
CIRCLE
  5
33F7
  8
AM_5
 10
544.76512384979992
 20
266.94136159095461
 30
0.0
 40
3.0
  0
LINE
  5
33F8
  8
AM_0
 10
541.76512384979992
 20
272.94136159095461
 30
0.0
 11
547.76512384979981
 21
272.94136159095461
 31
0.0
  0
LINE
  5
33F9
  8
AM_0
 10
547.76512384979981
 20
278.94136159095461
 30
0.0
 11
541.76512384979992
 21
278.94136159095461
 31
0.0
  0
CIRCLE
  5
33FA
  8
AM_0
 10
544.76512384979992
 20
266.94136159095461
 30
0.0
 40
2.4999998400000001
  0
ARC
  5
33FB
  8
AM_0
 10
544.76512384979992
 20
266.94136159095461
 30
0.0
 40
20.000000700000001
 50
90.000003000000945
 51
270.0
  0
ARC
  5
33FC
  8
AM_0
 10
544.76512384979992
 20
266.94136159095461
 30
0.0
 40
20.000000700000001
 50
90.000003000000945
 51
270.0
  0
ARC
  5
33FD
  8
AM_0
 10
518.16445984979987
 20
247.4117605909546
 30
0.0
 40
3.0
 50
315.0
 51
36.285256999999532
  0
LINE
  5
33FE
  8
AM_0
 10
541.76512384979992
 20
278.94136159095461
 30
0.0
 11
541.76512384979992
 21
272.94136159095461
 31
0.0
  0
LINE
  5
33FF
  8
AM_0
 10
547.76512384979981
 20
272.94136159095461
 30
0.0
 11
547.76512384979981
 21
278.94136159095461
 31
0.0
  0
ARC
  5
3400
  8
AM_0
 10
606.13989484980004
 20
205.9413295909545
 30
0.0
 40
10.000000200000001
 50
270.0
 51
355.00000000000023
  0
LINE
  5
3401
  8
AM_0
 10
583.26406984980008
 20
195.9413455909546
 30
0.0
 11
606.13989484980004
 21
195.9413455909546
 31
0.0
  0
ARC
  5
3402
  8
AM_0
 10
544.76512384979992
 20
249.94136059095439
 30
0.0
 40
80.0
 50
334.5867093018291
 51
20.364103934418541
  0
LINE
  5
3403
  8
AM_0
 10
619.7651388498
 20
246.9413605909545
 30
0.0
 11
616.10185684980001
 21
205.06979359095439
 31
0.0
  0
LINE
  5
3404
  8
AM_0
 10
593.60029984979997
 20
261.41526859095461
 30
0.0
 11
602.62449784980004
 21
236.62146259095439
 31
0.0
  0
CIRCLE
  5
3405
  8
AM_0
 10
604.86922084980006
 20
206.8372645909545
 30
0.0
 40
5.0000001000000003
  0
LINE
  5
3406
  8
AM_0
 10
607.60422184980007
 20
265.44136159095461
 30
0.0
 11
596.41936084980011
 21
265.44136159095461
 31
0.0
  0
ARC
  5
3407
  8
AM_0
 10
596.41936084980011
 20
262.44136159095461
 30
0.0
 40
3.0
 50
90.000003000000945
 51
199.9999999999992
  0
ARC
  5
3408
  8
AM_0
 10
607.60422184980007
 20
262.44136159095461
 30
0.0
 40
3.0
 50
355.90395999999907
 51
90.000003000000945
  0
LINE
  5
3409
  8
AM_0
 10
607.60422184980007
 20
268.44136159095461
 30
0.0
 11
593.14361884979985
 21
268.44136159095461
 31
0.0
  0
LINE
  5
340A
  8
AM_0
 10
594.74640184980012
 20
282.51980959095448
 30
0.0
 11
599.74640284980001
 21
285.40657459095462
 31
0.0
  0
LINE
  5
340B
  8
AM_0
 10
586.11161884979992
 20
281.9902225909546
 30
0.0
 11
590.32455784979993
 21
270.41527159095472
 31
0.0
  0
ARC
  5
340C
  8
AM_0
 10
593.14361884979985
 20
271.4413615909545
 30
0.0
 40
3.0
 50
199.9999999999992
 51
270.0
  0
LINE
  5
340D
  8
AM_0
 10
589.7464008497999
 20
285.40654159095448
 30
0.0
 11
594.74640184980012
 21
282.51980959095448
 31
0.0
  0
ARC
  5
340E
  8
AM_0
 10
607.60422184980007
 20
271.4413615909545
 30
0.0
 40
3.0
 50
270.0
 51
4.0960440000003242
  0
LINE
  5
340F
  8
AM_0
 10
619.7651388498
 20
266.94136159095461
 30
0.0
 11
619.7651388498
 21
246.9413605909545
 31
0.0
  0
LINE
  5
3410
  8
AM_0
 10
619.7651388498
 20
266.94136159095461
 30
0.0
 11
619.7651388498
 21
286.94133259095452
 31
0.0
  0
LINE
  5
3411
  8
AM_0
 10
569.24446384980001
 20
288.59227159095462
 30
0.0
 11
590.58655084980001
 21
309.9343435909546
 31
0.0
  0
LINE
  5
3412
  8
AM_0
 10
564.76512184979993
 20
341.94135859095462
 30
0.0
 11
606.98131084979968
 21
338.24793859095462
 31
0.0
  0
LINE
  5
3413
  8
AM_0
 10
566.41603384979999
 20
291.42070159095448
 30
0.0
 11
587.75810584980013
 21
312.76277359095468
 31
0.0
  0
LINE
  5
3414
  8
AM_0
 10
346.53395215586568
 20
339.66078859095461
 30
0.0
 11
346.53395215586568
 21
307.38173359095452
 31
0.0
  0
ARC
  5
3415
  8
AM_0
 10
348.53396215586571
 20
307.38173359095452
 30
0.0
 40
2.00000007
 50
179.9999899999988
 51
271.51463999999902
  0
ARC
  5
3416
  8
AM_0
 10
348.53396215586571
 20
326.44136359095461
 30
0.0
 40
3.0
 50
0.0
 51
90.000003000000945
  0
LINE
  5
3417
  8
AM_0
 10
348.46415215586569
 20
341.65953859095453
 30
0.0
 11
356.5339421558657
 21
341.94132859095453
 31
0.0
  0
ARC
  5
3418
  8
AM_0
 10
348.53396215586571
 20
339.66078859095461
 30
0.0
 40
2.00000007
 50
91.999998000000545
 51
180.00001000000091
  0
ARC
  5
3419
  8
AM_0
 10
343.53395215586562
 20
339.35196859095458
 30
0.0
 40
3.0
 50
272.0000000000004
 51
0.0
  0
LINE
  5
341A
  8
AM_0
 10
356.53391215586578
 20
336.94137859095463
 30
0.0
 11
360.53396215586571
 21
336.94137859095463
 31
0.0
  0
LINE
  5
341B
  8
AM_0
 10
524.76512284980004
 20
341.94135859095462
 30
0.0
 11
482.54894884979961
 21
338.24790859095469
 31
0.0
  0
ARC
  5
341C
  8
AM_0
 10
544.76512384979992
 20
266.94136159095461
 30
0.0
 40
44.000000999999983
 50
95.494178999999278
 51
132.4526799999999
  0
LINE
  5
341D
  8
AM_0
 10
523.11421384979997
 20
291.42070159095448
 30
0.0
 11
501.7721388498
 21
312.76277359095468
 31
0.0
  0
LINE
  5
341E
  8
AM_0
 10
520.28578084979995
 20
288.59227159095462
 30
0.0
 11
498.94370884979998
 21
309.9343435909546
 31
0.0
  0
CIRCLE
  5
341F
  8
AM_0
 10
484.66107184979973
 20
327.0454285909546
 30
0.0
 40
5.0000001000000003
  0
ARC
  5
3420
  8
AM_0
 10
483.42053284979983
 20
328.28596759095461
 30
0.0
 40
10.000000200000001
 50
95.00000199999856
 51
175.00001000000071
  0
ARC
  5
3421
  8
AM_0
 10
496.82238784979972
 20
307.81303759095448
 30
0.0
 40
3.0
 50
45.000000999999187
 51
139.5520800000009
  0
LINE
  5
3422
  8
AM_0
 10
499.78388884979989
 20
291.18004159095432
 30
0.0
 11
494.78390584980002
 21
294.06679159095461
 31
0.0
  0
LINE
  5
3423
  8
AM_0
 10
494.78390584980002
 20
294.06679159095461
 30
0.0
 11
489.78390484979963
 21
291.18004159095432
 31
0.0
  0
ARC
  5
3424
  8
AM_0
 10
503.8934478498
 20
314.88408259095462
 30
0.0
 40
3.0
 50
130.44793000000001
 51
225.0
  0
ARC
  5
3425
  8
AM_0
 10
540.26512084980004
 20
329.78041459095448
 30
0.0
 40
3.0
 50
0.0
 51
94.096045999998367
  0
ARC
  5
3426
  8
AM_0
 10
549.26512384979992
 20
329.78041459095448
 30
0.0
 40
3.0
 50
85.903959000000114
 51
180.00001000000091
  0
ARC
  5
3427
  8
AM_0
 10
549.26512384979992
 20
313.7254525909546
 30
0.0
 40
3.0
 50
179.9999899999988
 51
264.50582000000043
  0
ARC
  5
3428
  8
AM_0
 10
525.23553484979993
 20
293.54201059095448
 30
0.0
 40
3.0
 50
225.0
 51
306.28526000000028
  0
LINE
  5
3429
  8
AM_0
 10
543.26512384979992
 20
329.78041459095448
 30
0.0
 11
543.26512384979992
 21
313.7254525909546
 31
0.0
  0
LINE
  5
342A
  8
AM_0
 10
546.26512384979992
 20
329.78041459095448
 30
0.0
 11
546.26512384979992
 21
313.7254525909546
 31
0.0
  0
ARC
  5
342B
  8
AM_0
 10
540.26512084980004
 20
313.7254525909546
 30
0.0
 40
3.0
 50
275.49417999999929
 51
0.0
  0
ARC
  5
342C
  8
AM_0
 10
544.76512384979992
 20
266.94136159095461
 30
0.0
 40
44.000000999999983
 50
47.547317000001861
 51
84.505819000000741
  0
ARC
  5
342D
  8
AM_0
 10
564.29473984980007
 20
293.54201059095448
 30
0.0
 40
3.0
 50
233.7147499999995
 51
315.0
  0
LINE
  5
342E
  8
AM_0
 10
544.76512384979992
 20
341.94135859095462
 30
0.0
 11
564.76513684979977
 21
341.94135859095462
 31
0.0
  0
LINE
  5
342F
  8
AM_0
 10
544.76512384979992
 20
341.94135859095462
 30
0.0
 11
524.7651378498
 21
341.94135859095462
 31
0.0
  0
ARC
  5
3430
  8
AM_0
 10
606.10975984979984
 20
328.28596759095461
 30
0.0
 40
10.000000200000001
 50
4.9999999000007884
 51
84.999996999998572
  0
CIRCLE
  5
3431
  8
AM_0
 10
604.86922084980006
 20
327.0454285909546
 30
0.0
 40
5.0000001000000003
  0
LINE
  5
3432
  8
ﾁｭｳｼﾝｾﾝ1
 10
598.57575517512885
 20
320.75197645041362
 30
0.0
 11
610.94752136295415
 21
333.12373038751753
 31
0.0
  0
ARC
  5
3433
  8
ﾁｭｳｼﾝｾﾝ1
 10
544.76512384980197
 20
266.94136159095711
 30
0.0
 40
85.000001999996798
 50
37.919075944696147
 51
52.215855023342812
  0
ARC
  5
3434
  8
AM_0
 10
592.70787184979963
 20
307.81303759095448
 30
0.0
 40
3.0
 50
40.447929000001558
 51
135.0
  0
LINE
  5
3435
  8
AM_0
 10
599.74640284980001
 20
291.18007159095453
 30
0.0
 11
594.74640184980012
 21
294.06682159095448
 31
0.0
  0
LINE
  5
3436
  8
AM_0
 10
594.74640184980012
 20
294.06682159095448
 30
0.0
 11
589.7464008497999
 21
291.18007159095453
 31
0.0
  0
ARC
  5
3437
  8
AM_0
 10
585.63682684979995
 20
314.88408259095462
 30
0.0
 40
3.0
 50
315.0
 51
49.552073000000021
  0
LINE
  5
3438
  8
0
 10
220.03401823553941
 20
547.03126808617992
 30
0.0
 11
220.03401823553941
 21
387.03126808617998
 31
0.0
  0
LINE
  5
3439
  8
0
 10
230.03401823553941
 20
545.03126808617992
 30
0.0
 11
230.03401823553941
 21
389.03126808617998
 31
0.0
  0
LINE
  5
343A
  8
0
  6
CONTINUOUS
 62
     7
 10
253.0340121558655
 20
529.03126808617992
 30
0.0
 11
253.0340121558655
 21
405.03126808617958
 31
0.0
  0
LINE
  5
343B
  8
0
 10
220.03401823553941
 20
387.03126808617998
 30
0.0
 11
228.03401823553941
 21
387.03126808617998
 31
0.0
  0
ARC
  5
343C
  8
0
 10
228.03401823553941
 20
389.03126808617998
 30
0.0
 40
2.0
 50
270.0
 51
0.0
1001
GENIUS_GENODEF_13
1002
{
1000
HIER
1070
     0
1002
}
1002
{
1000
MANEDIT
1070
     0
1002
}
1002
{
1000
NOSEL
1070
     0
1002
}
1002
{
1000
BEHIND
1070
     0
1002
}
1002
{
1000
OTHER
1070
     0
1002
}
1002
{
1000
REACTOR
1002
}
1001
GENIUS_GENOBJ-N-FIL_13
1002
{
1000
OWNER
1000
GEN
1002
}
  0
LINE
  5
343D
  8
AM_0
 10
264.0340121558657
 20
429.8833330861799
 30
0.0
 11
253.0340121558655
 21
429.8833330861799
 31
0.0
  0
LINE
  5
343E
  8
AM_0
 10
264.0340121558657
 20
415.5312520861799
 30
0.0
 11
253.0340121558655
 21
415.5312520861799
 31
0.0
  0
LINE
  5
343F
  8
0
 10
264.0340121558657
 20
403.03126808617998
 30
0.0
 11
255.0340121558655
 21
403.03126808617998
 31
0.0
  0
LINE
  5
3440
  8
0
 10
251.0340121558655
 20
409.03126808617981
 30
0.0
 11
235.03401823553929
 21
409.03126808617981
 31
0.0
  0
ARC
  5
3441
  8
0
 10
235.03401823553929
 20
404.03126808617992
 30
0.0
 40
5.0
 50
90.0
 51
180.0
1001
GENIUS_GENOBJ-N-FIL_13
1002
{
1000
OWNER
1000
GEN
1002
}
1001
GENIUS_GENODEF_13
1002
{
1000
HIER
1070
     0
1002
}
1002
{
1000
MANEDIT
1070
     0
1002
}
1002
{
1000
NOSEL
1070
     0
1002
}
1002
{
1000
BEHIND
1070
     0
1002
}
1002
{
1000
OTHER
1070
     0
1002
}
1002
{
1000
REACTOR
1002
}
  0
ARC
  5
3442
  8
0
 10
251.0340121558655
 20
407.03126808617998
 30
0.0
 40
2.0
 50
0.0
 51
90.0
1001
GENIUS_GENODEF_13
1002
{
1000
HIER
1070
     0
1002
}
1002
{
1000
MANEDIT
1070
     0
1002
}
1002
{
1000
NOSEL
1070
     0
1002
}
1002
{
1000
BEHIND
1070
     0
1002
}
1002
{
1000
OTHER
1070
     0
1002
}
1002
{
1000
REACTOR
1002
}
1001
GENIUS_GENOBJ-N-FIL_13
1002
{
1000
OWNER
1000
GEN
1002
}
  0
ARC
  5
3443
  8
0
 10
255.0340121558655
 20
405.03126808617958
 30
0.0
 40
2.0
 50
180.0
 51
270.0
1001
GENIUS_GENODEF_13
1002
{
1000
HIER
1070
     0
1002
}
1002
{
1000
MANEDIT
1070
     0
1002
}
1002
{
1000
NOSEL
1070
     0
1002
}
1002
{
1000
BEHIND
1070
     0
1002
}
1002
{
1000
OTHER
1070
     0
1002
}
1002
{
1000
REACTOR
1002
}
1001
GENIUS_GENOBJ-N-FIL_13
1002
{
1000
OWNER
1000
GEN
1002
}
  0
LINE
  5
3444
  8
0
 10
220.03401823553941
 20
547.03126808617992
 30
0.0
 11
228.03401823553941
 21
547.03126808617992
 31
0.0
  0
LINE
  5
3445
  8
0
 10
264.0340121558657
 20
531.03126808617992
 30
0.0
 11
255.0340121558655
 21
531.03126808617992
 31
0.0
  0
LINE
  5
3446
  8
AM_0
 10
264.0340121558657
 20
518.53127808617978
 30
0.0
 11
253.0340121558655
 21
518.53127808617978
 31
0.0
  0
LINE
  5
3447
  8
AM_0
 10
264.0340121558657
 20
504.17918808617998
 30
0.0
 11
253.0340121558655
 21
504.17918808617998
 31
0.0
  0
LINE
  5
3448
  8
0
 10
251.0340121558655
 20
525.03126808617992
 30
0.0
 11
235.03401823553929
 21
525.03126808617992
 31
0.0
  0
ARC
  5
3449
  8
0
 10
235.03401823553929
 20
530.03126808617992
 30
0.0
 40
5.0
 50
180.0
 51
270.0
1001
GENIUS_GENOBJ-N-FIL_13
1002
{
1000
OWNER
1000
GEN
1002
}
1001
GENIUS_GENODEF_13
1002
{
1000
HIER
1070
     0
1002
}
1002
{
1000
MANEDIT
1070
     0
1002
}
1002
{
1000
NOSEL
1070
     0
1002
}
1002
{
1000
BEHIND
1070
     0
1002
}
1002
{
1000
OTHER
1070
     0
1002
}
1002
{
1000
REACTOR
1002
}
  0
ARC
  5
344A
  8
0
 10
251.0340121558655
 20
527.03126808617992
 30
0.0
 40
2.0
 50
270.0
 51
0.0
1001
GENIUS_GENODEF_13
1002
{
1000
HIER
1070
     0
1002
}
1002
{
1000
MANEDIT
1070
     0
1002
}
1002
{
1000
NOSEL
1070
     0
1002
}
1002
{
1000
BEHIND
1070
     0
1002
}
1002
{
1000
OTHER
1070
     0
1002
}
1002
{
1000
REACTOR
1002
}
1001
GENIUS_GENOBJ-N-FIL_13
1002
{
1000
OWNER
1000
GEN
1002
}
  0
ARC
  5
344B
  8
0
 10
255.0340121558655
 20
529.03126808617992
 30
0.0
 40
2.0
 50
90.0
 51
180.0
1001
GENIUS_GENODEF_13
1002
{
1000
HIER
1070
     0
1002
}
1002
{
1000
MANEDIT
1070
     0
1002
}
1002
{
1000
NOSEL
1070
     0
1002
}
1002
{
1000
BEHIND
1070
     0
1002
}
1002
{
1000
OTHER
1070
     0
1002
}
1002
{
1000
REACTOR
1002
}
1001
GENIUS_GENOBJ-N-FIL_13
1002
{
1000
OWNER
1000
GEN
1002
}
  0
ARC
  5
344C
  8
0
 10
228.03401823553941
 20
545.03126808617992
 30
0.0
 40
2.0
 50
0.0
 51
90.0
1001
GENIUS_GENODEF_13
1002
{
1000
HIER
1070
     0
1002
}
1002
{
1000
MANEDIT
1070
     0
1002
}
1002
{
1000
NOSEL
1070
     0
1002
}
1002
{
1000
BEHIND
1070
     0
1002
}
1002
{
1000
OTHER
1070
     0
1002
}
1002
{
1000
REACTOR
1002
}
1001
GENIUS_GENOBJ-N-FIL_13
1002
{
1000
OWNER
1000
GEN
1002
}
  0
LINE
  5
344D
  8
ﾁｭｳｼﾝｾﾝ1
 10
490.95449252447082
 20
320.75197645041362
 30
0.0
 11
478.58272633664558
 21
333.12373038751753
 31
0.0
  0
ARC
  5
344E
  8
ﾁｭｳｼﾝｾﾝ1
 10
544.76512384979787
 20
266.94136159095711
 30
0.0
 40
85.000001999996798
 50
127.784144976657
 51
142.0809240553038
  0
LINE
  5
344F
  8
ﾁｭｳｼﾝｾﾝ1
 10
598.36296190809992
 20
213.34350853265479
 30
0.0
 11
610.88565793004068
 21
200.82081251071341
 31
0.0
  0
ARC
  5
3450
  8
ﾁｭｳｼﾝｾﾝ1
 10
544.76512384979867
 20
266.9413615909566
 30
0.0
 40
85.000002000002269
 50
308.7833582586008
 51
321.13482319308912
  0
TEXT
  5
367B
  8
AM_0
 10
475.4655216743169
 20
481.87202103831748
 30
0.0
 40
10.0
  1
VX04-003AF~VX04-010AF
  0
ENDSEC
  0
EOF
