  0
SECTION
  2
HEADER
  9
$ACADVER
  1
AC1009
  9
$INSBASE
 10
0.0
 20
0.0
 30
0.0
  9
$EXTMIN
 10
192.19899207912269
 20
147.12547448594751
 30
-0.0000000000112498
  9
$EXTMAX
 10
667.68246637049867
 20
552.22229132803875
 30
0.0000000000002956
  9
$LIMMIN
 10
0.0
 20
0.0
  9
$LIMMAX
 10
853.5
 20
555.00000000000011
  9
$ORTHOMODE
 70
     0
  9
$REGENMODE
 70
     1
  9
$FILLMODE
 70
     1
  9
$QTEXTMODE
 70
     0
  9
$MIRRTEXT
 70
     1
  9
$DRAGMODE
 70
     2
  9
$LTSCALE
 40
3.0
  9
$OSMODE
 70
   551
  9
$ATTMODE
 70
     1
  9
$TEXTSIZE
 40
2.5
  9
$TRACEWID
 40
1.0
  9
$TEXTSTYLE
  7
STANDARD
  9
$CLAYER
  8
AM_0
  9
$CELTYPE
  6
BYLAYER
  9
$CECOLOR
 62
   256
  9
$DIMSCALE
 40
1.0
  9
$DIMASZ
 40
2.5
  9
$DIMEXO
 40
1.0
  9
$DIMDLI
 40
8.0
  9
$DIMRND
 40
0.0
  9
$DIMDLE
 40
0.0
  9
$DIMEXE
 40
0.6
  9
$DIMTP
 40
0.1
  9
$DIMTM
 40
0.1
  9
$DIMTXT
 40
2.5
  9
$DIMCEN
 40
0.0
  9
$DIMTSZ
 40
0.0
  9
$DIMTOL
 70
     0
  9
$DIMLIM
 70
     0
  9
$DIMTIH
 70
     0
  9
$DIMTOH
 70
     0
  9
$DIMSE1
 70
     0
  9
$DIMSE2
 70
     0
  9
$DIMTAD
 70
     1
  9
$DIMZIN
 70
     8
  9
$DIMBLK
  1

  9
$DIMASO
 70
     1
  9
$DIMSHO
 70
     1
  9
$DIMPOST
  1

  9
$DIMAPOST
  1
"
  9
$DIMALT
 70
     0
  9
$DIMALTD
 70
     2
  9
$DIMALTF
 40
0.0393701
  9
$DIMLFAC
 40
1.0
  9
$DIMTOFL
 70
     1
  9
$DIMTVP
 40
0.0
  9
$DIMTIX
 70
     0
  9
$DIMSOXD
 70
     0
  9
$DIMSAH
 70
     0
  9
$DIMBLK1
  1

  9
$DIMBLK2
  1

  9
$DIMSTYLE
  2
AM_ISO
  9
$DIMCLRD
 70
   256
  9
$DIMCLRE
 70
   256
  9
$DIMCLRT
 70
     4
  9
$DIMTFAC
 40
0.71
  9
$DIMGAP
 40
0.8
  9
$LUNITS
 70
     2
  9
$LUPREC
 70
     2
  9
$SKETCHINC
 40
1.0
  9
$FILLETRAD
 40
15.0
  9
$AUNITS
 70
     0
  9
$AUPREC
 70
     0
  9
$MENU
  1
.
  9
$ELEVATION
 40
0.0
  9
$PELEVATION
 40
0.0
  9
$THICKNESS
 40
0.0
  9
$LIMCHECK
 70
     0
  9
$BLIPMODE
 70
     0
  9
$CHAMFERA
 40
6.0
  9
$CHAMFERB
 40
3.0
  9
$SKPOLY
 70
     0
  9
$TDCREATE
 40
2452066.3680125121
  9
$TDUPDATE
 40
2458541.5413785758
  9
$TDINDWG
 40
0.1186930903
  9
$TDUSRTIMER
 40
0.1186930671
  9
$USRTIMER
 70
     1
  9
$ANGBASE
 50
0.0
  9
$ANGDIR
 70
     0
  9
$PDMODE
 70
     0
  9
$PDSIZE
 40
0.0
  9
$PLINEWID
 40
0.0
  9
$COORDS
 70
     1
  9
$SPLFRAME
 70
     0
  9
$SPLINETYPE
 70
     6
  9
$SPLINESEGS
 70
     8
  9
$ATTDIA
 70
     1
  9
$ATTREQ
 70
     1
  9
$HANDLING
 70
     1
  9
$HANDSEED
  5
39BB
  9
$SURFTAB1
 70
     6
  9
$SURFTAB2
 70
     6
  9
$SURFTYPE
 70
     6
  9
$SURFU
 70
     6
  9
$SURFV
 70
     6
  9
$UCSNAME
  2

  9
$UCSORG
 10
0.0
 20
0.0
 30
0.0
  9
$UCSXDIR
 10
1.0
 20
0.0
 30
0.0
  9
$UCSYDIR
 10
0.0
 20
1.0
 30
0.0
  9
$PUCSNAME
  2

  9
$PUCSORG
 10
0.0
 20
0.0
 30
0.0
  9
$PUCSXDIR
 10
1.0
 20
0.0
 30
0.0
  9
$PUCSYDIR
 10
0.0
 20
1.0
 30
0.0
  9
$USERI1
 70
     0
  9
$USERI2
 70
     0
  9
$USERI3
 70
     0
  9
$USERI4
 70
     0
  9
$USERI5
 70
     0
  9
$USERR1
 40
0.0
  9
$USERR2
 40
0.0
  9
$USERR3
 40
0.0
  9
$USERR4
 40
0.0
  9
$USERR5
 40
0.0
  9
$WORLDVIEW
 70
     1
  9
$SHADEDGE
 70
     3
  9
$SHADEDIF
 70
    70
  9
$TILEMODE
 70
     1
  9
$MAXACTVP
 70
    64
  9
$PLIMCHECK
 70
     0
  9
$PEXTMIN
 10
1.0000000000000000E+020
 20
1.0000000000000000E+020
 30
1.0000000000000000E+020
  9
$PEXTMAX
 10
-1.0000000000000000E+020
 20
-1.0000000000000000E+020
 30
-1.0000000000000000E+020
  9
$PLIMMIN
 10
0.0
 20
0.0
  9
$PLIMMAX
 10
420.0
 20
297.0
  9
$UNITMODE
 70
     0
  9
$VISRETAIN
 70
     1
  9
$PLINEGEN
 70
     0
  9
$PSLTSCALE
 70
     1
  0
ENDSEC
  0
SECTION
  2
TABLES
  0
TABLE
  2
VPORT
 70
     1
  0
VPORT
  2
*ACTIVE
 70
     0
 10
0.0
 20
0.0
 11
1.0
 21
1.0
 12
429.9407292248107
 22
349.67388290699319
 13
0.0
 23
0.0
 14
7.5
 24
7.5
 15
30.0
 25
30.0
 16
0.0
 26
0.0
 36
1.0
 17
0.0
 27
0.0
 37
0.0
 40
407.8778018547373
 41
1.757159221076747
 42
50.0
 43
0.0
 44
0.0
 50
0.0
 51
0.0
 71
     0
 72
   100
 73
     1
 74
     3
 75
     0
 76
     0
 77
     0
 78
     0
  0
ENDTAB
  0
TABLE
  2
LTYPE
 70
    25
  0
LTYPE
  2
CONTINUOUS
 70
     0
  3
Solid line
 72
    65
 73
     0
 40
0.0
  0
LTYPE
  2
AM_ISO02W050
 70
     0
  3
__ __ __ __ __ __ __ __ __ __ __ __ __ __ __
 72
    65
 73
     2
 40
7.5
 49
6.0
 49
-1.5
  0
LTYPE
  2
AM_ISO08W050
 70
     0
  3
____ . ____ . ____ . ____ . ____ . ____ . ____
 72
    65
 73
     4
 40
18.0
 49
12.0
 49
-1.5
 49
3.0
 49
-1.5
  0
LTYPE
  2
AM_ISO09W050
 70
     0
  3
_____ . . _____ . . _____ . . ____ .. ____
 72
    65
 73
     6
 40
22.5
 49
12.0
 49
-1.5
 49
3.0
 49
-1.5
 49
3.0
 49
-1.5
  0
LTYPE
  2
AMCONSTR
 70
     0
  3
_______________________
 72
    65
 73
     2
 40
9999.0
 49
9999.0
 49
0.0
  0
LTYPE
  2
AM_ISO08W050X2
 70
     0
  3
__ . __ . __ . __ . __ . __
 72
    65
 73
     4
 40
9.0
 49
6.0
 49
-0.75
 49
1.5
 49
-0.75
  0
LTYPE
  2
AM_ISO02W050X2
 70
     0
  3
 _ _ _ _ _ _ _ _ _ _ _ _
 72
    65
 73
     2
 40
3.75
 49
3.0
 49
-0.75
  0
LTYPE
  2
AMZIGZAG
 70
     0
  3
/\/-/\/-/\/-/\/-/\/-/\/
 72
    65
 73
     2
 40
11.000099999999991
 49
0.0001
 49
-11.0
  0
LTYPE
  2
ACISOWELD
 70
     0
  3
_ _ _ _ _
 72
    65
 73
     2
 40
2.0
 49
2.0
 49
-1.0
  0
LTYPE
  2
ACISOTGB
 70
     0
  3
__ . . __ . .
 72
    65
 73
     6
 40
9.0
 49
4.0
 49
-1.0
 49
1.0
 49
-1.0
 49
1.0
 49
-1.0
  0
LTYPE
  2
ACISOTGL
 70
     0
  3
_ _ _ _ _
 72
    65
 73
     2
 40
3.0
 49
2.0
 49
-1.0
  0
LTYPE
  2
CENTER
 70
     0
  3
__ . __
 72
    65
 73
     4
 40
7.0
 49
4.0
 49
-1.0
 49
1.0
 49
-1.0
  0
LTYPE
  2
PHANTOM2
 70
     0
  3
Phantom (.5x) ___ _ _ ___ _ _ ___ _ _ ___ _ _
 72
    65
 73
     6
 40
31.75
 49
15.875
 49
-3.174999999999998
 49
3.174999999999998
 49
-3.174999999999998
 49
3.174999999999998
 49
-3.174999999999998
  0
LTYPE
  2
ACANSTGBM
 70
     0
  3
__ . . __ . .
 72
    65
 73
     6
 40
9.0
 49
4.0
 49
-1.0
 49
1.0
 49
-1.0
 49
1.0
 49
-1.0
  0
LTYPE
  2
ACANSTGLM
 70
     0
  3
_ _ _ _ _
 72
    65
 73
     2
 40
3.0
 49
2.0
 49
-1.0
  0
LTYPE
  2
GEN7A
 70
     0
  3
__ . __ . __
 72
    65
 73
     4
 40
7.375
 49
4.75
 49
-0.875
 49
0.875
 49
-0.875
  0
LTYPE
  2
ACJISTGB
 70
     0
  3
__ . . __ . .
 72
    65
 73
     6
 40
9.0
 49
4.0
 49
-1.0
 49
1.0
 49
-1.0
 49
1.0
 49
-1.0
  0
LTYPE
  2
ACJISTGL
 70
     0
  3
_ _ _ _ _
 72
    65
 73
     2
 40
3.0
 49
2.0
 49
-1.0
  0
LTYPE
  2
HIDDEN
 70
     0
  3
Hidden __ __ __ __ __ __ __ __ __ __ __ __ __ _
 72
    65
 73
     2
 40
0.375
 49
0.25
 49
-0.125
  0
LTYPE
  2
CENTER2
 70
     0
  3
Center (.5x) ___ _ ___ _ ___ _ ___ _ ___ _ ___
 72
    65
 73
     4
 40
1.125
 49
0.75
 49
-0.125
 49
0.125
 49
-0.125
  0
LTYPE
  2
HIDDEN2
 70
     0
  3
Hidden (.5x) _ _ _ _ _ _ _ _ _ _ _ _ _ _ _ _ _
 72
    65
 73
     2
 40
0.1875
 49
0.125
 49
-0.0625
  0
LTYPE
  2
AMZIGZAG2
 70
     0
  3
/\/-/\/-/\/-/\/-/\/-/\/
 72
    65
 73
     2
 40
0.4401
 49
0.0001
 49
-0.4400000000000002
  0
LTYPE
  2
ACANSTGB
 70
     0
  3
__ . . __ . .
 72
    65
 73
     6
 40
0.35433070866
 49
0.15748031496
 49
-0.03937007874
 49
0.03937007874
 49
-0.03937007874
 49
0.03937007874
 49
-0.03937007874
  0
LTYPE
  2
ACANSTGL
 70
     0
  3
_ _ _ _ _
 72
    65
 73
     2
 40
0.11811023622
 49
0.07874015748
 49
-0.03937007874
  0
ENDTAB
  0
TABLE
  2
LAYER
 70
     5
  0
LAYER
  2
0
 70
     0
 62
     7
  6
CONTINUOUS
  0
LAYER
  2
AM_0
 70
     0
 62
     7
  6
CONTINUOUS
  0
LAYER
  2
AM_5
 70
     0
 62
     2
  6
CONTINUOUS
  0
LAYER
  2
DEFPOINTS
 70
     0
 62
     7
  6
CONTINUOUS
  0
LAYER
  2
ﾁｭｳｼﾝｾﾝ1
 70
     0
 62
     1
  6
GEN7A
  0
ENDTAB
  0
TABLE
  2
STYLE
 70
     9
  0
STYLE
  2
STANDARD
 70
     0
 40
0.0
 41
0.8299999999999999
 50
0.0
 71
     0
 42
2.5
  3
txt.shx
  4
bigfont.shx
  0
STYLE
  2
ANNOTATIVE
 70
     0
 40
0.0
 41
1.0
 50
0.0
 71
     0
 42
0.2
  3
txt
  4

  0
STYLE
  2

 70
     1
 40
0.0
 41
1.0
 50
0.0
 71
     0
 42
2.5
  3
ltypeshp.shx
  4

  0
STYLE
  2
ACISOTS
 70
     0
 40
1.0
 41
1.0
 50
0.0
 71
     0
 42
2.5
  3
isocp.shx
  4
extfont.shx
  0
STYLE
  2
ACISOGDT
 70
     0
 40
0.0
 41
1.0
 50
0.0
 71
     0
 42
2.5
  3
amgdt.shx
  4

  0
STYLE
  2
ACANSTS
 70
     0
 40
1.0
 41
1.0
 50
0.0
 71
     0
 42
2.5
  3
romans.shx
  4
bigfont.shx
  0
STYLE
  2
ACANSGDT
 70
     0
 40
0.0
 41
1.0
 50
0.0
 71
     0
 42
2.5
  3
amgdt.shx
  4

  0
STYLE
  2
ACJISTS
 70
     0
 40
1.0
 41
1.0
 50
0.0
 71
     0
 42
2.5
  3
isocp.shx
  4
bigfont.shx
  0
STYLE
  2
ACJISGDT
 70
     0
 40
0.0
 41
1.0
 50
0.0
 71
     0
 42
2.5
  3
amgdt.shx
  4

  0
ENDTAB
  0
TABLE
  2
VIEW
 70
     6
  0
VIEW
  2
AM_VIEW1
 70
     0
 40
277.49999999999989
 10
249.64779005524849
 20
416.24999999999989
 41
499.2955801104971
 11
0.0
 21
0.0
 31
1.0
 12
0.0
 22
0.0
 32
0.0
 42
50.0
 43
0.0
 44
0.0
 50
0.0
 71
     0
  0
VIEW
  2
AM_VIEW2
 70
     0
 40
277.49999999999989
 10
603.85220994475117
 20
416.24999999999989
 41
499.2955801104971
 11
0.0
 21
0.0
 31
1.0
 12
0.0
 22
0.0
 32
0.0
 42
50.0
 43
0.0
 44
0.0
 50
0.0
 71
     0
  0
VIEW
  2
AM_VIEW3
 70
     0
 40
277.49999999999989
 10
249.64779005524849
 20
138.7499999999998
 41
499.2955801104971
 11
0.0
 21
0.0
 31
1.0
 12
0.0
 22
0.0
 32
0.0
 42
50.0
 43
0.0
 44
0.0
 50
0.0
 71
     0
  0
VIEW
  2
AM_VIEW4
 70
     0
 40
277.49999999999989
 10
603.85220994475117
 20
138.7499999999998
 41
499.2955801104971
 11
0.0
 21
0.0
 31
1.0
 12
0.0
 22
0.0
 32
0.0
 42
50.0
 43
0.0
 44
0.0
 50
0.0
 71
     0
  0
VIEW
  2
AM_VIEW5
 70
     0
 40
277.5
 10
426.75
 20
277.49999999999989
 41
499.2955801104971
 11
0.0
 21
0.0
 31
1.0
 12
0.0
 22
0.0
 32
0.0
 42
50.0
 43
0.0
 44
0.0
 50
0.0
 71
     0
  0
VIEW
  2
AM_VIEW6
 70
     0
 40
554.99445000000014
 10
426.75
 20
277.49999999999989
 41
998.5811743093924
 11
0.0
 21
0.0
 31
1.0
 12
0.0
 22
0.0
 32
0.0
 42
50.0
 43
0.0
 44
0.0
 50
0.0
 71
     0
  0
ENDTAB
  0
TABLE
  2
UCS
 70
     0
  0
ENDTAB
  0
TABLE
  2
APPID
 70
    95
  0
APPID
  2
ACAD
 70
     0
  0
APPID
  2
ACADANNOTATIVE
 70
     0
  0
APPID
  2
MCAD_NO_VIS
 70
     0
  0
APPID
  2
ACAD_TEMP_GRAPHIC
 70
     0
  0
APPID
  2
ACATTRIBSERVICES
 70
     0
  0
APPID
  2
GENIUS_GENREC_14
 70
     0
  0
APPID
  2
GENIUS_GENOBJ-N-REC_13
 70
     0
  0
APPID
  2
GENIUS_GENODEF_13
 70
     0
  0
APPID
  2
GENIUS_GENOLIS_13
 70
     0
  0
APPID
  2
GENIUS_GENOBJ-N-TIT_13
 70
     0
  0
APPID
  2
GENIUS_GENOENT_13
 70
     0
  0
APPID
  2
GENIUS_GENTITLE_13
 70
     0
  0
APPID
  2
GENIUS_GENOREF_13
 70
     0
  0
APPID
  2
GENIUS_GENSCREG_15
 70
     0
  0
APPID
  2
GENIUS_GENOBJ-N-SDF_13
 70
     0
  0
APPID
  2
GENIUS_GENFIL_13
 70
     0
  0
APPID
  2
GENIUS_GENOBJ-N-CHA_13
 70
     0
  0
APPID
  2
GENIUS_GENDTOL_13
 70
     0
  0
APPID
  2
GENIUS_GENOBJ-N-FIL_13
 70
     0
  0
APPID
  2
AD_DRAW
 70
     0
  0
APPID
  2
DESIGNERASSEMBLIES
 70
     0
  0
APPID
  2
ASURF_PCURVE_APPNAME
 70
     0
  0
APPID
  2
GENIUS_GE3SECT_13
 70
     0
  0
APPID
  2
GENIUS_GENCFG_13
 70
     0
  0
APPID
  2
GENIUS_GE3CFG0_13
 70
     0
  0
APPID
  2
GENIUS_GENCFG0_13
 70
     0
  0
APPID
  2
GENIUS_GENCFG1_13
 70
     0
  0
APPID
  2
GENIUS_GENCFG2_13
 70
     0
  0
APPID
  2
GENIUS_GENCFG3_13
 70
     0
  0
APPID
  2
GENIUS_GENCFG4_13
 70
     0
  0
APPID
  2
GENIUS_GEVCFG0_13
 70
     0
  0
APPID
  2
GENIUS_GENHINW_13
 70
     0
  0
APPID
  2
GENIUS_FIRSTVISTXT_14
 70
     0
  0
APPID
  2
GENIUS_GENOBJ-N-LEADER_13
 70
     0
  0
APPID
  2
GEV_VCCNULL_SWITCH_OFF
 70
     0
  0
APPID
  2
GENIUS_GEFCFG0_13
 70
     0
  0
APPID
  2
GENIUS_GENZVEED_13
 70
     0
  0
APPID
  2
GENIUS_GENSCREG_13
 70
     0
  0
APPID
  2
GENIUS_DUMCFG0_13
 70
     0
  0
APPID
  2
GEVID936201362
 70
     0
  0
APPID
  2
GEVDC
 70
     0
  0
APPID
  2
GEVCON
 70
     0
  0
APPID
  2
VCC
 70
     0
  0
APPID
  2
GEVPT
 70
     0
  0
APPID
  2
GEVIT
 70
     0
  0
APPID
  2
GENBH
 70
     0
  0
APPID
  2
GEVMK
 70
     0
  0
APPID
  2
GENIUS_GENBH_13
 70
     0
  0
APPID
  2
GENIUS_GENOBJ-NBEHI-BHF_13
 70
     0
  0
APPID
  2
GENIUS_GENOBJ-NBEHI-BHB_13
 70
     0
  0
APPID
  2
GENIUS_GENOBJ-F-DESC_13
 70
     0
  0
APPID
  2
GENIUS_GEFDESC_14
 70
     0
  0
APPID
  2
GENIUS_GENOBJ-F-PART_13
 70
     0
  0
APPID
  2
GENIUS_GEFSTDP_13
 70
     0
  0
APPID
  2
GENIUS_GEFPARTINS_13
 70
     0
  0
APPID
  2
GENIUS_GENTRA_14
 70
     0
  0
APPID
  2
GENIUS_GENINF13_13
 70
     0
  0
APPID
  2
GENIUS_GENOBJ-N-INFOPT_13
 70
     0
  0
APPID
  2
GENIUS_GENOBJ-N-RSSYM_13
 70
     0
  0
APPID
  2
GENIUS_GENSYMENT_13
 70
     0
  0
APPID
  2
GENIUS_GENSCSYM_13
 70
     0
  0
APPID
  2
GENIUS_GEFINFNAM_13
 70
     0
  0
APPID
  2
GENIUS_GENOBJ-N-CEN_13
 70
     0
  0
APPID
  2
GENIUS_GENOBJ-N-CRS_13
 70
     0
  0
APPID
  2
GENIUS_GENOBJ-N-CRC_13
 70
     0
  0
APPID
  2
GENIUS_GENCRC_14
 70
     0
  0
APPID
  2
GEVID942827039
 70
     0
  0
APPID
  2
GEVID942827040
 70
     0
  0
APPID
  2
GEVID942827041
 70
     0
  0
APPID
  2
GENIUS_GENOBJ-F-SCPASSM_13
 70
     0
  0
APPID
  2
GENIUS_GENDIMSH_14
 70
     0
  0
APPID
  2
GEVID942827042
 70
     0
  0
APPID
  2
GEVID946020473
 70
     0
  0
APPID
  2
GEVID946020474
 70
     0
  0
APPID
  2
GEVID946020475
 70
     0
  0
APPID
  2
GENIUS_GENOBJ-N-HTC_13
 70
     0
  0
APPID
  2
GENIUS_GENHATCH_13
 70
     0
  0
APPID
  2
GEVID948854295
 70
     0
  0
APPID
  2
GEVID939402019
 70
     0
  0
APPID
  2
GEVID952919491
 70
     0
  0
APPID
  2
GEVID952919492
 70
     0
  0
APPID
  2
GENIUS_GEFWELD_13
 70
     0
  0
APPID
  2
GENIUS_GENOBJ-F-WELS_13
 70
     0
  0
APPID
  2
GEVID952919493
 70
     0
  0
APPID
  2
GENIUS_GENOBJ-N-RSBK_13
 70
     0
  0
APPID
  2
GENIUS_GENOBJ-N-LIB_13
 70
     0
  0
APPID
  2
GENIUS_GENSCALE_13
 70
     0
  0
APPID
  2
GEVID986376691
 70
     0
  0
APPID
  2
DCO15
 70
     0
  0
APPID
  2
ACAD_DSTYLE_DIMBREAK
 70
     0
  0
APPID
  2
ACAD_DSTYLE_DIMJAG
 70
     0
  0
APPID
  2
ACAD_NAV_VCDISPLAY
 70
     0
  0
APPID
  2
ACADANNOPO
 70
     0
  0
APPID
  2
ACAD_EXEMPT_FROM_CAD_STANDARDS
 70
     0
  0
APPID
  2
ACAD_MLEADERVER
 70
     0
  0
ENDTAB
  0
TABLE
  2
DIMSTYLE
 70
    22
  0
DIMSTYLE
  2
STANDARD
 70
     0
  3

  4

  5

  6

  7

 40
1.0
 41
0.18
 42
0.0625
 43
0.38
 44
0.18
 45
0.0
 46
0.0
 47
0.0
 48
0.0
140
0.18
141
0.09
142
0.0
143
25.399999999999999
144
1.0
145
0.0
146
1.0
147
0.09
 71
     0
 72
     0
 73
     1
 74
     1
 75
     0
 76
     0
 77
     0
 78
     0
170
     0
171
     2
172
     0
173
     0
174
     0
175
     0
176
     0
177
     0
178
     0
  0
DIMSTYLE
  2
ANNOTATIVE
 70
     0
  3

  4

  5

  6

  7

 40
1.0
 41
0.18
 42
0.0625
 43
0.38
 44
0.18
 45
0.0
 46
0.0
 47
0.0
 48
0.0
140
0.18
141
0.09
142
0.0
143
25.399999999999999
144
1.0
145
0.0
146
1.0
147
0.09
 71
     0
 72
     0
 73
     1
 74
     1
 75
     0
 76
     0
 77
     0
 78
     0
170
     0
171
     2
172
     0
173
     0
174
     0
175
     0
176
     0
177
     0
178
     0
  0
DIMSTYLE
  2
AM_ISO
 70
     0
  3

  4
"
  5

  6

  7

 40
1.0
 41
2.5
 42
1.0
 43
8.0
 44
0.6
 45
0.0
 46
0.0
 47
0.1
 48
0.1
140
2.5
141
0.0
142
0.0
143
0.0393701
144
1.0
145
0.0
146
0.71
147
0.8
 71
     0
 72
     0
 73
     0
 74
     0
 75
     0
 76
     0
 77
     1
 78
     8
170
     0
171
     2
172
     1
173
     0
174
     0
175
     0
176
   256
177
   256
178
     4
  0
DIMSTYLE
  2
AM_ISO$3
 70
     0
  3

  4
"
  5

  6

  7

 40
1.0
 41
2.5
 42
1.0
 43
8.0
 44
0.6
 45
0.0
 46
0.0
 47
0.1
 48
0.1
140
2.5
141
0.0
142
0.0
143
0.0393701
144
1.0
145
0.0
146
0.71
147
0.8
 71
     0
 72
     0
 73
     0
 74
     1
 75
     0
 76
     0
 77
     1
 78
     8
170
     0
171
     2
172
     0
173
     0
174
     0
175
     0
176
   256
177
   256
178
     4
  0
DIMSTYLE
  2
AM_ISO$4
 70
     0
  3

  4
"
  5

  6

  7

 40
1.0
 41
2.5
 42
1.0
 43
8.0
 44
0.6
 45
0.0
 46
0.0
 47
0.1
 48
0.1
140
2.5
141
0.0
142
0.0
143
0.0393701
144
1.0
145
0.0
146
0.71
147
0.8
 71
     0
 72
     0
 73
     0
 74
     1
 75
     0
 76
     0
 77
     1
 78
     8
170
     0
171
     2
172
     0
173
     0
174
     0
175
     0
176
   256
177
   256
178
     4
  0
DIMSTYLE
  2
AM_ISO$6
 70
     0
  3

  4
"
  5

  6

  7

 40
1.0
 41
2.5
 42
1.0
 43
8.0
 44
0.6
 45
0.0
 46
0.0
 47
0.1
 48
0.1
140
2.5
141
0.0
142
0.0
143
0.0393701
144
1.0
145
0.0
146
0.71
147
0.8
 71
     0
 72
     0
 73
     0
 74
     0
 75
     0
 76
     0
 77
     0
 78
     8
170
     0
171
     2
172
     1
173
     0
174
     0
175
     0
176
   256
177
   256
178
     4
  0
DIMSTYLE
  2
AM_ISO$7
 70
     0
  3

  4
"
  5

  6

  7

 40
1.0
 41
2.5
 42
1.0
 43
8.0
 44
0.6
 45
0.0
 46
0.0
 47
0.1
 48
0.1
140
2.5
141
0.0
142
0.0
143
0.0393701
144
1.0
145
0.0
146
0.71
147
0.8
 71
     0
 72
     0
 73
     0
 74
     0
 75
     0
 76
     0
 77
     1
 78
     8
170
     0
171
     2
172
     1
173
     0
174
     0
175
     0
176
   256
177
   256
178
     4
  0
DIMSTYLE
  2
AM_ISO$SF
 70
     0
  3

  4
"
  5

  6

  7

 40
1.0
 41
2.5
 42
1.0
 43
10.0
 44
1.0
 45
0.0
 46
0.0
 47
0.1
 48
0.1
140
3.5
141
0.0
142
0.0
143
0.0393701
144
1.0
145
0.0
146
0.71
147
1.5
 71
     0
 72
     0
 73
     0
 74
     0
 75
     1
 76
     1
 77
     1
 78
     8
170
     0
171
     2
172
     1
173
     0
174
     0
175
     0
176
   256
177
   256
178
     2
  0
DIMSTYLE
  2
AM_ISO$SH
 70
     0
  3

  4
"
  5

  6

  7

 40
1.0
 41
2.5
 42
1.0
 43
10.0
 44
1.0
 45
0.0
 46
0.0
 47
0.1
 48
0.1
140
3.5
141
0.0
142
0.0
143
0.0393701
144
2.0
145
0.0
146
0.71
147
1.5
 71
     0
 72
     0
 73
     0
 74
     0
 75
     1
 76
     1
 77
     1
 78
     8
170
     0
171
     2
172
     1
173
     1
174
     0
175
     0
176
   256
177
   256
178
     2
  0
DIMSTYLE
  2
AM_JIS
 70
     0
  3

  4
"
  5

  6

  7

 40
1.0
 41
2.5
 42
1.0
 43
7.0
 44
1.0
 45
0.0
 46
0.0
 47
0.1
 48
0.1000000001
140
2.5
141
0.0
142
0.0
143
0.0393701
144
1.0
145
0.0
146
0.71
147
1.0
 71
     0
 72
     0
 73
     0
 74
     0
 75
     0
 76
     0
 77
     3
 78
     8
170
     0
171
     2
172
     1
173
     0
174
     0
175
     0
176
   256
177
   256
178
     4
  0
DIMSTYLE
  2
AM_JIS$3
 70
     0
  3

  4
"
  5

  6

  7

 40
1.0
 41
2.5
 42
1.0
 43
7.0
 44
1.0
 45
0.0
 46
0.0
 47
0.1
 48
0.1000000001
140
2.5
141
0.0
142
0.0
143
0.0393701
144
1.0
145
0.0
146
0.71
147
1.0
 71
     0
 72
     0
 73
     0
 74
     1
 75
     0
 76
     0
 77
     3
 78
     8
170
     0
171
     2
172
     0
173
     0
174
     0
175
     0
176
   256
177
   256
178
     4
  0
DIMSTYLE
  2
AM_JIS$4
 70
     0
  3

  4
"
  5

  6

  7

 40
1.0
 41
2.5
 42
1.0
 43
7.0
 44
1.0
 45
0.0
 46
0.0
 47
0.1
 48
0.1000000001
140
2.5
141
0.0
142
0.0
143
0.0393701
144
1.0
145
0.0
146
0.71
147
1.0
 71
     0
 72
     0
 73
     0
 74
     0
 75
     0
 76
     0
 77
     3
 78
     8
170
     0
171
     2
172
     0
173
     0
174
     0
175
     0
176
   256
177
   256
178
     4
  0
DIMSTYLE
  2
AM_JIS$6
 70
     0
  3

  4
"
  5

  6

  7

 40
1.0
 41
2.5
 42
1.0
 43
7.0
 44
1.0
 45
0.0
 46
0.0
 47
0.1
 48
0.1000000001
140
2.5
141
0.0
142
0.0
143
0.0393701
144
1.0
145
0.0
146
0.71
147
1.0
 71
     0
 72
     0
 73
     0
 74
     0
 75
     0
 76
     0
 77
     0
 78
     8
170
     0
171
     2
172
     1
173
     0
174
     0
175
     0
176
   256
177
   256
178
     4
  0
DIMSTYLE
  2
AM_JIS$7
 70
     0
  3

  4
"
  5

  6

  7

 40
1.0
 41
2.5
 42
1.0
 43
7.0
 44
1.0
 45
0.0
 46
0.0
 47
0.1
 48
0.1000000001
140
2.5
141
0.0
142
0.0
143
0.0393701
144
1.0
145
0.0
146
0.71
147
1.0
 71
     0
 72
     0
 73
     0
 74
     0
 75
     0
 76
     0
 77
     3
 78
     8
170
     0
171
     2
172
     1
173
     0
174
     0
175
     0
176
   256
177
   256
178
     4
  0
DIMSTYLE
  2
AM_JIS$SF
 70
     0
  3

  4
"
  5

  6

  7

 40
1.0
 41
2.5
 42
1.0
 43
10.0
 44
1.0
 45
0.0
 46
0.0
 47
0.1
 48
0.1
140
3.5
141
0.0
142
0.0
143
0.0393701
144
1.0
145
0.0
146
0.71
147
1.5
 71
     0
 72
     0
 73
     0
 74
     0
 75
     1
 76
     1
 77
     3
 78
     8
170
     0
171
     2
172
     1
173
     0
174
     0
175
     0
176
   256
177
   256
178
     4
  0
DIMSTYLE
  2
AM_JIS$SH
 70
     0
  3

  4
"
  5

  6

  7

 40
1.0
 41
2.5
 42
1.0
 43
10.0
 44
1.0
 45
0.0
 46
0.0
 47
0.1
 48
0.1
140
3.5
141
0.0
142
0.0
143
0.0393701
144
1.0
145
0.0
146
0.71
147
1.5
 71
     0
 72
     0
 73
     0
 74
     0
 75
     1
 76
     0
 77
     3
 78
     8
170
     0
171
     2
172
     1
173
     1
174
     0
175
     0
176
   256
177
   256
178
     4
  0
DIMSTYLE
  2
AM_ANSI
 70
     0
  3

  4
mm
  5

  6

  7

 40
1.0
 41
0.1
 42
0.05
 43
0.5
 44
0.1
 45
0.0
 46
0.0
 47
0.1
 48
0.1
140
0.12
141
0.0
142
0.0
143
25.399999999999999
144
1.0
145
0.0
146
0.71
147
0.06
 71
     0
 72
     0
 73
     1
 74
     1
 75
     0
 76
     0
 77
     0
 78
     7
170
     0
171
     2
172
     0
173
     0
174
     0
175
     0
176
   256
177
   256
178
     2
  0
DIMSTYLE
  2
AM_ANSI$3
 70
     0
  3

  4
mm
  5

  6

  7

 40
1.0
 41
0.1
 42
0.05
 43
0.5
 44
0.1
 45
0.0
 46
0.0
 47
0.1
 48
0.1
140
0.12
141
0.0
142
0.0
143
25.399999999999999
144
1.0
145
0.0
146
0.71
147
0.06
 71
     0
 72
     0
 73
     1
 74
     1
 75
     0
 76
     0
 77
     0
 78
     7
170
     0
171
     2
172
     0
173
     0
174
     0
175
     0
176
   256
177
   256
178
     2
  0
DIMSTYLE
  2
AM_ANSI$4
 70
     0
  3

  4
mm
  5

  6

  7

 40
1.0
 41
0.1
 42
0.05
 43
0.5
 44
0.1
 45
0.0
 46
0.0
 47
0.1
 48
0.1
140
0.12
141
0.0
142
0.0
143
25.399999999999999
144
1.0
145
0.0
146
0.71
147
0.06
 71
     0
 72
     0
 73
     1
 74
     1
 75
     0
 76
     0
 77
     0
 78
     7
170
     0
171
     2
172
     0
173
     0
174
     0
175
     0
176
   256
177
   256
178
     2
  0
DIMSTYLE
  2
AM_ANSI$7
 70
     0
  3

  4
mm
  5

  6

  7

 40
1.0
 41
0.1
 42
0.05
 43
0.5
 44
0.1
 45
0.0
 46
0.0
 47
0.1
 48
0.1
140
0.24
141
0.0
142
0.0
143
25.399999999999999
144
1.0
145
0.0
146
0.71
147
0.06
 71
     0
 72
     0
 73
     1
 74
     1
 75
     0
 76
     0
 77
     0
 78
     7
170
     0
171
     2
172
     0
173
     0
174
     0
175
     0
176
   256
177
   256
178
     2
  0
DIMSTYLE
  2
AM_ANSI$SF
 70
     0
  3

  4
mm
  5

  6

  7

 40
1.0
 41
0.1
 42
0.05
 43
0.5
 44
0.1
 45
0.0
 46
0.0
 47
0.1
 48
0.1
140
0.12
141
0.0
142
0.0
143
25.399999999999999
144
1.0
145
0.0
146
0.71
147
0.06
 71
     0
 72
     0
 73
     1
 74
     1
 75
     1
 76
     1
 77
     0
 78
     7
170
     0
171
     2
172
     0
173
     0
174
     0
175
     0
176
   256
177
   256
178
     2
  0
DIMSTYLE
  2
AM_ANSI$SH
 70
     0
  3

  4
mm
  5

  6

  7

 40
1.0
 41
0.1
 42
0.05
 43
0.5
 44
0.1
 45
0.0
 46
0.0
 47
0.1
 48
0.1
140
0.12
141
0.0
142
0.0
143
25.399999999999999
144
1.0
145
0.0
146
0.71
147
0.06
 71
     0
 72
     0
 73
     1
 74
     1
 75
     1
 76
     1
 77
     0
 78
     7
170
     0
171
     2
172
     0
173
     1
174
     0
175
     0
176
   256
177
   256
178
     2
  0
ENDTAB
  0
ENDSEC
  0
SECTION
  2
BLOCKS
  0
BLOCK
  8
0
  2
$MODEL_SPACE
 70
     0
 10
0.0
 20
0.0
 30
0.0
  3
$MODEL_SPACE
  1

  0
ENDBLK
  5
3829
  8
0
  0
BLOCK
 67
     1
  8
0
  2
$PAPER_SPACE
 70
     0
 10
0.0
 20
0.0
 30
0.0
  3
$PAPER_SPACE
  1

  0
ENDBLK
  5
3825
 67
     1
  8
0
  0
BLOCK
  8
0
  2
GENAXEH
 70
     0
 10
0.0
 20
0.0
 30
0.0
  3
GENAXEH
  1

  0
LINE
  5
35CF
  8
0
 10
-1.0
 20
0.0
 30
0.0
 11
1.0
 21
0.0
 31
0.0
  0
ENDBLK
  5
35D0
  8
0
  0
BLOCK
  8
0
  2
_OPEN30
 70
     0
 10
0.0
 20
0.0
 30
0.0
  3
_OPEN30
  1

  0
LINE
  5
35D3
  8
0
 62
     0
 10
-1.0
 20
0.26794919
 30
0.0
 11
0.0
 21
0.0
 31
0.0
  0
LINE
  5
35D4
  8
0
 62
     0
 10
0.0
 20
0.0
 30
0.0
 11
-1.0
 21
-0.26794919
 31
0.0
  0
LINE
  5
35D5
  8
0
 62
     0
 10
0.0
 20
0.0
 30
0.0
 11
-1.0
 21
0.0
 31
0.0
  0
ENDBLK
  5
35D6
  8
0
  0
BLOCK
  8
0
  2
_NONE
 70
     0
 10
0.0
 20
0.0
 30
0.0
  3
_NONE
  1

  0
ENDBLK
  5
35D9
  8
0
  0
BLOCK
  8
0
  2
*U5
 70
     1
 10
0.0
 20
0.0
 30
0.0
  3
*U5
  1

  0
TEXT
  5
35DC
  8
AM_0
 62
     4
 10
507.99378908187822
 20
249.37333299160821
 30
0.0
 40
7.5
  1
\U+2205
 50
90.0
 41
0.8299999999999999
  0
TEXT
  5
35DD
  8
AM_0
 62
     4
 10
507.99378908187822
 20
255.59833299160809
 30
0.0
 40
7.5
  1
140
 50
90.0
 41
0.8299999999999999
  0
TEXT
  5
35DE
  8
AM_0
 62
     4
 10
507.99378908187822
 20
271.16083299160812
 30
0.0
 40
6.0
  1
h7
 50
90.0
 41
0.8299999999999999
  0
ENDBLK
  5
35DF
  8
0
  0
BLOCK
  8
0
  2
*U6
 70
     1
 10
0.0
 20
0.0
 30
0.0
  3
*U6
  1

  0
TEXT
  5
35E2
  8
AM_0
 62
     4
 10
246.2125591655865
 20
230.4108574916082
 30
0.0
 40
7.5
  1
\U+2205
 50
90.0
 41
0.8299999999999999
  0
TEXT
  5
35E3
  8
AM_0
 62
     4
 10
246.2125591655865
 20
236.63585749160811
 30
0.0
 40
7.5
  1
110
 50
90.0
 41
0.8299999999999999
  0
TEXT
  5
35E4
  8
AM_0
 62
     4
 10
246.2125591655865
 20
250.12335749160809
 30
0.0
 40
6.0
  1
G7
 50
90.0
 41
0.8299999999999999
  0
ENDBLK
  5
35E5
  8
0
  0
BLOCK
  8
0
  2
*U7
 70
     1
 10
0.0
 20
0.0
 30
0.0
  3
*U7
  1

  0
TEXT
  5
35E8
  8
AM_0
 62
     4
 10
226.2794930700644
 20
234.5608574916082
 30
0.0
 40
7.5
  1
\U+2205
 50
90.0
 41
0.8299999999999999
  0
TEXT
  5
35E9
  8
AM_0
 62
     4
 10
226.2794930700644
 20
240.78585749160811
 30
0.0
 40
7.5
  1
160
 50
90.0
 41
0.8299999999999999
  0
ENDBLK
  5
35EA
  8
0
  0
BLOCK
  8
0
  2
*U8
 70
     1
 10
0.0
 20
0.0
 30
0.0
  3
*U8
  1

  0
TEXT
  5
35ED
  8
AM_0
 62
     4
 10
433.56256525942717
 20
223.2004490981752
 30
0.0
 40
7.5
  1
\U+2205
 50
90.0
 41
0.8299999999999999
  0
TEXT
  5
35EE
  8
AM_0
 62
     4
 10
433.56256525942717
 20
229.42544909817531
 30
0.0
 40
7.5
  1
140
 50
90.0
 41
0.8299999999999999
  0
TEXT
  5
35EF
  8
AM_0
 62
     4
 10
433.56256525942717
 20
244.98794909817511
 30
0.0
 40
6.0
  1
h7
 50
90.0
 41
0.8299999999999999
  0
ENDBLK
  5
35F0
  8
0
  0
BLOCK
  8
0
  2
*U9
 70
     1
 10
0.0
 20
0.0
 30
0.0
  3
*U9
  1

  0
TEXT
  5
35F3
  8
AM_0
 62
     4
 10
151.84826924761339
 20
208.38797359817519
 30
0.0
 40
7.5
  1
\U+2205
 50
90.0
 41
0.8299999999999999
  0
TEXT
  5
35F4
  8
AM_0
 62
     4
 10
151.84826924761339
 20
214.6129735981751
 30
0.0
 40
7.5
  1
160
 50
90.0
 41
0.8299999999999999
  0
ENDBLK
  5
35F5
  8
0
  0
BLOCK
  8
0
  2
*U10
 70
     1
 10
0.0
 20
0.0
 30
0.0
  3
*U10
  1

  0
TEXT
  5
35F8
  8
AM_0
 62
     4
 10
171.7813353431354
 20
204.2379735981751
 30
0.0
 40
7.5
  1
\U+2205
 50
90.0
 41
0.8299999999999999
  0
TEXT
  5
35F9
  8
AM_0
 62
     4
 10
171.7813353431354
 20
210.46297359817521
 30
0.0
 40
7.5
  1
110
 50
90.0
 41
0.8299999999999999
  0
TEXT
  5
35FA
  8
AM_0
 62
     4
 10
171.7813353431354
 20
223.95047359817531
 30
0.0
 40
6.0
  1
G7
 50
90.0
 41
0.8299999999999999
  0
ENDBLK
  5
35FB
  8
0
  0
BLOCK
  8
0
  2
_ACMFILLEDHALF
 70
     0
 10
0.0
 20
0.0
 30
0.0
  3
_ACMFILLEDHALF
  1

  0
TRACE
  5
3929
  8
AM_0
 62
     0
 10
-0.8
 20
0.0
 30
0.0
 11
-1.0
 21
0.166666666
 31
0.0
 12
0.0
 22
0.0
 32
0.0
 13
0.0
 23
0.0
 33
0.0
  0
LINE
  5
392A
  8
AM_0
 62
     0
 10
-1.0
 20
0.0
 30
0.0
 11
-0.8
 21
0.0
 31
0.0
  0
ENDBLK
  5
3928
  8
0
  0
ENDSEC
  0
SECTION
  2
ENTITIES
  0
LINE
  5
35FD
  8
ﾁｭｳｼﾝｾﾝ1
 10
192.2424024570054
 20
467.1844536356096
 30
0.0
 11
399.17476956004521
 21
467.1844536356096
 31
0.0
  0
LINE
  5
35FE
  8
AM_0
 10
349.95510956004512
 20
537.18445363560954
 30
0.0
 11
349.95510956004512
 21
397.1844536356096
 31
0.0
  0
LINE
  5
35FF
  8
AM_0
 10
339.95507956004519
 20
400.40310363560968
 30
0.0
 11
339.95507956004519
 21
533.96579363560954
 31
0.0
  0
LINE
  5
3600
  8
AM_0
 10
345.95507956004519
 20
382.1844536356096
 30
0.0
 11
345.95507956004519
 21
552.18448363560969
 31
0.0
  0
LINE
  5
3601
  8
AM_0
 10
317.95507956004519
 20
537.57342363560974
 30
0.0
 11
317.95507956004519
 21
396.7954736356096
 31
0.0
  0
LINE
  5
3602
  8
AM_0
 10
350.95507956004519
 20
441.65011363560961
 30
0.0
 11
350.95507956004519
 21
492.71875363560969
 31
0.0
  0
LINE
  5
3603
  8
AM_0
 10
392.95507956004519
 20
479.18445363560949
 30
0.0
 11
392.95507956004519
 21
455.1844536356096
 31
0.0
  0
LINE
  5
3604
  8
AM_0
 10
352.9550495600451
 20
479.68442363560951
 30
0.0
 11
352.9550495600451
 21
454.68448363560952
 31
0.0
  0
LINE
  5
3605
  8
AM_0
 10
248.9551095600452
 20
403.18445363560949
 30
0.0
 11
248.9551095600452
 21
531.18445363560966
 31
0.0
  0
LINE
  5
3606
  8
AM_0
 10
278.95510956004517
 20
398.3160736356096
 30
0.0
 11
278.95510956004517
 21
536.05282363560946
 31
0.0
  0
LINE
  5
3607
  8
AM_0
 10
285.95507956004519
 20
538.18445363560954
 30
0.0
 11
285.95507956004519
 21
396.1844536356096
 31
0.0
  0
LINE
  5
3608
  8
AM_0
 10
316.9786695600452
 20
395.3720436356096
 30
0.0
 11
285.95507956004519
 21
396.1844536356096
 31
0.0
  0
LINE
  5
3609
  8
AM_0
 10
248.9551095600452
 20
430.03442363560953
 30
0.0
 11
278.95510956004517
 21
430.03442363560953
 31
0.0
  0
LINE
  5
360A
  8
AM_0
 10
248.9551095600452
 20
415.14441363560951
 30
0.0
 11
278.95510956004517
 21
415.14441363560951
 31
0.0
  0
LINE
  5
360B
  8
AM_0
 10
274.19490956004518
 20
403.02353363560962
 30
0.0
 11
248.9551395600453
 21
403.68445363560949
 31
0.0
  0
ARC
  5
360C
  8
AM_0
 10
271.95507956004519
 20
413.14441363560968
 30
0.0
 40
2.0
 50
0.0
 51
90.000003000000945
  0
ARC
  5
360D
  8
AM_0
 10
276.95510956004517
 20
399.97317363560961
 30
0.0
 40
2.0
 50
0.0
 51
90.000003000000945
  0
ARC
  5
360E
  8
AM_0
 10
280.95510956004517
 20
398.3160736356096
 30
0.0
 40
2.0
 50
180.00001000000091
 51
268.5000000000004
  0
LINE
  5
360F
  8
AM_0
 10
273.95507956004531
 20
403.9731736356095
 30
0.0
 11
273.95507956004531
 21
413.14441363560968
 31
0.0
  0
ARC
  5
3610
  8
AM_0
 10
275.95507956004531
 20
403.9731736356095
 30
0.0
 40
2.0
 50
180.00001000000091
 51
270.0
  0
LINE
  5
3611
  8
AM_0
 10
275.95507956004531
 20
401.97317363560973
 30
0.0
 11
276.95510956004517
 21
401.97317363560973
 31
0.0
  0
LINE
  5
3612
  8
AM_0
 10
285.95510956004517
 20
396.18448363560958
 30
0.0
 11
280.90276956004521
 21
396.31677363560959
 31
0.0
  0
ARC
  5
3613
  8
AM_0
 10
320.95507956004519
 20
396.7954736356096
 30
0.0
 40
3.0
 50
179.9999899999988
 51
268.50000999999872
  0
LINE
  5
3614
  8
AM_0
 10
335.95507956004519
 20
425.23279363560948
 30
0.0
 11
335.95507956004519
 21
384.46506363560962
 31
0.0
  0
LINE
  5
3615
  8
AM_0
 10
337.88527956004521
 20
382.46625363560958
 30
0.0
 11
345.95507956004519
 21
382.1844536356096
 31
0.0
  0
LINE
  5
3616
  8
AM_0
 10
320.8765895600452
 20
393.79651363560959
 30
0.0
 11
333.0336295600452
 21
393.47818363560958
 31
0.0
  0
ARC
  5
3617
  8
AM_0
 10
337.95510956004517
 20
384.46506363560962
 30
0.0
 40
2.0
 50
179.9999899999988
 51
268.00000999999861
  0
ARC
  5
3618
  8
AM_0
 10
332.95507956004519
 20
390.47919363560959
 30
0.0
 40
3.0
 50
0.0
 51
88.499997000000747
  0
ARC
  5
3619
  8
AM_0
 10
322.95507956004519
 20
420.54077363560958
 30
0.0
 40
5.0
 50
179.9999899999988
 51
239.431710000001
  0
ARC
  5
361A
  8
AM_0
 10
318.95507956004519
 20
420.48633363560958
 30
0.0
 40
1.0
 50
179.9999899999988
 51
270.0
  0
ARC
  5
361B
  8
AM_0
 10
322.95507956004519
 20
417.05652363560961
 30
0.0
 40
5.0
 50
179.9999899999988
 51
239.431710000001
  0
ARC
  5
361C
  8
AM_0
 10
316.90014956004512
 20
392.37308363560959
 30
0.0
 40
3.0
 50
47.481952000001627
 51
88.499997000000747
  0
LINE
  5
361D
  8
AM_0
 10
333.49788956004522
 20
408.50659363560948
 30
0.0
 11
320.41228956004522
 21
416.23562363560961
 31
0.0
  0
LINE
  5
361E
  8
AM_0
 10
333.49788956004522
 20
405.0223736356096
 30
0.0
 11
320.41225956004507
 21
412.7514336356096
 31
0.0
  0
ARC
  5
361F
  8
AM_0
 10
330.95507956004519
 20
400.71722363560968
 30
0.0
 40
5.0
 50
0.0
 51
59.431709000000481
  0
ARC
  5
3620
  8
AM_0
 10
336.95507956004519
 20
400.40310363560968
 30
0.0
 40
3.0
 50
270.0
 51
0.0
  0
ARC
  5
3621
  8
AM_0
 10
330.95507956004519
 20
404.20148363560969
 30
0.0
 40
5.0
 50
0.0
 51
59.431709000000481
  0
LINE
  5
3622
  8
AM_0
 10
318.95507956004519
 20
419.48633363560953
 30
0.0
 11
333.95507956004519
 21
419.48633363560953
 31
0.0
  0
ARC
  5
3623
  8
AM_0
 10
333.95507956004519
 20
417.48633363560958
 30
0.0
 40
2.0
 50
0.0
 51
90.000003000000945
  0
ARC
  5
3624
  8
AM_0
 10
338.95507956004519
 20
425.23279363560948
 30
0.0
 40
3.0
 50
90.000003000000945
 51
180.00001000000091
  0
LINE
  5
3625
  8
AM_0
 10
345.95507956004519
 20
397.1844536356096
 30
0.0
 11
349.95510956004512
 21
397.1844536356096
 31
0.0
  0
LINE
  5
3626
  8
AM_0
 10
360.95507956004519
 20
463.1844536356096
 30
0.0
 11
392.95507956004519
 21
463.1844536356096
 31
0.0
  0
LINE
  5
3627
  8
AM_0
 10
352.9550495600451
 20
455.1844536356096
 30
0.0
 11
392.95507956004519
 21
455.1844536356096
 31
0.0
  0
LINE
  5
3628
  8
AM_0
 10
360.95507956004519
 20
471.18442363560951
 30
0.0
 11
392.95507956004519
 21
471.18442363560951
 31
0.0
  0
ARC
  5
3629
  8
AM_0
 10
349.95507956004519
 20
441.65011363560961
 30
0.0
 40
1.0
 50
272.0000000000004
 51
0.0
  0
LINE
  5
362A
  8
AM_0
 10
349.95507956004519
 20
440.6495336356096
 30
0.0
 11
349.98998956004522
 21
440.65076363560968
 31
0.0
  0
ARC
  5
362B
  8
AM_0
 10
360.95507956004519
 20
467.18442363560951
 30
0.0
 40
3.9999962
 50
90.000003000000945
 51
270.0
  0
LINE
  5
362C
  8
AM_0
 10
350.95507956004519
 20
454.68448363560952
 30
0.0
 11
352.9550495600451
 21
454.68448363560952
 31
0.0
  0
LINE
  5
362D
  8
AM_0
 10
360.95507956004519
 20
471.18442363560951
 30
0.0
 11
360.95507956004519
 21
463.1844536356096
 31
0.0
  0
LINE
  5
362E
  8
AM_0
 10
316.97869956004519
 20
538.99682363560964
 30
0.0
 11
285.95507956004519
 21
538.18445363560954
 31
0.0
  0
LINE
  5
362F
  8
AM_0
 10
248.9551095600452
 20
504.33447363560958
 30
0.0
 11
278.95510956004517
 21
504.33447363560958
 31
0.0
  0
LINE
  5
3630
  8
AM_0
 10
248.9551095600452
 20
519.22449363560975
 30
0.0
 11
278.95510956004517
 21
519.22449363560975
 31
0.0
  0
LINE
  5
3631
  8
AM_0
 10
274.19490956004518
 20
531.34540363560961
 30
0.0
 11
248.9551395600453
 21
530.68448363560969
 31
0.0
  0
ARC
  5
3632
  8
AM_0
 10
275.95507956004531
 20
530.39575363560959
 30
0.0
 40
2.0
 50
90.000003000000945
 51
180.00001000000091
  0
ARC
  5
3633
  8
AM_0
 10
271.95507956004519
 20
521.22449363560975
 30
0.0
 40
2.0
 50
270.0
 51
0.0
  0
LINE
  5
3634
  8
AM_0
 10
273.95507956004531
 20
530.39575363560959
 30
0.0
 11
273.95507956004531
 21
521.22449363560975
 31
0.0
  0
ARC
  5
3635
  8
AM_0
 10
276.95510956004517
 20
534.39575363560959
 30
0.0
 40
2.0
 50
270.0
 51
0.0
  0
ARC
  5
3636
  8
AM_0
 10
280.95510956004517
 20
536.05282363560946
 30
0.0
 40
2.0
 50
91.500001000001546
 51
180.00001000000091
  0
LINE
  5
3637
  8
AM_0
 10
275.95507956004531
 20
532.39575363560971
 30
0.0
 11
276.95510956004517
 21
532.39575363560971
 31
0.0
  0
LINE
  5
3638
  8
AM_0
 10
285.95507956004519
 20
538.18445363560954
 30
0.0
 11
280.90276956004521
 21
538.05215363560967
 31
0.0
  0
ARC
  5
3639
  8
AM_0
 10
337.95510956004517
 20
549.90384363560975
 30
0.0
 40
2.0
 50
91.999998000000545
 51
180.00001000000091
  0
LINE
  5
363A
  8
AM_0
 10
335.95507956004519
 20
509.13611363560972
 30
0.0
 11
335.95507956004519
 21
549.90384363560975
 31
0.0
  0
ARC
  5
363B
  8
AM_0
 10
338.95507956004519
 20
509.13611363560972
 30
0.0
 40
3.0
 50
179.9999899999988
 51
270.0
  0
ARC
  5
363C
  8
AM_0
 10
318.95507956004519
 20
513.88257363560945
 30
0.0
 40
1.0
 50
90.000003000000945
 51
180.00001000000091
  0
ARC
  5
363D
  8
AM_0
 10
322.95507956004519
 20
517.31238363560965
 30
0.0
 40
5.0
 50
120.5682899999989
 51
180.00001000000091
  0
ARC
  5
363E
  8
AM_0
 10
322.95507956004519
 20
513.8281236356097
 30
0.0
 40
5.0
 50
120.5682899999989
 51
180.00001000000091
  0
ARC
  5
363F
  8
AM_0
 10
320.95507956004519
 20
537.57342363560974
 30
0.0
 40
3.0
 50
91.500001000001546
 51
180.00001000000091
  0
ARC
  5
3640
  8
AM_0
 10
316.90014956004512
 20
541.99579363560974
 30
0.0
 40
3.0
 50
271.49999999999932
 51
312.51811999999887
  0
ARC
  5
3641
  8
AM_0
 10
330.95507956004519
 20
533.65167363560965
 30
0.0
 40
5.0
 50
300.56828999999891
 51
0.0
  0
LINE
  5
3642
  8
AM_0
 10
333.4979195600452
 20
529.34653363560972
 30
0.0
 11
320.41225956004507
 21
521.61746363560974
 31
0.0
  0
LINE
  5
3643
  8
AM_0
 10
333.4979195600452
 20
525.86230363560946
 30
0.0
 11
320.41225956004507
 21
518.13324363560969
 31
0.0
  0
LINE
  5
3644
  8
AM_0
 10
318.95507956004519
 20
514.88257363560979
 30
0.0
 11
333.95507956004519
 21
514.88257363560979
 31
0.0
  0
ARC
  5
3645
  8
AM_0
 10
333.95507956004519
 20
516.88257363560956
 30
0.0
 40
2.0
 50
270.0
 51
0.0
  0
ARC
  5
3646
  8
AM_0
 10
330.95507956004519
 20
530.16742363560979
 30
0.0
 40
5.0
 50
300.56828999999891
 51
0.0
  0
LINE
  5
3647
  8
AM_0
 10
320.87655956004522
 20
540.57242363560965
 30
0.0
 11
333.03359956004522
 21
540.89075363560971
 31
0.0
  0
ARC
  5
3648
  8
AM_0
 10
336.95507956004519
 20
533.96579363560954
 30
0.0
 40
3.0
 50
0.0
 51
90.000003000000945
  0
ARC
  5
3649
  8
AM_0
 10
332.95507956004519
 20
543.88971363560961
 30
0.0
 40
3.0
 50
271.49999999999932
 51
0.0
  0
LINE
  5
364A
  8
AM_0
 10
352.9550495600451
 20
479.18445363560949
 30
0.0
 11
392.95507956004519
 21
479.18445363560949
 31
0.0
  0
LINE
  5
364B
  8
AM_0
 10
350.95507956004519
 20
479.68442363560951
 30
0.0
 11
352.9550495600451
 21
479.68442363560951
 31
0.0
  0
ARC
  5
364C
  8
AM_0
 10
349.95507956004519
 20
492.71875363560969
 30
0.0
 40
1.0
 50
0.0
 51
87.999999999999659
  0
LINE
  5
364D
  8
AM_0
 10
349.95513956004521
 20
493.71936363560968
 30
0.0
 11
349.98998956004522
 21
493.71814363560952
 31
0.0
  0
LINE
  5
364E
  8
AM_0
 10
345.95507956004519
 20
537.18445363560954
 30
0.0
 11
349.95510956004512
 21
537.18445363560954
 31
0.0
  0
LINE
  5
364F
  8
AM_0
 10
337.88524956004522
 20
551.90268363560972
 30
0.0
 11
345.95507956004519
 21
552.18448363560969
 31
0.0
  0
LINE
  5
3650
  8
ﾁｭｳｼﾝｾﾝ1
 10
396.66754956004519
 20
251.41957479497341
 30
0.0
 11
258.65108155895672
 21
251.41957479497341
 31
0.0
  0
LINE
  5
3651
  8
AM_0
 10
350.95507956004519
 20
238.91958879497341
 30
0.0
 11
352.95505956004519
 21
238.91958879497341
 31
0.0
  0
LINE
  5
3652
  8
AM_0
 10
350.95507956004519
 20
263.9195577949734
 30
0.0
 11
352.95505956004519
 21
263.9195577949734
 31
0.0
  0
LINE
  5
3653
  8
AM_0
 10
285.9550695600455
 20
302.41955979497328
 30
0.0
 11
285.9550695600455
 21
157.91955579497341
 31
0.0
  0
LINE
  5
3654
  8
AM_0
 10
278.95507956004508
 20
273.80759079497352
 30
0.0
 11
278.95507956004508
 21
162.41955579497329
 31
0.0
  0
LINE
  5
3655
  8
AM_0
 10
248.95507956004519
 20
294.9195597949734
 30
0.0
 11
248.95507956004519
 21
167.9194947949735
 31
0.0
  0
LINE
  5
3656
  8
AM_0
 10
345.95506956004539
 20
168.9195567949734
 30
0.0
 11
345.95506956004539
 21
336.41955579497318
 31
0.0
  0
LINE
  5
3657
  8
AM_0
 10
339.9550695600455
 20
187.13821479497341
 30
0.0
 11
339.9550695600455
 21
318.20091579497358
 31
0.0
  0
LINE
  5
3658
  8
AM_0
 10
350.95507956004519
 20
225.4702617949734
 30
0.0
 11
350.95507956004519
 21
277.44833679497327
 31
0.0
  0
ARC
  5
3659
  8
AM_0
 10
271.9551495600453
 20
266.28689979497329
 30
0.0
 40
2.00000007
 50
270.0
 51
0.0
  0
ARC
  5
365A
  8
AM_0
 10
322.9551195600452
 20
270.26440779497352
 30
0.0
 40
5.0000001000000003
 50
179.9999899999988
 51
270.0
  0
LINE
  5
365B
  8
0
  6
CONTINUOUS
 62
     7
 10
237.95507956004511
 20
293.41958879497332
 30
0.0
 11
237.95507956004511
 21
169.41958879497341
 31
0.0
  0
LINE
  5
365C
  8
0
 10
214.9550856397189
 20
309.41958879497332
 30
0.0
 11
214.9550856397189
 21
153.41958879497341
 31
0.0
  0
LINE
  5
365D
  8
0
 10
204.9550856397189
 20
311.41958879497332
 30
0.0
 11
204.9550856397189
 21
151.41958879497341
 31
0.0
  0
LINE
  5
365E
  8
ﾁｭｳｼﾝｾﾝ1
 10
192.2424024570054
 20
231.41958879497329
 30
0.0
 11
272.90846737080022
 21
231.41958879497329
 31
0.0
  0
ARC
  5
365F
  8
0
 10
219.9550856397189
 20
168.41958879497341
 30
0.0
 40
5.0
 50
90.0
 51
180.0
1001
GENIUS_GENOBJ-N-FIL_13
1002
{
1000
OWNER
1000
GEN
1002
}
1001
GENIUS_GENODEF_13
1002
{
1000
HIER
1070
     0
1002
}
1002
{
1000
MANEDIT
1070
     0
1002
}
1002
{
1000
NOSEL
1070
     0
1002
}
1002
{
1000
BEHIND
1070
     0
1002
}
1002
{
1000
OTHER
1070
     0
1002
}
1002
{
1000
REACTOR
1002
}
  0
LINE
  5
3660
  8
0
 10
204.9550856397189
 20
151.41958879497341
 30
0.0
 11
212.9550856397189
 21
151.41958879497341
 31
0.0
  0
ARC
  5
3661
  8
0
 10
212.9550856397189
 20
153.41958879497341
 30
0.0
 40
2.0
 50
270.0
 51
0.0
1001
GENIUS_GENODEF_13
1002
{
1000
HIER
1070
     0
1002
}
1002
{
1000
MANEDIT
1070
     0
1002
}
1002
{
1000
NOSEL
1070
     0
1002
}
1002
{
1000
BEHIND
1070
     0
1002
}
1002
{
1000
OTHER
1070
     0
1002
}
1002
{
1000
REACTOR
1002
}
1001
GENIUS_GENOBJ-N-FIL_13
1002
{
1000
OWNER
1000
GEN
1002
}
  0
LINE
  5
3662
  8
AM_0
 10
335.95507956004508
 20
171.20013579497339
 30
0.0
 11
335.95507956004508
 21
204.26522979497341
 31
0.0
  0
LINE
  5
3663
  8
AM_0
 10
275.95507956004519
 20
157.91955579497341
 30
0.0
 11
285.9550695600455
 21
157.91955579497341
 31
0.0
  0
LINE
  5
3664
  8
AM_0
 10
280.9551495600453
 20
160.41955479497341
 30
0.0
 11
285.9550695600455
 21
160.41955479497341
 31
0.0
  0
LINE
  5
3665
  8
AM_0
 10
248.9551395600455
 20
167.91957279497339
 30
0.0
 11
273.95506956004527
 21
167.26492479497341
 31
0.0
  0
LINE
  5
3666
  8
0
 10
235.95507956004511
 20
173.41958879497341
 30
0.0
 11
219.9550856397189
 21
173.41958879497341
 31
0.0
  0
LINE
  5
3667
  8
0
 10
248.95507956004519
 20
167.41958879497341
 30
0.0
 11
239.95507956004511
 21
167.41958879497341
 31
0.0
  0
ARC
  5
3668
  8
0
 10
235.95507956004511
 20
171.41958879497341
 30
0.0
 40
2.0
 50
0.0
 51
90.0
1001
GENIUS_GENODEF_13
1002
{
1000
HIER
1070
     0
1002
}
1002
{
1000
MANEDIT
1070
     0
1002
}
1002
{
1000
NOSEL
1070
     0
1002
}
1002
{
1000
BEHIND
1070
     0
1002
}
1002
{
1000
OTHER
1070
     0
1002
}
1002
{
1000
REACTOR
1002
}
1001
GENIUS_GENOBJ-N-FIL_13
1002
{
1000
OWNER
1000
GEN
1002
}
  0
ARC
  5
3669
  8
0
 10
239.95507956004511
 20
169.41958879497341
 30
0.0
 40
2.0
 50
180.0
 51
270.0
1001
GENIUS_GENODEF_13
1002
{
1000
HIER
1070
     0
1002
}
1002
{
1000
MANEDIT
1070
     0
1002
}
1002
{
1000
NOSEL
1070
     0
1002
}
1002
{
1000
BEHIND
1070
     0
1002
}
1002
{
1000
OTHER
1070
     0
1002
}
1002
{
1000
REACTOR
1002
}
1001
GENIUS_GENOBJ-N-FIL_13
1002
{
1000
OWNER
1000
GEN
1002
}
  0
LINE
  5
366A
  8
AM_0
 10
273.95506956004527
 20
173.78956779497341
 30
0.0
 11
273.95506956004527
 21
159.9195567949734
 31
0.0
  0
ARC
  5
366B
  8
AM_0
 10
275.95507956004519
 20
159.9195567949734
 30
0.0
 40
2.00000007
 50
179.9999899999988
 51
270.0
  0
ARC
  5
366C
  8
AM_0
 10
280.9551495600453
 20
162.41955579497329
 30
0.0
 40
2.00000007
 50
179.9999899999988
 51
270.0
  0
LINE
  5
366D
  8
AM_0
 10
273.95506956004527
 20
175.78956579497341
 30
0.0
 11
278.4350595600452
 21
175.78956579497341
 31
0.0
  0
ARC
  5
366E
  8
AM_0
 10
271.9551495600453
 20
173.78956779497341
 30
0.0
 40
2.00000007
 50
0.0
 51
90.000003000000945
  0
LINE
  5
366F
  8
AM_0
 10
285.95512956004518
 20
157.91955579497341
 30
0.0
 11
321.95512956004518
 21
156.41955579497341
 31
0.0
  0
LINE
  5
3670
  8
AM_0
 10
285.9550695600455
 20
168.54948579497341
 30
0.0
 11
321.95506956004522
 21
168.54948579497341
 31
0.0
  0
LINE
  5
3671
  8
AM_0
 10
322.92889956004518
 20
172.8296817949734
 30
0.0
 11
335.95507956004508
 21
173.17077579497339
 31
0.0
  0
ARC
  5
3672
  8
AM_0
 10
337.9551195600452
 20
171.20013579497339
 30
0.0
 40
2.00000007
 50
179.9999899999988
 51
268.00000999999861
  0
LINE
  5
3673
  8
AM_0
 10
321.95506956004522
 20
171.83003379497339
 30
0.0
 11
321.95506956004522
 21
156.41955579497341
 31
0.0
  0
ARC
  5
3674
  8
AM_0
 10
322.9551195600452
 20
171.83003379497339
 30
0.0
 40
1.0000000199999981
 50
91.500001000001546
 51
180.00001000000091
  0
LINE
  5
3675
  8
AM_0
 10
337.88527956004549
 20
169.20137079497329
 30
0.0
 11
345.95509956004548
 21
168.9195567949734
 31
0.0
  0
LINE
  5
3676
  8
AM_0
 10
248.95507956004519
 20
194.2716087949733
 30
0.0
 11
278.95507956004508
 21
194.2716087949733
 31
0.0
  0
LINE
  5
3677
  8
AM_0
 10
248.95507956004519
 20
179.91955779497329
 30
0.0
 11
278.95507956004508
 21
179.91955779497329
 31
0.0
  0
LINE
  5
3678
  8
AM_0
 10
248.95507956004519
 20
179.91957279497339
 30
0.0
 11
237.95507956004511
 21
179.91957279497339
 31
0.0
  0
LINE
  5
3679
  8
AM_0
 10
248.95507956004519
 20
194.2716537949733
 30
0.0
 11
237.95507956004511
 21
194.2716537949733
 31
0.0
  0
LINE
  5
367A
  8
AM_0
 10
273.95506956004527
 20
264.28689879497341
 30
0.0
 11
278.39575956004541
 21
264.28689879497341
 31
0.0
  0
LINE
  5
367B
  8
AM_0
 10
349.9551195600452
 20
251.41957479497341
 30
0.0
 11
349.9551195600452
 21
181.41957279497331
 31
0.0
  0
ARC
  5
367C
  8
AM_0
 10
336.9550695600455
 20
187.13821479497341
 30
0.0
 40
3.0
 50
270.0
 51
0.0
  0
LINE
  5
367D
  8
AM_0
 10
349.88527956004549
 20
185.4220137949734
 30
0.0
 11
349.9551195600452
 21
185.41957179497331
 31
0.0
  0
LINE
  5
367E
  8
AM_0
 10
345.95506956004539
 20
181.41957279497331
 30
0.0
 11
349.9551195600452
 21
181.41957279497331
 31
0.0
  0
ARC
  5
367F
  8
AM_0
 10
338.95507956004519
 20
204.26522979497341
 30
0.0
 40
3.0
 50
90.000003000000945
 51
180.00001000000091
  0
ARC
  5
3680
  8
AM_0
 10
347.95507956004508
 20
225.4702617949734
 30
0.0
 40
3.0
 50
311.81031000000121
 51
0.0
  0
LINE
  5
3681
  8
AM_0
 10
349.9551195600452
 20
251.41957479497341
 30
0.0
 11
349.9551195600452
 21
263.2225377949735
 31
0.0
  0
LINE
  5
3682
  8
AM_0
 10
345.95506956004539
 20
263.2225377949735
 30
0.0
 11
349.9551195600452
 21
263.2225377949735
 31
0.0
  0
ARC
  5
3683
  8
0
 10
219.9550856397189
 20
294.41958879497321
 30
0.0
 40
5.0
 50
180.0
 51
270.0
1001
GENIUS_GENOBJ-N-FIL_13
1002
{
1000
OWNER
1000
GEN
1002
}
1001
GENIUS_GENODEF_13
1002
{
1000
HIER
1070
     0
1002
}
1002
{
1000
MANEDIT
1070
     0
1002
}
1002
{
1000
NOSEL
1070
     0
1002
}
1002
{
1000
BEHIND
1070
     0
1002
}
1002
{
1000
OTHER
1070
     0
1002
}
1002
{
1000
REACTOR
1002
}
  0
LINE
  5
3684
  8
0
 10
204.9550856397189
 20
311.41958879497332
 30
0.0
 11
212.9550856397189
 21
311.41958879497332
 31
0.0
  0
ARC
  5
3685
  8
0
 10
212.9550856397189
 20
309.41958879497332
 30
0.0
 40
2.0
 50
0.0
 51
90.0
1001
GENIUS_GENODEF_13
1002
{
1000
HIER
1070
     0
1002
}
1002
{
1000
MANEDIT
1070
     0
1002
}
1002
{
1000
NOSEL
1070
     0
1002
}
1002
{
1000
BEHIND
1070
     0
1002
}
1002
{
1000
OTHER
1070
     0
1002
}
1002
{
1000
REACTOR
1002
}
1001
GENIUS_GENOBJ-N-FIL_13
1002
{
1000
OWNER
1000
GEN
1002
}
  0
LINE
  5
3686
  8
AM_0
 10
280.9551495600453
 20
302.41955979497328
 30
0.0
 11
285.9550695600455
 21
302.41955979497328
 31
0.0
  0
LINE
  5
3687
  8
AM_0
 10
248.95507956004519
 20
294.9195597949734
 30
0.0
 11
277.0074495600453
 21
295.65411879497327
 31
0.0
  0
LINE
  5
3688
  8
AM_0
 10
248.95507956004519
 20
282.9195597949734
 30
0.0
 11
274.95514956004519
 21
282.9195597949734
 31
0.0
  0
LINE
  5
3689
  8
AM_0
 10
248.95507956004519
 20
268.56750879497332
 30
0.0
 11
273.95506956004527
 21
268.56750879497332
 31
0.0
  0
LINE
  5
368A
  8
AM_0
 10
248.95507956004519
 20
268.56750879497332
 30
0.0
 11
237.95507956004511
 21
268.56750879497332
 31
0.0
  0
LINE
  5
368B
  8
AM_0
 10
248.95507956004519
 20
282.9195987949733
 30
0.0
 11
237.95507956004511
 21
282.9195987949733
 31
0.0
  0
LINE
  5
368C
  8
0
 10
235.95507956004511
 20
289.41958879497338
 30
0.0
 11
219.9550856397189
 21
289.41958879497338
 31
0.0
  0
LINE
  5
368D
  8
0
 10
248.95507956004519
 20
295.41958879497332
 30
0.0
 11
239.95507956004511
 21
295.41958879497332
 31
0.0
  0
ARC
  5
368E
  8
0
 10
235.95507956004511
 20
291.41958879497338
 30
0.0
 40
2.0
 50
270.0
 51
0.0
1001
GENIUS_GENODEF_13
1002
{
1000
HIER
1070
     0
1002
}
1002
{
1000
MANEDIT
1070
     0
1002
}
1002
{
1000
NOSEL
1070
     0
1002
}
1002
{
1000
BEHIND
1070
     0
1002
}
1002
{
1000
OTHER
1070
     0
1002
}
1002
{
1000
REACTOR
1002
}
1001
GENIUS_GENOBJ-N-FIL_13
1002
{
1000
OWNER
1000
GEN
1002
}
  0
ARC
  5
368F
  8
0
 10
239.95507956004511
 20
293.41958879497332
 30
0.0
 40
2.0
 50
90.0
 51
180.0
1001
GENIUS_GENODEF_13
1002
{
1000
HIER
1070
     0
1002
}
1002
{
1000
MANEDIT
1070
     0
1002
}
1002
{
1000
NOSEL
1070
     0
1002
}
1002
{
1000
BEHIND
1070
     0
1002
}
1002
{
1000
OTHER
1070
     0
1002
}
1002
{
1000
REACTOR
1002
}
1001
GENIUS_GENOBJ-N-FIL_13
1002
{
1000
OWNER
1000
GEN
1002
}
  0
LINE
  5
3690
  8
AM_0
 10
278.95507956004508
 20
300.41959179497348
 30
0.0
 11
278.95507956004508
 21
284.91956079497339
 31
0.0
  0
LINE
  5
3691
  8
AM_0
 10
273.95506956004527
 20
280.91958879497332
 30
0.0
 11
273.95506956004527
 21
266.28689979497329
 31
0.0
  0
ARC
  5
3692
  8
AM_0
 10
275.95507956004519
 20
275.80759179497352
 30
0.0
 40
2.00000007
 50
179.9999899999988
 51
270.0
  0
LINE
  5
3693
  8
AM_0
 10
275.95507956004519
 20
273.80759079497352
 30
0.0
 11
278.95507956004508
 21
273.80759079497352
 31
0.0
  0
ARC
  5
3694
  8
AM_0
 10
276.9550695600455
 20
284.91956079497339
 30
0.0
 40
2.00000007
 50
270.0
 51
0.0
  0
LINE
  5
3695
  8
AM_0
 10
275.95507956004519
 20
282.9195597949734
 30
0.0
 11
276.9550695600455
 21
282.9195597949734
 31
0.0
  0
ARC
  5
3696
  8
AM_0
 10
275.95507956004519
 20
280.91958879497332
 30
0.0
 40
2.00000007
 50
90.000003000000945
 51
180.00001000000091
  0
ARC
  5
3697
  8
AM_0
 10
276.9550695600455
 20
297.6534777949733
 30
0.0
 40
2.00000007
 50
271.49999999999932
 51
0.0
  0
ARC
  5
3698
  8
AM_0
 10
280.9551495600453
 20
300.41959179497348
 30
0.0
 40
2.00000007
 50
90.000003000000945
 51
180.00001000000091
  0
LINE
  5
3699
  8
AM_0
 10
335.95507956004508
 20
293.37122079497351
 30
0.0
 11
335.95507956004508
 21
334.13898579497328
 31
0.0
  0
LINE
  5
369A
  8
AM_0
 10
349.9551195600452
 20
290.0441937949733
 30
0.0
 11
349.9551195600452
 21
321.41955579497318
 31
0.0
  0
ARC
  5
369B
  8
AM_0
 10
332.95507956004508
 20
308.41254579497343
 30
0.0
 40
3.0
 50
296.29842999999852
 51
0.0
  0
LINE
  5
369C
  8
AM_0
 10
317.95507956004519
 20
315.49356579497351
 30
0.0
 11
317.95507956004519
 21
270.26440779497352
 31
0.0
  0
LINE
  5
369D
  8
AM_0
 10
317.95510956004517
 20
297.65323179497318
 30
0.0
 11
334.28422956004522
 21
305.7230277949734
 31
0.0
  0
ARC
  5
369E
  8
AM_0
 10
319.9551195600452
 20
296.0767257949733
 30
0.0
 40
2.00000007
 50
179.9999899999988
 51
270.0
  0
LINE
  5
369F
  8
AM_0
 10
285.9550695600455
 20
280.21661679497328
 30
0.0
 11
316.2733395600452
 21
280.21661679497328
 31
0.0
  0
LINE
  5
36A0
  8
AM_0
 10
285.9550695600455
 20
302.41955979497328
 30
0.0
 11
315.03361956004522
 21
303.18100479497332
 31
0.0
  0
ARC
  5
36A1
  8
AM_0
 10
314.95507956004508
 20
306.1800057949734
 30
0.0
 40
3.0
 50
271.49999999999932
 51
0.0
  0
LINE
  5
36A2
  8
AM_0
 10
322.9551195600452
 20
265.26443979497338
 30
0.0
 11
337.18582956004542
 21
265.26443979497338
 31
0.0
  0
LINE
  5
36A3
  8
AM_0
 10
349.9551195600452
 20
279.7319667949734
 30
0.0
 11
350.25322956004533
 21
279.37668279497348
 31
0.0
  0
ARC
  5
36A4
  8
AM_0
 10
347.95507956004508
 20
277.44833679497327
 30
0.0
 40
3.0
 50
0.0
 51
39.999998999999043
  0
ARC
  5
36A5
  8
AM_0
 10
344.36920956004519
 20
281.7218367949734
 30
0.0
 40
3.0
 50
39.999998999999043
 51
58.086797000000168
  0
LINE
  5
36A6
  8
AM_0
 10
346.66732956004518
 20
283.65017979497338
 30
0.0
 11
349.9551195600452
 21
279.7319667949734
 31
0.0
  0
LINE
  5
36A7
  8
AM_0
 10
319.4032695600452
 20
291.14822679497343
 30
0.0
 11
336.44056956004522
 21
291.14822679497343
 31
0.0
  0
ARC
  5
36A8
  8
AM_0
 10
338.95507956004519
 20
293.37122079497351
 30
0.0
 40
3.0
 50
179.9999899999988
 51
270.0
  0
ARC
  5
36A9
  8
AM_0
 10
333.41116956004521
 20
291.07672479497347
 30
0.0
 40
3.0
 50
22.483536000001401
 51
90.000003000000945
  0
LINE
  5
36AA
  8
AM_0
 10
319.9551195600452
 20
294.07672479497347
 30
0.0
 11
333.41116956004521
 21
294.07672479497347
 31
0.0
  0
LINE
  5
36AB
  8
AM_0
 10
345.95506956004539
 20
290.0441937949733
 30
0.0
 11
349.9551195600452
 21
290.0441937949733
 31
0.0
  0
ARC
  5
36AC
  8
AM_0
 10
322.9551195600452
 20
315.49356579497351
 30
0.0
 40
5.0000001000000003
 50
91.999998000000545
 51
180.00001000000091
  0
ARC
  5
36AD
  8
AM_0
 10
332.95507956004508
 20
323.83017579497329
 30
0.0
 40
3.0
 50
272.0000000000004
 51
0.0
  0
LINE
  5
36AE
  8
AM_0
 10
323.2806195600453
 20
320.49051579497348
 30
0.0
 11
333.05977956004517
 21
320.83200579497333
 31
0.0
  0
ARC
  5
36AF
  8
AM_0
 10
336.9550695600455
 20
318.20091579497358
 30
0.0
 40
3.0
 50
0.0
 51
90.000003000000945
  0
LINE
  5
36B0
  8
AM_0
 10
345.95506956004539
 20
321.41955579497318
 30
0.0
 11
349.9551195600452
 21
321.41955579497318
 31
0.0
  0
ARC
  5
36B1
  8
AM_0
 10
337.9551195600452
 20
334.13898579497328
 30
0.0
 40
2.00000007
 50
91.999998000000545
 51
180.00001000000091
  0
LINE
  5
36B2
  8
AM_0
 10
337.88527956004549
 20
336.13773579497342
 30
0.0
 11
345.95506956004539
 21
336.41952579497342
 31
0.0
  0
LINE
  5
36B3
  8
AM_0
 10
558.14988101611652
 20
266.4195597949734
 30
0.0
 11
558.14988101611652
 21
259.41957279497348
 31
0.0
  0
LINE
  5
36B4
  8
AM_0
 10
566.14986401611645
 20
266.4195597949734
 30
0.0
 11
566.14986401611645
 21
259.41957279497348
 31
0.0
  0
LINE
  5
36B5
  8
AM_0
 10
477.14989901611642
 20
281.41955979497328
 30
0.0
 11
477.14989901611642
 21
251.41957479497341
 31
0.0
  0
LINE
  5
36B6
  8
AM_0
 10
647.14988201611663
 20
281.41955979497328
 30
0.0
 11
647.14988201611663
 21
251.41957479497341
 31
0.0
  0
ARC
  5
36B7
  8
AM_0
 10
562.14988001611664
 20
251.41957479497341
 30
0.0
 40
66.000003000000007
 50
0.0
 51
11.877162000000441
  0
ARC
  5
36B8
  8
AM_0
 10
562.14988001611664
 20
251.41957479497341
 30
0.0
 40
52.000007999999987
 50
137.75566999999961
 51
174.78408999999971
  0
ARC
  5
36B9
  8
AM_0
 10
562.14988001611664
 20
251.41957479497341
 30
0.0
 40
52.000007999999987
 50
5.215907700001436
 51
42.244334000000627
  0
ARC
  5
36BA
  8
AM_0
 10
562.14988001611664
 20
251.41957479497341
 30
0.0
 40
66.000003000000007
 50
168.1228399999984
 51
0.0000100179138904
  0
ARC
  5
36BB
  8
AM_0
 10
562.14988001611664
 20
251.41957479497341
 30
0.0
 40
70.000001999999995
 50
0.0
 51
15.45248699999985
  0
ARC
  5
36BC
  8
AM_0
 10
562.14988001611664
 20
251.41957479497341
 30
0.0
 40
70.000001999999995
 50
164.54750999999871
 51
0.0000100179138904
  0
ARC
  5
36BD
  8
AM_0
 10
562.14988001611664
 20
251.41957479497341
 30
0.0
 40
33.0
 50
0.0
 51
180.00001000000091
  0
ARC
  5
36BE
  8
AM_0
 10
562.14988001611664
 20
251.41957479497341
 30
0.0
 40
26.500002599999998
 50
270.0
 51
90.000003000000945
  0
ARC
  5
36BF
  8
AM_0
 10
562.14988001611664
 20
251.41957479497341
 30
0.0
 40
26.500002599999998
 50
90.000003000000945
 51
270.0
  0
LINE
  5
36C0
  8
ﾁｭｳｼﾝｾﾝ1
 10
562.14988001611664
 20
340.42169601712601
 30
0.0
 11
562.14988001611664
 21
147.1511628548443
 31
0.0
  0
LINE
  5
36C1
  8
AM_0
 10
392.95507956004519
 20
266.4195597949734
 30
0.0
 11
392.95507956004519
 21
239.4195747949733
 31
0.0
  0
LINE
  5
36C2
  8
AM_0
 10
360.95506956004539
 20
266.4195597949734
 30
0.0
 11
360.95506956004539
 21
263.41955979497328
 31
0.0
  0
LINE
  5
36C3
  8
ﾁｭｳｼﾝｾﾝ1
 10
470.81182901611658
 20
251.41957479497341
 30
0.0
 11
650.76346901611646
 21
251.41957479497341
 31
0.0
  0
ARC
  5
36C4
  8
AM_0
 10
562.14988001611664
 20
231.41958879497329
 30
0.0
 40
80.0
 50
294.44145566049662
 51
308.6247961578153
  0
LINE
  5
36C5
  8
AM_0
 10
605.69916701611669
 20
168.9195567949734
 30
0.0
 11
603.10108301611672
 21
173.41957179497339
 31
0.0
  0
LINE
  5
36C6
  8
AM_0
 10
600.1498960161166
 20
226.41957279497331
 30
0.0
 11
621.18377201611645
 21
226.41957279497331
 31
0.0
  0
LINE
  5
36C7
  8
AM_0
 10
352.95505956004519
 20
239.4195747949733
 30
0.0
 11
392.95507956004519
 21
239.4195747949733
 31
0.0
  0
LINE
  5
36C8
  8
AM_0
 10
352.95505956004519
 20
263.41955979497328
 30
0.0
 11
392.95507956004519
 21
263.41955979497328
 31
0.0
  0
LINE
  5
36C9
  8
AM_0
 10
352.95505956004519
 20
263.9195577949734
 30
0.0
 11
352.95505956004519
 21
238.91958879497341
 31
0.0
  0
CIRCLE
  5
36CA
  8
AM_0
 10
491.43921401611641
 20
180.7088787949734
 30
0.0
 40
6.0000002999999991
  0
ARC
  5
36CB
  8
AM_0
 10
489.39093701611671
 20
178.9195707949734
 30
0.0
 40
10.000000200000001
 50
183.00000999999961
 51
270.0
  0
LINE
  5
36CC
  8
AM_0
 10
521.19870701611671
 20
173.4195567949734
 30
0.0
 11
603.10109801611645
 21
173.4195567949734
 31
0.0
  0
ARC
  5
36CD
  8
AM_0
 10
562.14988001611664
 20
231.41958879497329
 30
0.0
 40
80.0
 50
249.44154965338581
 51
290.55845034661399
  0
LINE
  5
36CE
  8
AM_0
 10
534.02262101611666
 20
156.5144337949734
 30
0.0
 11
590.27716901611643
 21
156.5144337949734
 31
0.0
  0
LINE
  5
36CF
  8
AM_0
 10
536.89760501611681
 20
168.49409679497339
 30
0.0
 11
531.14760401611636
 21
168.49409679497339
 31
0.0
  0
LINE
  5
36D0
  8
AM_0
 10
536.89760501611681
 20
158.53478979497339
 30
0.0
 11
531.14760401611636
 21
158.53478979497339
 31
0.0
  0
CIRCLE
  5
36D1
  8
AM_0
 10
534.02262101611666
 20
163.51443579497339
 30
0.0
 40
4.9796462999999971
  0
LINE
  5
36D2
  8
AM_0
 10
489.39093701611671
 20
168.9195567949734
 30
0.0
 11
518.60062301611674
 21
168.9195567949734
 31
0.0
  0
ARC
  5
36D3
  8
AM_0
 10
534.02262101611666
 20
163.51443579497339
 30
0.0
 40
7.0000007999999987
 50
164.919440000001
 51
270.0
  0
LINE
  5
36D4
  8
AM_0
 10
518.60062301611674
 20
168.9195567949734
 30
0.0
 11
521.19870701611671
 21
173.41957179497339
 31
0.0
  0
ARC
  5
36D5
  8
AM_0
 10
562.14988001611664
 20
231.41958879497329
 30
0.0
 40
80.0
 50
231.37520384218439
 51
245.5585872575881
  0
LINE
  5
36D6
  8
AM_0
 10
528.2726050161167
 20
163.51445079497341
 30
0.0
 11
531.14760401611636
 21
168.49409679497339
 31
0.0
  0
ARC
  5
36D7
  8
AM_0
 10
522.43237901611656
 20
166.62356679497341
 30
0.0
 40
5.0000001000000003
 50
344.9836399999993
 51
56.872542999999951
  0
LINE
  5
36D8
  8
AM_0
 10
531.14762201611666
 20
158.53478979497339
 30
0.0
 11
528.2726050161167
 21
163.51445079497341
 31
0.0
  0
ARC
  5
36D9
  8
AM_0
 10
562.14988001611664
 20
231.41958879497329
 30
0.0
 40
71.000000999999983
 50
234.7757899999998
 51
238.4932699999984
  0
LINE
  5
36DA
  8
AM_0
 10
539.77262201611666
 20
163.51445079497341
 30
0.0
 11
536.89762001611655
 21
168.49409679497339
 31
0.0
  0
LINE
  5
36DB
  8
AM_0
 10
539.77260701611658
 20
163.51445079497341
 30
0.0
 11
536.89760501611681
 21
158.53480479497341
 31
0.0
  0
ARC
  5
36DC
  8
AM_0
 10
590.27716901611643
 20
163.51443579497339
 30
0.0
 40
7.0000007999999987
 50
270.00001999999853
 51
15.0805590000001
  0
LINE
  5
36DD
  8
AM_0
 10
587.40217001611643
 20
158.53480479497341
 30
0.0
 11
584.52716801611643
 21
163.51445079497341
 31
0.0
  0
LINE
  5
36DE
  8
AM_0
 10
584.52716801611643
 20
163.51443579497339
 30
0.0
 11
587.40218501611662
 21
168.49409679497339
 31
0.0
  0
CIRCLE
  5
36DF
  8
AM_0
 10
590.27716901611643
 20
163.51443579497339
 30
0.0
 40
4.9796462999999971
  0
ARC
  5
36E0
  8
AM_0
 10
601.86738101611672
 20
166.62356679497341
 30
0.0
 40
5.0000001000000003
 50
121.5067300000014
 51
195.0163499999997
  0
LINE
  5
36E1
  8
AM_0
 10
596.02717001611643
 20
163.51445079497341
 30
0.0
 11
593.15217101611677
 21
168.49409679497339
 31
0.0
  0
LINE
  5
36E2
  8
AM_0
 10
596.02717001611643
 20
163.51445079497341
 30
0.0
 11
593.15217101611677
 21
158.53478979497339
 31
0.0
  0
LINE
  5
36E3
  8
AM_0
 10
593.15217101611677
 20
158.53478979497339
 30
0.0
 11
587.40218501611662
 21
158.53478979497339
 31
0.0
  0
LINE
  5
36E4
  8
AM_0
 10
593.15217101611677
 20
168.49409679497339
 30
0.0
 11
587.40218501611662
 21
168.49409679497339
 31
0.0
  0
ARC
  5
36E5
  8
AM_0
 10
562.14988001611664
 20
231.41958879497329
 30
0.0
 40
71.000000999999983
 50
301.50671999999992
 51
305.22421000000008
  0
LINE
  5
36E6
  8
ﾁｭｳｼﾝｾﾝ1
 10
598.83726596182237
 20
231.41958879497329
 30
0.0
 11
525.4624940704108
 21
231.41958879497329
 31
0.0
  0
LINE
  5
36E7
  8
AM_0
 10
477.14986901611638
 20
221.4195567949734
 30
0.0
 11
479.4046390161165
 21
178.39619679497341
 31
0.0
  0
LINE
  5
36E8
  8
AM_0
 10
524.14989401611638
 20
226.41957279497331
 30
0.0
 11
503.11600301611668
 21
226.41957279497331
 31
0.0
  0
LINE
  5
36E9
  8
AM_0
 10
499.34863901611641
 20
249.41958879497341
 30
0.0
 11
507.14987801611647
 21
249.41958879497341
 31
0.0
  0
LINE
  5
36EA
  8
AM_0
 10
499.34863901611641
 20
253.41957279497331
 30
0.0
 11
507.37763201611642
 21
253.41957279497331
 31
0.0
  0
LINE
  5
36EB
  8
AM_0
 10
477.14989901611642
 20
221.41957179497331
 30
0.0
 11
477.14989901611642
 21
251.41957479497341
 31
0.0
  0
ARC
  5
36EC
  8
AM_0
 10
503.11600301611668
 20
229.41957279497331
 30
0.0
 40
3.0
 50
200.43878000000009
 51
270.0
  0
ARC
  5
36ED
  8
AM_0
 10
499.34863901611641
 20
256.41957279497348
 30
0.0
 40
3.0
 50
175.44793000000081
 51
270.0
  0
ARC
  5
36EE
  8
AM_0
 10
499.34863901611641
 20
246.41958879497341
 30
0.0
 40
3.0
 50
90.000003000000945
 51
184.55206999999911
  0
ARC
  5
36EF
  8
AM_0
 10
494.8646620161166
 20
261.2529327949735
 30
0.0
 40
2.00000007
 50
79.999998000000815
 51
171.6854100000009
  0
ARC
  5
36F0
  8
AM_0
 10
494.8646620161166
 20
261.2529327949735
 30
0.0
 40
2.00000007
 50
351.68541000000101
 51
79.999998000000815
  0
LINE
  5
36F1
  8
AM_0
 10
495.21195101611659
 20
263.2225377949735
 30
0.0
 11
495.21195101611659
 21
263.2225377949735
 31
0.0
  0
LINE
  5
36F2
  8
AM_0
 10
510.14987801611659
 20
246.41958879497341
 30
0.0
 11
510.14987801611659
 21
229.41957279497331
 31
0.0
  0
LINE
  5
36F3
  8
AM_0
 10
529.14988001611664
 20
251.41957479497341
 30
0.0
 11
529.14988001611664
 21
231.41958879497329
 31
0.0
  0
ARC
  5
36F4
  8
AM_0
 10
507.14987801611647
 20
229.41957279497331
 30
0.0
 40
3.0
 50
270.0
 51
0.0
  0
ARC
  5
36F5
  8
AM_0
 10
524.14989401611638
 20
231.41958879497329
 30
0.0
 40
5.0000001000000003
 50
270.0
 51
0.0
  0
ARC
  5
36F6
  8
AM_0
 10
507.37763201611642
 20
256.41957279497348
 30
0.0
 40
3.0
 50
270.0
 51
354.78408999999971
  0
ARC
  5
36F7
  8
AM_0
 10
507.14987801611647
 20
246.41958879497341
 30
0.0
 40
3.0
 50
0.0
 51
90.000003000000945
  0
ARC
  5
36F8
  8
AM_0
 10
562.14988001611664
 20
251.41957479497341
 30
0.0
 40
12.00000029999998
 50
109.4712200000001
 51
70.528788999999293
  0
CIRCLE
  5
36F9
  8
AM_0
 10
562.14988001611664
 20
251.41957479497341
 30
0.0
 40
3.0
  0
CIRCLE
  5
36FA
  8
AM_5
 10
562.14988001611664
 20
251.41957479497341
 30
0.0
 40
4.000000199999997
  0
LINE
  5
36FB
  8
AM_0
 10
558.14988101611652
 20
259.41957279497348
 30
0.0
 11
566.14986401611645
 21
259.41957279497348
 31
0.0
  0
LINE
  5
36FC
  8
AM_0
 10
595.14988001611664
 20
251.41957479497341
 30
0.0
 11
595.14988001611664
 21
231.41958879497329
 31
0.0
  0
ARC
  5
36FD
  8
AM_0
 10
600.1498960161166
 20
231.41958879497329
 30
0.0
 40
5.0000001000000003
 50
179.9999899999988
 51
270.0
  0
CIRCLE
  5
36FE
  8
AM_0
 10
632.86056101611643
 20
180.7088787949734
 30
0.0
 40
6.0000002999999991
  0
ARC
  5
36FF
  8
AM_0
 10
634.90883801611653
 20
178.9195707949734
 30
0.0
 40
10.000000200000001
 50
270.0
 51
357.00000000000091
  0
LINE
  5
3700
  8
AM_0
 10
605.69916701611669
 20
168.9195567949734
 30
0.0
 11
634.90883801611653
 21
168.9195567949734
 31
0.0
  0
LINE
  5
3701
  8
AM_0
 10
647.1498970161166
 20
221.4195567949734
 30
0.0
 11
644.89513601611645
 21
178.3962117949734
 31
0.0
  0
LINE
  5
3702
  8
AM_0
 10
614.14989701611648
 20
246.41958879497341
 30
0.0
 11
614.14989701611648
 21
229.41957279497331
 31
0.0
  0
ARC
  5
3703
  8
AM_0
 10
617.14989701611671
 20
229.41957279497331
 30
0.0
 40
3.0
 50
179.9999899999988
 51
270.0
  0
ARC
  5
3704
  8
AM_0
 10
621.18377201611645
 20
229.41957279497331
 30
0.0
 40
3.0
 50
270.0
 51
339.56121999999971
  0
LINE
  5
3705
  8
AM_0
 10
624.95116601611653
 20
253.41957279497331
 30
0.0
 11
616.92214301611671
 21
253.41957279497331
 31
0.0
  0
LINE
  5
3706
  8
AM_0
 10
624.95116601611653
 20
249.41958879497341
 30
0.0
 11
617.14989701611671
 21
249.41958879497341
 31
0.0
  0
ARC
  5
3707
  8
AM_0
 10
616.92214301611671
 20
256.41957279497348
 30
0.0
 40
3.0
 50
185.21591000000021
 51
270.0
  0
ARC
  5
3708
  8
AM_0
 10
617.14989701611671
 20
246.41958879497341
 30
0.0
 40
3.0
 50
90.000003000000945
 51
180.00001000000091
  0
ARC
  5
3709
  8
AM_0
 10
624.95116601611653
 20
256.41957279497348
 30
0.0
 40
3.0
 50
270.0
 51
4.5520714000013554
  0
ARC
  5
370A
  8
AM_0
 10
624.95116601611653
 20
246.41958879497341
 30
0.0
 40
3.0
 50
355.44793000000089
 51
90.000003000000945
  0
ARC
  5
370B
  8
AM_0
 10
629.43514601611673
 20
261.2529327949735
 30
0.0
 40
2.00000007
 50
99.999999999998593
 51
188.31458999999879
  0
ARC
  5
370C
  8
AM_0
 10
629.43514601611673
 20
261.2529327949735
 30
0.0
 40
2.00000007
 50
8.314587399999116
 51
99.999999999998593
  0
LINE
  5
370D
  8
AM_0
 10
629.08783901611673
 20
263.2225377949735
 30
0.0
 11
629.08783901611673
 21
263.2225377949735
 31
0.0
  0
LINE
  5
370E
  8
AM_0
 10
647.14988201611663
 20
221.41957179497331
 30
0.0
 11
647.14988201611663
 21
251.41957479497341
 31
0.0
  0
LINE
  5
370F
  8
AM_0
 10
604.75975901611673
 20
297.56497779497352
 30
0.0
 11
585.53913101611647
 21
278.34436479497327
 31
0.0
  0
ARC
  5
3710
  8
AM_0
 10
562.14988001611664
 20
251.41957479497341
 30
0.0
 40
66.000003000000007
 50
34.109954000000712
 51
145.89003999999809
  0
ARC
  5
3711
  8
AM_0
 10
562.14988001611664
 20
251.41957479497341
 30
0.0
 40
70.000001999999995
 50
30.534626999999471
 51
149.46537000000049
  0
LINE
  5
3712
  8
AM_0
 10
608.29531301611667
 20
294.02945379497351
 30
0.0
 11
589.07467001611644
 21
274.80881079497351
 31
0.0
  0
LINE
  5
3713
  8
AM_0
 10
592.14989501611672
 20
336.41955579497318
 30
0.0
 11
635.41930601611671
 21
334.15191579497332
 31
0.0
  0
LINE
  5
3714
  8
AM_0
 10
360.95506956004539
 20
266.4195597949734
 30
0.0
 11
392.95507956004519
 21
266.4195597949734
 31
0.0
  0
LINE
  5
3715
  8
AM_0
 10
519.54001601611662
 20
297.56497779497352
 30
0.0
 11
538.76065901611673
 21
278.34433479497352
 31
0.0
  0
ARC
  5
3716
  8
AM_0
 10
562.14986491585159
 20
251.41957479497341
 30
0.0
 40
52.000007999999987
 50
95.215910999999622
 51
132.24432999999581
  0
LINE
  5
3717
  8
AM_0
 10
532.14988001611664
 20
336.41958579497327
 30
0.0
 11
562.14988001611664
 21
336.41958579497327
 31
0.0
  0
LINE
  5
3718
  8
AM_0
 10
477.14989901611642
 20
281.41955979497328
 30
0.0
 11
479.41754801611648
 21
324.68895579497342
 31
0.0
  0
ARC
  5
3719
  8
AM_0
 10
503.8384450161164
 20
276.16357779497338
 30
0.0
 40
11.000000399999999
 50
85.156818000000143
 51
228.85605999999939
  0
LINE
  5
371A
  8
AM_0
 10
506.71344701611679
 20
281.14322379497338
 30
0.0
 11
500.96344601611668
 21
281.14322379497338
 31
0.0
  0
LINE
  5
371B
  8
AM_0
 10
506.71344701611679
 20
271.18393179497332
 30
0.0
 11
500.96344601611668
 21
271.18393179497332
 31
0.0
  0
CIRCLE
  5
371C
  8
AM_0
 10
503.8384450161164
 20
276.16357779497338
 30
0.0
 40
4.9796462999999971
  0
LINE
  5
371D
  8
AM_0
 10
500.96344601611668
 20
271.18390179497339
 30
0.0
 11
498.08844701611679
 21
276.1635477949734
 31
0.0
  0
ARC
  5
371E
  8
AM_0
 10
494.6271130161166
 20
265.62076179497348
 30
0.0
 40
3.0
 50
348.12283999999852
 51
48.856062999999523
  0
LINE
  5
371F
  8
AM_0
 10
498.08841701611641
 20
276.16357779497338
 30
0.0
 11
500.96341601611681
 21
281.14322379497338
 31
0.0
  0
LINE
  5
3720
  8
AM_0
 10
516.00449201611673
 20
294.0294237949733
 30
0.0
 11
535.22512001611665
 21
274.80881079497351
 31
0.0
  0
LINE
  5
3721
  8
AM_0
 10
509.58844601611651
 20
276.16357779497338
 30
0.0
 11
506.71344701611679
 21
271.18393179497332
 31
0.0
  0
LINE
  5
3722
  8
AM_0
 10
509.58844601611651
 20
276.1635477949734
 30
0.0
 11
506.71344701611679
 21
281.14322379497338
 31
0.0
  0
ARC
  5
3723
  8
AM_0
 10
533.10379601611646
 20
272.68750479497351
 30
0.0
 40
3.0
 50
323.7879400000013
 51
45.000000999999187
  0
ARC
  5
3724
  8
AM_0
 10
513.88318601611672
 20
291.9081147949733
 30
0.0
 40
3.0
 50
45.000000999999187
 51
140.0083900000005
  0
LINE
  5
3725
  8
AM_0
 10
506.47162601611672
 20
290.40591879497327
 30
0.0
 11
506.47162601611672
 21
290.40591879497327
 31
0.0
  0
ARC
  5
3726
  8
AM_0
 10
507.61881101611669
 20
292.04419479497318
 30
0.0
 40
2.00000007
 50
143.31458000000069
 51
235.00001000000159
  0
ARC
  5
3727
  8
AM_0
 10
505.02045401611667
 20
290.11358979497339
 30
0.0
 40
3.0
 50
265.15682000000169
 51
325.89004999999969
  0
ARC
  5
3728
  8
AM_0
 10
507.61881101611669
 20
292.04419479497318
 30
0.0
 40
2.00000007
 50
234.99999999999901
 51
323.31459000000081
  0
ARC
  5
3729
  8
AM_0
 10
521.66132201611663
 20
299.68631379497339
 30
0.0
 40
3.0
 50
129.9916099999993
 51
225.0
  0
LINE
  5
372A
  8
AM_0
 10
532.14989501611672
 20
336.41955579497318
 30
0.0
 11
488.88046901611648
 21
334.15188579497351
 31
0.0
  0
ARC
  5
372B
  8
AM_0
 10
489.40384601611657
 20
324.1656357949733
 30
0.0
 40
10.000000200000001
 50
92.99999899999834
 51
176.99999000000011
  0
CIRCLE
  5
372C
  8
AM_0
 10
491.43921401611641
 20
322.13025579497338
 30
0.0
 40
6.0000002999999991
  0
LINE
  5
372D
  8
AM_0
 10
564.1498960161166
 20
314.2208457949734
 30
0.0
 11
564.1498960161166
 21
306.19182579497351
 31
0.0
  0
LINE
  5
372E
  8
AM_0
 10
560.1498940161166
 20
314.2208457949734
 30
0.0
 11
560.1498940161166
 21
306.19182579497351
 31
0.0
  0
ARC
  5
372F
  8
AM_0
 10
562.14988001611664
 20
251.41957479497341
 30
0.0
 40
52.000007999999987
 50
47.755664999999908
 51
84.784094000000906
  0
ARC
  5
3730
  8
AM_0
 10
540.88198001611659
 20
280.46567079497328
 30
0.0
 40
3.0
 50
225.0
 51
306.21205999999847
  0
LINE
  5
3731
  8
AM_0
 10
558.14988101611652
 20
266.4195597949734
 30
0.0
 11
566.14986401611645
 21
266.4195597949734
 31
0.0
  0
ARC
  5
3732
  8
AM_0
 10
557.14989401611638
 20
306.19182579497351
 30
0.0
 40
3.0
 50
275.21591000000001
 51
0.0
  0
ARC
  5
3733
  8
AM_0
 10
567.1498960161166
 20
306.19182579497351
 30
0.0
 40
3.0
 50
179.9999899999988
 51
264.78408999999982
  0
ARC
  5
3734
  8
AM_0
 10
583.41781001611662
 20
280.46567079497328
 30
0.0
 40
3.0
 50
233.78794000000141
 51
315.0
  0
ARC
  5
3735
  8
AM_0
 10
591.19599401611663
 20
272.68750479497351
 30
0.0
 40
3.0
 50
135.0
 51
216.2120599999985
  0
LINE
  5
3736
  8
AM_0
 10
592.14988001611664
 20
336.41958579497327
 30
0.0
 11
562.14988001611664
 21
336.41958579497327
 31
0.0
  0
ARC
  5
3737
  8
AM_0
 10
557.14989401611638
 20
314.2208457949734
 30
0.0
 40
3.0
 50
0.0
 51
94.552070999998918
  0
ARC
  5
3738
  8
AM_0
 10
567.1498960161166
 20
314.2208457949734
 30
0.0
 40
3.0
 50
85.447927000001457
 51
180.00001000000091
  0
LINE
  5
3739
  8
AM_0
 10
647.1498970161166
 20
281.41955979497328
 30
0.0
 11
644.88224201611672
 21
324.68895579497342
 31
0.0
  0
ARC
  5
373A
  8
AM_0
 10
620.46133001611668
 20
276.16357779497338
 30
0.0
 40
11.000000399999999
 50
311.14394000000038
 51
94.843180000001595
  0
LINE
  5
373B
  8
AM_0
 10
623.33638901611675
 20
281.14316079497343
 30
0.0
 11
617.58639101611652
 21
281.14316079497343
 31
0.0
  0
LINE
  5
373C
  8
AM_0
 10
623.33638901611675
 20
271.18387179497341
 30
0.0
 11
617.58639101611652
 21
271.18387179497341
 31
0.0
  0
CIRCLE
  5
373D
  8
AM_0
 10
620.46137501611645
 20
276.16351779497347
 30
0.0
 40
4.9796462999999971
  0
LINE
  5
373E
  8
AM_0
 10
617.58639101611652
 20
271.18384179497332
 30
0.0
 11
614.71137401611668
 21
276.16351779497347
 31
0.0
  0
LINE
  5
373F
  8
AM_0
 10
614.71137401611668
 20
276.16351779497347
 30
0.0
 11
617.58637301611645
 21
281.14316079497343
 31
0.0
  0
LINE
  5
3740
  8
AM_0
 10
626.21139101611652
 20
276.16348779497332
 30
0.0
 11
623.33638901611675
 21
271.18384179497332
 31
0.0
  0
ARC
  5
3741
  8
AM_0
 10
629.67267701611672
 20
265.62076179497348
 30
0.0
 40
3.0
 50
131.14394000000021
 51
191.87716000000131
  0
LINE
  5
3742
  8
AM_0
 10
626.21139101611652
 20
276.16348779497332
 30
0.0
 11
623.33638901611675
 21
281.14316079497343
 31
0.0
  0
ARC
  5
3743
  8
AM_0
 10
610.41661901611667
 20
291.9081147949733
 30
0.0
 40
3.0
 50
39.991610999999509
 51
135.0
  0
ARC
  5
3744
  8
AM_0
 10
619.27933601611664
 20
290.11358979497339
 30
0.0
 40
3.0
 50
214.10996000000159
 51
274.84317999999831
  0
LINE
  5
3745
  8
AM_0
 10
617.82813401611645
 20
290.40588879497341
 30
0.0
 11
617.82813401611645
 21
290.40588879497341
 31
0.0
  0
ARC
  5
3746
  8
AM_0
 10
616.68097901611668
 20
292.04419479497318
 30
0.0
 40
2.00000007
 50
305.0000000000008
 51
36.685414000000087
  0
ARC
  5
3747
  8
AM_0
 10
616.68097901611668
 20
292.04419479497318
 30
0.0
 40
2.00000007
 50
216.68541999999911
 51
305.0000000000008
  0
ARC
  5
3748
  8
AM_0
 10
602.63843801611665
 20
299.68631379497339
 30
0.0
 40
3.0
 50
315.0
 51
50.008388000000352
  0
ARC
  5
3749
  8
ﾁｭｳｼﾝｾﾝ1
 10
562.14988001611664
 20
251.41957479497341
 30
0.0
 40
100.0000109999999
 50
307.36008400000151
 51
322.24262499999952
  0
ARC
  5
374A
  8
AM_0
 10
634.89594401611646
 20
324.1656357949733
 30
0.0
 40
10.000000200000001
 50
3.0000000999988461
 51
86.999999000000216
  0
LINE
  5
374B
  8
ﾁｭｳｼﾝｾﾝ1
 10
639.85948482020422
 20
173.71000263734041
 30
0.0
 11
625.30859638661195
 21
188.26086791717199
 31
0.0
  0
CIRCLE
  5
374C
  8
AM_0
 10
632.86056101611643
 20
322.13025579497338
 30
0.0
 40
6.0000002999999991
  0
ARC
  5
374D
  8
0
 10
235.95510956004529
 20
527.18445363560966
 30
0.0
 40
2.0
 50
270.0
 51
0.0
1001
GENIUS_GENODEF_13
1002
{
1000
HIER
1070
     0
1002
}
1002
{
1000
MANEDIT
1070
     0
1002
}
1002
{
1000
NOSEL
1070
     0
1002
}
1002
{
1000
BEHIND
1070
     0
1002
}
1002
{
1000
OTHER
1070
     0
1002
}
1002
{
1000
REACTOR
1002
}
1001
GENIUS_GENOBJ-N-FIL_13
1002
{
1000
OWNER
1000
GEN
1002
}
  0
ARC
  5
374E
  8
0
 10
219.95511563971911
 20
530.18445363560954
 30
0.0
 40
5.0
 50
180.0
 51
270.0
1001
GENIUS_GENOBJ-N-FIL_13
1002
{
1000
OWNER
1000
GEN
1002
}
1001
GENIUS_GENODEF_13
1002
{
1000
HIER
1070
     0
1002
}
1002
{
1000
MANEDIT
1070
     0
1002
}
1002
{
1000
NOSEL
1070
     0
1002
}
1002
{
1000
BEHIND
1070
     0
1002
}
1002
{
1000
OTHER
1070
     0
1002
}
1002
{
1000
REACTOR
1002
}
  0
LINE
  5
374F
  8
0
 10
204.95511563971911
 20
547.18445363560954
 30
0.0
 11
204.95511563971911
 21
387.1844536356096
 31
0.0
  0
LINE
  5
3750
  8
0
 10
214.955115639719
 20
545.18445363560954
 30
0.0
 11
214.955115639719
 21
389.1844536356096
 31
0.0
  0
LINE
  5
3751
  8
0
  6
CONTINUOUS
 62
     7
 10
237.95510956004529
 20
529.18445363560954
 30
0.0
 11
237.95510956004529
 21
405.1844536356096
 31
0.0
  0
LINE
  5
3752
  8
0
 10
235.95510956004529
 20
409.1844536356096
 30
0.0
 11
219.95511563971911
 21
409.1844536356096
 31
0.0
  0
LINE
  5
3753
  8
0
 10
204.95511563971911
 20
387.1844536356096
 30
0.0
 11
212.955115639719
 21
387.1844536356096
 31
0.0
  0
ARC
  5
3754
  8
0
 10
212.955115639719
 20
389.1844536356096
 30
0.0
 40
2.0
 50
270.0
 51
0.0
1001
GENIUS_GENODEF_13
1002
{
1000
HIER
1070
     0
1002
}
1002
{
1000
MANEDIT
1070
     0
1002
}
1002
{
1000
NOSEL
1070
     0
1002
}
1002
{
1000
BEHIND
1070
     0
1002
}
1002
{
1000
OTHER
1070
     0
1002
}
1002
{
1000
REACTOR
1002
}
1001
GENIUS_GENOBJ-N-FIL_13
1002
{
1000
OWNER
1000
GEN
1002
}
  0
ARC
  5
3755
  8
0
 10
219.95511563971911
 20
404.18445363560949
 30
0.0
 40
5.0
 50
90.0
 51
180.0
1001
GENIUS_GENOBJ-N-FIL_13
1002
{
1000
OWNER
1000
GEN
1002
}
1001
GENIUS_GENODEF_13
1002
{
1000
HIER
1070
     0
1002
}
1002
{
1000
MANEDIT
1070
     0
1002
}
1002
{
1000
NOSEL
1070
     0
1002
}
1002
{
1000
BEHIND
1070
     0
1002
}
1002
{
1000
OTHER
1070
     0
1002
}
1002
{
1000
REACTOR
1002
}
  0
LINE
  5
3756
  8
AM_0
 10
248.9551095600452
 20
415.68443763560958
 30
0.0
 11
237.95510956004529
 21
415.68443763560958
 31
0.0
  0
LINE
  5
3757
  8
0
 10
248.9551095600452
 20
403.18445363560949
 30
0.0
 11
239.95510956004529
 21
403.18445363560949
 31
0.0
  0
ARC
  5
3758
  8
0
 10
235.95510956004529
 20
407.1844536356096
 30
0.0
 40
2.0
 50
0.0
 51
90.0
1001
GENIUS_GENODEF_13
1002
{
1000
HIER
1070
     0
1002
}
1002
{
1000
MANEDIT
1070
     0
1002
}
1002
{
1000
NOSEL
1070
     0
1002
}
1002
{
1000
BEHIND
1070
     0
1002
}
1002
{
1000
OTHER
1070
     0
1002
}
1002
{
1000
REACTOR
1002
}
1001
GENIUS_GENOBJ-N-FIL_13
1002
{
1000
OWNER
1000
GEN
1002
}
  0
ARC
  5
3759
  8
0
 10
239.95510956004529
 20
405.1844536356096
 30
0.0
 40
2.0
 50
180.0
 51
270.0
1001
GENIUS_GENODEF_13
1002
{
1000
HIER
1070
     0
1002
}
1002
{
1000
MANEDIT
1070
     0
1002
}
1002
{
1000
NOSEL
1070
     0
1002
}
1002
{
1000
BEHIND
1070
     0
1002
}
1002
{
1000
OTHER
1070
     0
1002
}
1002
{
1000
REACTOR
1002
}
1001
GENIUS_GENOBJ-N-FIL_13
1002
{
1000
OWNER
1000
GEN
1002
}
  0
LINE
  5
375A
  8
AM_0
 10
248.9551095600452
 20
430.03651863560958
 30
0.0
 11
237.95510956004529
 21
430.03651863560958
 31
0.0
  0
LINE
  5
375B
  8
0
 10
235.95510956004529
 20
525.18445363560954
 30
0.0
 11
219.95511563971911
 21
525.18445363560954
 31
0.0
  0
LINE
  5
375C
  8
AM_0
 10
248.9551095600452
 20
504.3323736356096
 30
0.0
 11
237.95510956004529
 21
504.3323736356096
 31
0.0
  0
LINE
  5
375D
  8
AM_0
 10
248.9551095600452
 20
518.68446363560975
 30
0.0
 11
237.95510956004529
 21
518.68446363560975
 31
0.0
  0
LINE
  5
375E
  8
0
 10
204.95511563971911
 20
547.18445363560954
 30
0.0
 11
212.955115639719
 21
547.18445363560954
 31
0.0
  0
ARC
  5
375F
  8
0
 10
212.955115639719
 20
545.18445363560954
 30
0.0
 40
2.0
 50
0.0
 51
90.0
1001
GENIUS_GENODEF_13
1002
{
1000
HIER
1070
     0
1002
}
1002
{
1000
MANEDIT
1070
     0
1002
}
1002
{
1000
NOSEL
1070
     0
1002
}
1002
{
1000
BEHIND
1070
     0
1002
}
1002
{
1000
OTHER
1070
     0
1002
}
1002
{
1000
REACTOR
1002
}
1001
GENIUS_GENOBJ-N-FIL_13
1002
{
1000
OWNER
1000
GEN
1002
}
  0
LINE
  5
3760
  8
0
 10
248.9551095600452
 20
531.18445363560966
 30
0.0
 11
239.95510956004529
 21
531.18445363560966
 31
0.0
  0
ARC
  5
3761
  8
0
 10
239.95510956004529
 20
529.18445363560954
 30
0.0
 40
2.0
 50
90.0
 51
180.0
1001
GENIUS_GENODEF_13
1002
{
1000
HIER
1070
     0
1002
}
1002
{
1000
MANEDIT
1070
     0
1002
}
1002
{
1000
NOSEL
1070
     0
1002
}
1002
{
1000
BEHIND
1070
     0
1002
}
1002
{
1000
OTHER
1070
     0
1002
}
1002
{
1000
REACTOR
1002
}
1001
GENIUS_GENOBJ-N-FIL_13
1002
{
1000
OWNER
1000
GEN
1002
}
  0
LINE
  5
3762
  8
ﾁｭｳｼﾝｾﾝ1
 10
484.44027521202912
 20
173.71000263734041
 30
0.0
 11
498.99116364562121
 21
188.26086791717199
 31
0.0
  0
ARC
  5
3763
  8
ﾁｭｳｼﾝｾﾝ1
 10
562.14988001611664
 20
251.41957479497341
 30
0.0
 40
100.0000109999999
 50
217.75737500000039
 51
232.63991599999849
  0
ARC
  5
3764
  8
ﾁｭｳｼﾝｾﾝ1
 10
562.14988001611664
 20
251.41957479497341
 30
0.0
 40
100.0000109999999
 50
37.757375000000501
 51
52.6399159999985
  0
LINE
  5
3765
  8
ﾁｭｳｼﾝｾﾝ1
 10
639.85948482020422
 20
329.12914695260622
 30
0.0
 11
625.30859638661195
 21
314.57828167277489
 31
0.0
  0
ARC
  5
3766
  8
ﾁｭｳｼﾝｾﾝ1
 10
562.14988001611664
 20
251.41957479497341
 30
0.0
 40
100.0000109999999
 50
127.36008400000151
 51
142.24262499999941
  0
LINE
  5
3767
  8
ﾁｭｳｼﾝｾﾝ1
 10
484.44027521202912
 20
329.12914695260622
 30
0.0
 11
498.99116364562121
 21
314.57828167277489
 31
0.0
  0
TEXT
  5
394E
  8
AM_0
 10
465.95493438731199
 20
494.99450481178542
 30
0.0
 40
10.0
  1
VX04-015AF~VX04-030AF
  0
ENDSEC
  0
EOF
