  0
SECTION
  2
HEADER
  9
$ACADVER
  1
AC1009
  9
$INSBASE
 10
0.0
 20
0.0
 30
0.0
  9
$EXTMIN
 10
176.63605718551679
 20
146.44050011694179
 30
-0.0000000000112498
  9
$EXTMAX
 10
692.23153103530831
 20
603.73880376339753
 30
0.0000000000002956
  9
$LIMMIN
 10
0.0
 20
0.0
  9
$LIMMAX
 10
853.5
 20
555.00000000000011
  9
$ORTHOMODE
 70
     0
  9
$REGENMODE
 70
     1
  9
$FILLMODE
 70
     1
  9
$QTEXTMODE
 70
     0
  9
$MIRRTEXT
 70
     1
  9
$DRAGMODE
 70
     2
  9
$LTSCALE
 40
3.0
  9
$OSMODE
 70
   551
  9
$ATTMODE
 70
     1
  9
$TEXTSIZE
 40
2.5
  9
$TRACEWID
 40
1.0
  9
$TEXTSTYLE
  7
STANDARD
  9
$CLAYER
  8
AM_0
  9
$CELTYPE
  6
BYLAYER
  9
$CECOLOR
 62
   256
  9
$DIMSCALE
 40
1.0
  9
$DIMASZ
 40
2.5
  9
$DIMEXO
 40
1.0
  9
$DIMDLI
 40
8.0
  9
$DIMRND
 40
0.0
  9
$DIMDLE
 40
0.0
  9
$DIMEXE
 40
0.6
  9
$DIMTP
 40
0.1
  9
$DIMTM
 40
0.1
  9
$DIMTXT
 40
2.5
  9
$DIMCEN
 40
0.0
  9
$DIMTSZ
 40
0.0
  9
$DIMTOL
 70
     0
  9
$DIMLIM
 70
     0
  9
$DIMTIH
 70
     0
  9
$DIMTOH
 70
     0
  9
$DIMSE1
 70
     0
  9
$DIMSE2
 70
     0
  9
$DIMTAD
 70
     1
  9
$DIMZIN
 70
     8
  9
$DIMBLK
  1

  9
$DIMASO
 70
     1
  9
$DIMSHO
 70
     1
  9
$DIMPOST
  1

  9
$DIMAPOST
  1
"
  9
$DIMALT
 70
     0
  9
$DIMALTD
 70
     2
  9
$DIMALTF
 40
0.0393701
  9
$DIMLFAC
 40
1.0
  9
$DIMTOFL
 70
     1
  9
$DIMTVP
 40
0.0
  9
$DIMTIX
 70
     0
  9
$DIMSOXD
 70
     0
  9
$DIMSAH
 70
     0
  9
$DIMBLK1
  1

  9
$DIMBLK2
  1

  9
$DIMSTYLE
  2
AM_ISO
  9
$DIMCLRD
 70
   256
  9
$DIMCLRE
 70
   256
  9
$DIMCLRT
 70
     4
  9
$DIMTFAC
 40
0.71
  9
$DIMGAP
 40
0.8
  9
$LUNITS
 70
     2
  9
$LUPREC
 70
     2
  9
$SKETCHINC
 40
1.0
  9
$FILLETRAD
 40
15.0
  9
$AUNITS
 70
     0
  9
$AUPREC
 70
     0
  9
$MENU
  1
.
  9
$ELEVATION
 40
0.0
  9
$PELEVATION
 40
0.0
  9
$THICKNESS
 40
0.0
  9
$LIMCHECK
 70
     0
  9
$BLIPMODE
 70
     0
  9
$CHAMFERA
 40
6.0
  9
$CHAMFERB
 40
3.0
  9
$SKPOLY
 70
     0
  9
$TDCREATE
 40
2452066.3926509959
  9
$TDUPDATE
 40
2458541.5420995839
  9
$TDINDWG
 40
0.1373860069
  9
$TDUSRTIMER
 40
0.1373857986
  9
$USRTIMER
 70
     1
  9
$ANGBASE
 50
0.0
  9
$ANGDIR
 70
     0
  9
$PDMODE
 70
     0
  9
$PDSIZE
 40
0.0
  9
$PLINEWID
 40
0.0
  9
$COORDS
 70
     1
  9
$SPLFRAME
 70
     0
  9
$SPLINETYPE
 70
     6
  9
$SPLINESEGS
 70
     8
  9
$ATTDIA
 70
     1
  9
$ATTREQ
 70
     1
  9
$HANDLING
 70
     1
  9
$HANDSEED
  5
327C
  9
$SURFTAB1
 70
     6
  9
$SURFTAB2
 70
     6
  9
$SURFTYPE
 70
     6
  9
$SURFU
 70
     6
  9
$SURFV
 70
     6
  9
$UCSNAME
  2

  9
$UCSORG
 10
0.0
 20
0.0
 30
0.0
  9
$UCSXDIR
 10
1.0
 20
0.0
 30
0.0
  9
$UCSYDIR
 10
0.0
 20
1.0
 30
0.0
  9
$PUCSNAME
  2

  9
$PUCSORG
 10
0.0
 20
0.0
 30
0.0
  9
$PUCSXDIR
 10
1.0
 20
0.0
 30
0.0
  9
$PUCSYDIR
 10
0.0
 20
1.0
 30
0.0
  9
$USERI1
 70
     0
  9
$USERI2
 70
     0
  9
$USERI3
 70
     0
  9
$USERI4
 70
     0
  9
$USERI5
 70
     0
  9
$USERR1
 40
0.0
  9
$USERR2
 40
0.0
  9
$USERR3
 40
0.0
  9
$USERR4
 40
0.0
  9
$USERR5
 40
0.0
  9
$WORLDVIEW
 70
     1
  9
$SHADEDGE
 70
     3
  9
$SHADEDIF
 70
    70
  9
$TILEMODE
 70
     1
  9
$MAXACTVP
 70
    64
  9
$PLIMCHECK
 70
     0
  9
$PEXTMIN
 10
1.0000000000000000E+020
 20
1.0000000000000000E+020
 30
1.0000000000000000E+020
  9
$PEXTMAX
 10
-1.0000000000000000E+020
 20
-1.0000000000000000E+020
 30
-1.0000000000000000E+020
  9
$PLIMMIN
 10
0.0
 20
0.0
  9
$PLIMMAX
 10
420.0
 20
297.0
  9
$UNITMODE
 70
     0
  9
$VISRETAIN
 70
     1
  9
$PLINEGEN
 70
     0
  9
$PSLTSCALE
 70
     1
  0
ENDSEC
  0
SECTION
  2
TABLES
  0
TABLE
  2
VPORT
 70
     1
  0
VPORT
  2
*ACTIVE
 70
     0
 10
0.0
 20
0.0
 11
1.0
 21
1.0
 12
434.43379411041241
 22
375.08965194016969
 13
0.0
 23
0.0
 14
7.5
 24
7.5
 15
30.0
 25
30.0
 16
0.0
 26
0.0
 36
1.0
 17
0.0
 27
0.0
 37
0.0
 40
460.43765126874251
 41
1.7571592210767459
 42
50.0
 43
0.0
 44
0.0
 50
0.0
 51
0.0
 71
     0
 72
   100
 73
     1
 74
     3
 75
     0
 76
     0
 77
     0
 78
     0
  0
ENDTAB
  0
TABLE
  2
LTYPE
 70
    26
  0
LTYPE
  2
CONTINUOUS
 70
     0
  3
Solid line
 72
    65
 73
     0
 40
0.0
  0
LTYPE
  2
AM_ISO02W050
 70
     0
  3
__ __ __ __ __ __ __ __ __ __ __ __ __ __ __
 72
    65
 73
     2
 40
7.5
 49
6.0
 49
-1.5
  0
LTYPE
  2
AM_ISO08W050
 70
     0
  3
____ . ____ . ____ . ____ . ____ . ____ . ____
 72
    65
 73
     4
 40
18.0
 49
12.0
 49
-1.5
 49
3.0
 49
-1.5
  0
LTYPE
  2
AM_ISO09W050
 70
     0
  3
_____ . . _____ . . _____ . . ____ .. ____
 72
    65
 73
     6
 40
22.5
 49
12.0
 49
-1.5
 49
3.0
 49
-1.5
 49
3.0
 49
-1.5
  0
LTYPE
  2
AMCONSTR
 70
     0
  3
_______________________
 72
    65
 73
     2
 40
9999.0
 49
9999.0
 49
0.0
  0
LTYPE
  2
AM_ISO08W050X2
 70
     0
  3
__ . __ . __ . __ . __ . __
 72
    65
 73
     4
 40
9.0
 49
6.0
 49
-0.75
 49
1.5
 49
-0.75
  0
LTYPE
  2
AM_ISO02W050X2
 70
     0
  3
 _ _ _ _ _ _ _ _ _ _ _ _
 72
    65
 73
     2
 40
3.75
 49
3.0
 49
-0.75
  0
LTYPE
  2
AMZIGZAG
 70
     0
  3
/\/-/\/-/\/-/\/-/\/-/\/
 72
    65
 73
     2
 40
11.000099999999991
 49
0.0001
 49
-11.0
  0
LTYPE
  2
ACISOWELD
 70
     0
  3
_ _ _ _ _
 72
    65
 73
     2
 40
2.0
 49
2.0
 49
-1.0
  0
LTYPE
  2
ACISOTGB
 70
     0
  3
__ . . __ . .
 72
    65
 73
     6
 40
9.0
 49
4.0
 49
-1.0
 49
1.0
 49
-1.0
 49
1.0
 49
-1.0
  0
LTYPE
  2
ACISOTGL
 70
     0
  3
_ _ _ _ _
 72
    65
 73
     2
 40
3.0
 49
2.0
 49
-1.0
  0
LTYPE
  2
CENTER
 70
     0
  3
__ . __
 72
    65
 73
     4
 40
7.0
 49
4.0
 49
-1.0
 49
1.0
 49
-1.0
  0
LTYPE
  2
PHANTOM2
 70
     0
  3
Phantom (.5x) ___ _ _ ___ _ _ ___ _ _ ___ _ _
 72
    65
 73
     6
 40
31.75
 49
15.875
 49
-3.174999999999998
 49
3.174999999999998
 49
-3.174999999999998
 49
3.174999999999998
 49
-3.174999999999998
  0
LTYPE
  2
ACANSTGBM
 70
     0
  3
__ . . __ . .
 72
    65
 73
     6
 40
9.0
 49
4.0
 49
-1.0
 49
1.0
 49
-1.0
 49
1.0
 49
-1.0
  0
LTYPE
  2
ACANSTGLM
 70
     0
  3
_ _ _ _ _
 72
    65
 73
     2
 40
3.0
 49
2.0
 49
-1.0
  0
LTYPE
  2
GEN7
 70
     0
  3
____ . ____ . ____ . ____ . ____ . ____ . ____
 72
    65
 73
     4
 40
14.25
 49
9.75
 49
-1.5
 49
1.5
 49
-1.5
  0
LTYPE
  2
GEN7A
 70
     0
  3
__ . __ . __
 72
    65
 73
     4
 40
7.375
 49
4.75
 49
-0.875
 49
0.875
 49
-0.875
  0
LTYPE
  2
ACJISTGB
 70
     0
  3
__ . . __ . .
 72
    65
 73
     6
 40
9.0
 49
4.0
 49
-1.0
 49
1.0
 49
-1.0
 49
1.0
 49
-1.0
  0
LTYPE
  2
ACJISTGL
 70
     0
  3
_ _ _ _ _
 72
    65
 73
     2
 40
3.0
 49
2.0
 49
-1.0
  0
LTYPE
  2
HIDDEN
 70
     0
  3
Hidden __ __ __ __ __ __ __ __ __ __ __ __ __ _
 72
    65
 73
     2
 40
0.375
 49
0.25
 49
-0.125
  0
LTYPE
  2
CENTER2
 70
     0
  3
Center (.5x) ___ _ ___ _ ___ _ ___ _ ___ _ ___
 72
    65
 73
     4
 40
1.125
 49
0.75
 49
-0.125
 49
0.125
 49
-0.125
  0
LTYPE
  2
HIDDEN2
 70
     0
  3
Hidden (.5x) _ _ _ _ _ _ _ _ _ _ _ _ _ _ _ _ _
 72
    65
 73
     2
 40
0.1875
 49
0.125
 49
-0.0625
  0
LTYPE
  2
AMZIGZAG2
 70
     0
  3
/\/-/\/-/\/-/\/-/\/-/\/
 72
    65
 73
     2
 40
0.4401
 49
0.0001
 49
-0.4400000000000002
  0
LTYPE
  2
ACANSTGB
 70
     0
  3
__ . . __ . .
 72
    65
 73
     6
 40
0.35433070866
 49
0.15748031496
 49
-0.03937007874
 49
0.03937007874
 49
-0.03937007874
 49
0.03937007874
 49
-0.03937007874
  0
LTYPE
  2
ACANSTGL
 70
     0
  3
_ _ _ _ _
 72
    65
 73
     2
 40
0.11811023622
 49
0.07874015748
 49
-0.03937007874
  0
ENDTAB
  0
TABLE
  2
LAYER
 70
     6
  0
LAYER
  2
0
 70
     0
 62
     7
  6
CONTINUOUS
  0
LAYER
  2
AM_0
 70
     0
 62
     7
  6
CONTINUOUS
  0
LAYER
  2
AM_5
 70
     0
 62
     2
  6
CONTINUOUS
  0
LAYER
  2
DEFPOINTS
 70
     0
 62
     7
  6
CONTINUOUS
  0
LAYER
  2
ﾁｭｳｼﾝｾﾝ
 70
     0
 62
     1
  6
GEN7
  0
LAYER
  2
ﾁｭｳｼﾝｾﾝ1
 70
     0
 62
     1
  6
GEN7A
  0
ENDTAB
  0
TABLE
  2
STYLE
 70
     9
  0
STYLE
  2
STANDARD
 70
     0
 40
0.0
 41
0.8299999999999999
 50
0.0
 71
     0
 42
2.5
  3
txt.shx
  4
bigfont.shx
  0
STYLE
  2
ANNOTATIVE
 70
     0
 40
0.0
 41
1.0
 50
0.0
 71
     0
 42
0.2
  3
txt
  4

  0
STYLE
  2

 70
     1
 40
0.0
 41
1.0
 50
0.0
 71
     0
 42
2.5
  3
ltypeshp.shx
  4

  0
STYLE
  2
ACISOTS
 70
     0
 40
1.0
 41
1.0
 50
0.0
 71
     0
 42
2.5
  3
isocp.shx
  4
extfont.shx
  0
STYLE
  2
ACISOGDT
 70
     0
 40
0.0
 41
1.0
 50
0.0
 71
     0
 42
2.5
  3
amgdt.shx
  4

  0
STYLE
  2
ACANSTS
 70
     0
 40
1.0
 41
1.0
 50
0.0
 71
     0
 42
2.5
  3
romans.shx
  4
bigfont.shx
  0
STYLE
  2
ACANSGDT
 70
     0
 40
0.0
 41
1.0
 50
0.0
 71
     0
 42
2.5
  3
amgdt.shx
  4

  0
STYLE
  2
ACJISTS
 70
     0
 40
1.0
 41
1.0
 50
0.0
 71
     0
 42
2.5
  3
isocp.shx
  4
bigfont.shx
  0
STYLE
  2
ACJISGDT
 70
     0
 40
0.0
 41
1.0
 50
0.0
 71
     0
 42
2.5
  3
amgdt.shx
  4

  0
ENDTAB
  0
TABLE
  2
VIEW
 70
     6
  0
VIEW
  2
AM_VIEW1
 70
     0
 40
277.49999999999989
 10
249.64779005524849
 20
416.24999999999989
 41
499.2955801104971
 11
0.0
 21
0.0
 31
1.0
 12
0.0
 22
0.0
 32
0.0
 42
50.0
 43
0.0
 44
0.0
 50
0.0
 71
     0
  0
VIEW
  2
AM_VIEW2
 70
     0
 40
277.49999999999989
 10
603.85220994475117
 20
416.24999999999989
 41
499.2955801104971
 11
0.0
 21
0.0
 31
1.0
 12
0.0
 22
0.0
 32
0.0
 42
50.0
 43
0.0
 44
0.0
 50
0.0
 71
     0
  0
VIEW
  2
AM_VIEW3
 70
     0
 40
277.49999999999989
 10
249.64779005524849
 20
138.7499999999998
 41
499.2955801104971
 11
0.0
 21
0.0
 31
1.0
 12
0.0
 22
0.0
 32
0.0
 42
50.0
 43
0.0
 44
0.0
 50
0.0
 71
     0
  0
VIEW
  2
AM_VIEW4
 70
     0
 40
277.49999999999989
 10
603.85220994475117
 20
138.7499999999998
 41
499.2955801104971
 11
0.0
 21
0.0
 31
1.0
 12
0.0
 22
0.0
 32
0.0
 42
50.0
 43
0.0
 44
0.0
 50
0.0
 71
     0
  0
VIEW
  2
AM_VIEW5
 70
     0
 40
277.5
 10
426.75
 20
277.49999999999989
 41
499.2955801104971
 11
0.0
 21
0.0
 31
1.0
 12
0.0
 22
0.0
 32
0.0
 42
50.0
 43
0.0
 44
0.0
 50
0.0
 71
     0
  0
VIEW
  2
AM_VIEW6
 70
     0
 40
554.99445000000014
 10
426.75
 20
277.49999999999989
 41
998.5811743093924
 11
0.0
 21
0.0
 31
1.0
 12
0.0
 22
0.0
 32
0.0
 42
50.0
 43
0.0
 44
0.0
 50
0.0
 71
     0
  0
ENDTAB
  0
TABLE
  2
UCS
 70
     0
  0
ENDTAB
  0
TABLE
  2
APPID
 70
    95
  0
APPID
  2
ACAD
 70
     0
  0
APPID
  2
ACADANNOTATIVE
 70
     0
  0
APPID
  2
MCAD_NO_VIS
 70
     0
  0
APPID
  2
ACAD_TEMP_GRAPHIC
 70
     0
  0
APPID
  2
ACATTRIBSERVICES
 70
     0
  0
APPID
  2
GENIUS_GENREC_14
 70
     0
  0
APPID
  2
GENIUS_GENOBJ-N-REC_13
 70
     0
  0
APPID
  2
GENIUS_GENODEF_13
 70
     0
  0
APPID
  2
GENIUS_GENOLIS_13
 70
     0
  0
APPID
  2
GENIUS_GENOBJ-N-TIT_13
 70
     0
  0
APPID
  2
GENIUS_GENOENT_13
 70
     0
  0
APPID
  2
GENIUS_GENTITLE_13
 70
     0
  0
APPID
  2
GENIUS_GENOREF_13
 70
     0
  0
APPID
  2
GENIUS_GENSCREG_15
 70
     0
  0
APPID
  2
GENIUS_GENOBJ-N-SDF_13
 70
     0
  0
APPID
  2
GENIUS_GENFIL_13
 70
     0
  0
APPID
  2
GENIUS_GENOBJ-N-CHA_13
 70
     0
  0
APPID
  2
GENIUS_GENDTOL_13
 70
     0
  0
APPID
  2
GENIUS_GENOBJ-N-FIL_13
 70
     0
  0
APPID
  2
AD_DRAW
 70
     0
  0
APPID
  2
DESIGNERASSEMBLIES
 70
     0
  0
APPID
  2
ASURF_PCURVE_APPNAME
 70
     0
  0
APPID
  2
GENIUS_GE3SECT_13
 70
     0
  0
APPID
  2
GENIUS_GENCFG_13
 70
     0
  0
APPID
  2
GENIUS_GE3CFG0_13
 70
     0
  0
APPID
  2
GENIUS_GENCFG0_13
 70
     0
  0
APPID
  2
GENIUS_GENCFG1_13
 70
     0
  0
APPID
  2
GENIUS_GENCFG2_13
 70
     0
  0
APPID
  2
GENIUS_GENCFG3_13
 70
     0
  0
APPID
  2
GENIUS_GENCFG4_13
 70
     0
  0
APPID
  2
GENIUS_GEVCFG0_13
 70
     0
  0
APPID
  2
GENIUS_GENHINW_13
 70
     0
  0
APPID
  2
GENIUS_FIRSTVISTXT_14
 70
     0
  0
APPID
  2
GENIUS_GENOBJ-N-LEADER_13
 70
     0
  0
APPID
  2
GEV_VCCNULL_SWITCH_OFF
 70
     0
  0
APPID
  2
GENIUS_GEFCFG0_13
 70
     0
  0
APPID
  2
GENIUS_GENZVEED_13
 70
     0
  0
APPID
  2
GENIUS_GENSCREG_13
 70
     0
  0
APPID
  2
GENIUS_DUMCFG0_13
 70
     0
  0
APPID
  2
GEVID936201362
 70
     0
  0
APPID
  2
GEVDC
 70
     0
  0
APPID
  2
GEVCON
 70
     0
  0
APPID
  2
VCC
 70
     0
  0
APPID
  2
GEVPT
 70
     0
  0
APPID
  2
GEVIT
 70
     0
  0
APPID
  2
GENBH
 70
     0
  0
APPID
  2
GEVMK
 70
     0
  0
APPID
  2
GENIUS_GENBH_13
 70
     0
  0
APPID
  2
GENIUS_GENOBJ-NBEHI-BHF_13
 70
     0
  0
APPID
  2
GENIUS_GENOBJ-NBEHI-BHB_13
 70
     0
  0
APPID
  2
GENIUS_GENOBJ-F-DESC_13
 70
     0
  0
APPID
  2
GENIUS_GEFDESC_14
 70
     0
  0
APPID
  2
GENIUS_GENOBJ-F-PART_13
 70
     0
  0
APPID
  2
GENIUS_GEFSTDP_13
 70
     0
  0
APPID
  2
GENIUS_GEFPARTINS_13
 70
     0
  0
APPID
  2
GENIUS_GENTRA_14
 70
     0
  0
APPID
  2
GENIUS_GENINF13_13
 70
     0
  0
APPID
  2
GENIUS_GENOBJ-N-INFOPT_13
 70
     0
  0
APPID
  2
GENIUS_GENOBJ-N-RSSYM_13
 70
     0
  0
APPID
  2
GENIUS_GENSYMENT_13
 70
     0
  0
APPID
  2
GENIUS_GENSCSYM_13
 70
     0
  0
APPID
  2
GENIUS_GEFINFNAM_13
 70
     0
  0
APPID
  2
GENIUS_GENOBJ-N-CEN_13
 70
     0
  0
APPID
  2
GENIUS_GENOBJ-N-CRS_13
 70
     0
  0
APPID
  2
GENIUS_GENOBJ-N-CRC_13
 70
     0
  0
APPID
  2
GENIUS_GENCRC_14
 70
     0
  0
APPID
  2
GEVID942827039
 70
     0
  0
APPID
  2
GEVID942827040
 70
     0
  0
APPID
  2
GEVID942827041
 70
     0
  0
APPID
  2
GENIUS_GENOBJ-F-SCPASSM_13
 70
     0
  0
APPID
  2
GENIUS_GENDIMSH_14
 70
     0
  0
APPID
  2
GEVID942827042
 70
     0
  0
APPID
  2
GEVID946020473
 70
     0
  0
APPID
  2
GEVID946020474
 70
     0
  0
APPID
  2
GEVID946020475
 70
     0
  0
APPID
  2
GENIUS_GENOBJ-N-HTC_13
 70
     0
  0
APPID
  2
GENIUS_GENHATCH_13
 70
     0
  0
APPID
  2
GEVID948854295
 70
     0
  0
APPID
  2
GEVID939402019
 70
     0
  0
APPID
  2
GEVID952919491
 70
     0
  0
APPID
  2
GEVID952919492
 70
     0
  0
APPID
  2
GENIUS_GEFWELD_13
 70
     0
  0
APPID
  2
GENIUS_GENOBJ-F-WELS_13
 70
     0
  0
APPID
  2
GEVID952919493
 70
     0
  0
APPID
  2
GENIUS_GENOBJ-N-RSBK_13
 70
     0
  0
APPID
  2
GENIUS_GENOBJ-N-LIB_13
 70
     0
  0
APPID
  2
GENIUS_GENSCALE_13
 70
     0
  0
APPID
  2
GEVID986376691
 70
     0
  0
APPID
  2
DCO15
 70
     0
  0
APPID
  2
ACAD_DSTYLE_DIMBREAK
 70
     0
  0
APPID
  2
ACAD_DSTYLE_DIMJAG
 70
     0
  0
APPID
  2
ACAD_NAV_VCDISPLAY
 70
     0
  0
APPID
  2
ACADANNOPO
 70
     0
  0
APPID
  2
ACAD_EXEMPT_FROM_CAD_STANDARDS
 70
     0
  0
APPID
  2
ACAD_MLEADERVER
 70
     0
  0
ENDTAB
  0
TABLE
  2
DIMSTYLE
 70
    22
  0
DIMSTYLE
  2
STANDARD
 70
     0
  3

  4

  5

  6

  7

 40
1.0
 41
0.18
 42
0.0625
 43
0.38
 44
0.18
 45
0.0
 46
0.0
 47
0.0
 48
0.0
140
0.18
141
0.09
142
0.0
143
25.399999999999999
144
1.0
145
0.0
146
1.0
147
0.09
 71
     0
 72
     0
 73
     1
 74
     1
 75
     0
 76
     0
 77
     0
 78
     0
170
     0
171
     2
172
     0
173
     0
174
     0
175
     0
176
     0
177
     0
178
     0
  0
DIMSTYLE
  2
ANNOTATIVE
 70
     0
  3

  4

  5

  6

  7

 40
1.0
 41
0.18
 42
0.0625
 43
0.38
 44
0.18
 45
0.0
 46
0.0
 47
0.0
 48
0.0
140
0.18
141
0.09
142
0.0
143
25.399999999999999
144
1.0
145
0.0
146
1.0
147
0.09
 71
     0
 72
     0
 73
     1
 74
     1
 75
     0
 76
     0
 77
     0
 78
     0
170
     0
171
     2
172
     0
173
     0
174
     0
175
     0
176
     0
177
     0
178
     0
  0
DIMSTYLE
  2
AM_ISO
 70
     0
  3

  4
"
  5

  6

  7

 40
1.0
 41
2.5
 42
1.0
 43
8.0
 44
0.6
 45
0.0
 46
0.0
 47
0.1
 48
0.1
140
2.5
141
0.0
142
0.0
143
0.0393701
144
1.0
145
0.0
146
0.71
147
0.8
 71
     0
 72
     0
 73
     0
 74
     0
 75
     0
 76
     0
 77
     1
 78
     8
170
     0
171
     2
172
     1
173
     0
174
     0
175
     0
176
   256
177
   256
178
     4
  0
DIMSTYLE
  2
AM_ISO$3
 70
     0
  3

  4
"
  5

  6

  7

 40
1.0
 41
2.5
 42
1.0
 43
8.0
 44
0.6
 45
0.0
 46
0.0
 47
0.1
 48
0.1
140
2.5
141
0.0
142
0.0
143
0.0393701
144
1.0
145
0.0
146
0.71
147
0.8
 71
     0
 72
     0
 73
     0
 74
     1
 75
     0
 76
     0
 77
     1
 78
     8
170
     0
171
     2
172
     0
173
     0
174
     0
175
     0
176
   256
177
   256
178
     4
  0
DIMSTYLE
  2
AM_ISO$4
 70
     0
  3

  4
"
  5

  6

  7

 40
1.0
 41
2.5
 42
1.0
 43
8.0
 44
0.6
 45
0.0
 46
0.0
 47
0.1
 48
0.1
140
2.5
141
0.0
142
0.0
143
0.0393701
144
1.0
145
0.0
146
0.71
147
0.8
 71
     0
 72
     0
 73
     0
 74
     1
 75
     0
 76
     0
 77
     1
 78
     8
170
     0
171
     2
172
     0
173
     0
174
     0
175
     0
176
   256
177
   256
178
     4
  0
DIMSTYLE
  2
AM_ISO$6
 70
     0
  3

  4
"
  5

  6

  7

 40
1.0
 41
2.5
 42
1.0
 43
8.0
 44
0.6
 45
0.0
 46
0.0
 47
0.1
 48
0.1
140
2.5
141
0.0
142
0.0
143
0.0393701
144
1.0
145
0.0
146
0.71
147
0.8
 71
     0
 72
     0
 73
     0
 74
     0
 75
     0
 76
     0
 77
     0
 78
     8
170
     0
171
     2
172
     1
173
     0
174
     0
175
     0
176
   256
177
   256
178
     4
  0
DIMSTYLE
  2
AM_ISO$7
 70
     0
  3

  4
"
  5

  6

  7

 40
1.0
 41
2.5
 42
1.0
 43
8.0
 44
0.6
 45
0.0
 46
0.0
 47
0.1
 48
0.1
140
2.5
141
0.0
142
0.0
143
0.0393701
144
1.0
145
0.0
146
0.71
147
0.8
 71
     0
 72
     0
 73
     0
 74
     0
 75
     0
 76
     0
 77
     1
 78
     8
170
     0
171
     2
172
     1
173
     0
174
     0
175
     0
176
   256
177
   256
178
     4
  0
DIMSTYLE
  2
AM_ISO$SF
 70
     0
  3

  4
"
  5

  6

  7

 40
1.0
 41
2.5
 42
1.0
 43
10.0
 44
1.0
 45
0.0
 46
0.0
 47
0.1
 48
0.1
140
3.5
141
0.0
142
0.0
143
0.0393701
144
1.0
145
0.0
146
0.71
147
1.5
 71
     0
 72
     0
 73
     0
 74
     0
 75
     1
 76
     1
 77
     1
 78
     8
170
     0
171
     2
172
     1
173
     0
174
     0
175
     0
176
   256
177
   256
178
     2
  0
DIMSTYLE
  2
AM_ISO$SH
 70
     0
  3

  4
"
  5

  6

  7

 40
1.0
 41
2.5
 42
1.0
 43
10.0
 44
1.0
 45
0.0
 46
0.0
 47
0.1
 48
0.1
140
3.5
141
0.0
142
0.0
143
0.0393701
144
2.0
145
0.0
146
0.71
147
1.5
 71
     0
 72
     0
 73
     0
 74
     0
 75
     1
 76
     1
 77
     1
 78
     8
170
     0
171
     2
172
     1
173
     1
174
     0
175
     0
176
   256
177
   256
178
     2
  0
DIMSTYLE
  2
AM_JIS
 70
     0
  3

  4
"
  5

  6

  7

 40
1.0
 41
2.5
 42
1.0
 43
7.0
 44
1.0
 45
0.0
 46
0.0
 47
0.1
 48
0.1000000001
140
2.5
141
0.0
142
0.0
143
0.0393701
144
1.0
145
0.0
146
0.71
147
1.0
 71
     0
 72
     0
 73
     0
 74
     0
 75
     0
 76
     0
 77
     3
 78
     8
170
     0
171
     2
172
     1
173
     0
174
     0
175
     0
176
   256
177
   256
178
     4
  0
DIMSTYLE
  2
AM_JIS$3
 70
     0
  3

  4
"
  5

  6

  7

 40
1.0
 41
2.5
 42
1.0
 43
7.0
 44
1.0
 45
0.0
 46
0.0
 47
0.1
 48
0.1000000001
140
2.5
141
0.0
142
0.0
143
0.0393701
144
1.0
145
0.0
146
0.71
147
1.0
 71
     0
 72
     0
 73
     0
 74
     1
 75
     0
 76
     0
 77
     3
 78
     8
170
     0
171
     2
172
     0
173
     0
174
     0
175
     0
176
   256
177
   256
178
     4
  0
DIMSTYLE
  2
AM_JIS$4
 70
     0
  3

  4
"
  5

  6

  7

 40
1.0
 41
2.5
 42
1.0
 43
7.0
 44
1.0
 45
0.0
 46
0.0
 47
0.1
 48
0.1000000001
140
2.5
141
0.0
142
0.0
143
0.0393701
144
1.0
145
0.0
146
0.71
147
1.0
 71
     0
 72
     0
 73
     0
 74
     0
 75
     0
 76
     0
 77
     3
 78
     8
170
     0
171
     2
172
     0
173
     0
174
     0
175
     0
176
   256
177
   256
178
     4
  0
DIMSTYLE
  2
AM_JIS$6
 70
     0
  3

  4
"
  5

  6

  7

 40
1.0
 41
2.5
 42
1.0
 43
7.0
 44
1.0
 45
0.0
 46
0.0
 47
0.1
 48
0.1000000001
140
2.5
141
0.0
142
0.0
143
0.0393701
144
1.0
145
0.0
146
0.71
147
1.0
 71
     0
 72
     0
 73
     0
 74
     0
 75
     0
 76
     0
 77
     0
 78
     8
170
     0
171
     2
172
     1
173
     0
174
     0
175
     0
176
   256
177
   256
178
     4
  0
DIMSTYLE
  2
AM_JIS$7
 70
     0
  3

  4
"
  5

  6

  7

 40
1.0
 41
2.5
 42
1.0
 43
7.0
 44
1.0
 45
0.0
 46
0.0
 47
0.1
 48
0.1000000001
140
2.5
141
0.0
142
0.0
143
0.0393701
144
1.0
145
0.0
146
0.71
147
1.0
 71
     0
 72
     0
 73
     0
 74
     0
 75
     0
 76
     0
 77
     3
 78
     8
170
     0
171
     2
172
     1
173
     0
174
     0
175
     0
176
   256
177
   256
178
     4
  0
DIMSTYLE
  2
AM_JIS$SF
 70
     0
  3

  4
"
  5

  6

  7

 40
1.0
 41
2.5
 42
1.0
 43
10.0
 44
1.0
 45
0.0
 46
0.0
 47
0.1
 48
0.1
140
3.5
141
0.0
142
0.0
143
0.0393701
144
1.0
145
0.0
146
0.71
147
1.5
 71
     0
 72
     0
 73
     0
 74
     0
 75
     1
 76
     1
 77
     3
 78
     8
170
     0
171
     2
172
     1
173
     0
174
     0
175
     0
176
   256
177
   256
178
     4
  0
DIMSTYLE
  2
AM_JIS$SH
 70
     0
  3

  4
"
  5

  6

  7

 40
1.0
 41
2.5
 42
1.0
 43
10.0
 44
1.0
 45
0.0
 46
0.0
 47
0.1
 48
0.1
140
3.5
141
0.0
142
0.0
143
0.0393701
144
1.0
145
0.0
146
0.71
147
1.5
 71
     0
 72
     0
 73
     0
 74
     0
 75
     1
 76
     0
 77
     3
 78
     8
170
     0
171
     2
172
     1
173
     1
174
     0
175
     0
176
   256
177
   256
178
     4
  0
DIMSTYLE
  2
AM_ANSI
 70
     0
  3

  4
mm
  5

  6

  7

 40
1.0
 41
0.1
 42
0.05
 43
0.5
 44
0.1
 45
0.0
 46
0.0
 47
0.1
 48
0.1
140
0.12
141
0.0
142
0.0
143
25.399999999999999
144
1.0
145
0.0
146
0.71
147
0.06
 71
     0
 72
     0
 73
     1
 74
     1
 75
     0
 76
     0
 77
     0
 78
     7
170
     0
171
     2
172
     0
173
     0
174
     0
175
     0
176
   256
177
   256
178
     2
  0
DIMSTYLE
  2
AM_ANSI$3
 70
     0
  3

  4
mm
  5

  6

  7

 40
1.0
 41
0.1
 42
0.05
 43
0.5
 44
0.1
 45
0.0
 46
0.0
 47
0.1
 48
0.1
140
0.12
141
0.0
142
0.0
143
25.399999999999999
144
1.0
145
0.0
146
0.71
147
0.06
 71
     0
 72
     0
 73
     1
 74
     1
 75
     0
 76
     0
 77
     0
 78
     7
170
     0
171
     2
172
     0
173
     0
174
     0
175
     0
176
   256
177
   256
178
     2
  0
DIMSTYLE
  2
AM_ANSI$4
 70
     0
  3

  4
mm
  5

  6

  7

 40
1.0
 41
0.1
 42
0.05
 43
0.5
 44
0.1
 45
0.0
 46
0.0
 47
0.1
 48
0.1
140
0.12
141
0.0
142
0.0
143
25.399999999999999
144
1.0
145
0.0
146
0.71
147
0.06
 71
     0
 72
     0
 73
     1
 74
     1
 75
     0
 76
     0
 77
     0
 78
     7
170
     0
171
     2
172
     0
173
     0
174
     0
175
     0
176
   256
177
   256
178
     2
  0
DIMSTYLE
  2
AM_ANSI$7
 70
     0
  3

  4
mm
  5

  6

  7

 40
1.0
 41
0.1
 42
0.05
 43
0.5
 44
0.1
 45
0.0
 46
0.0
 47
0.1
 48
0.1
140
0.24
141
0.0
142
0.0
143
25.399999999999999
144
1.0
145
0.0
146
0.71
147
0.06
 71
     0
 72
     0
 73
     1
 74
     1
 75
     0
 76
     0
 77
     0
 78
     7
170
     0
171
     2
172
     0
173
     0
174
     0
175
     0
176
   256
177
   256
178
     2
  0
DIMSTYLE
  2
AM_ANSI$SF
 70
     0
  3

  4
mm
  5

  6

  7

 40
1.0
 41
0.1
 42
0.05
 43
0.5
 44
0.1
 45
0.0
 46
0.0
 47
0.1
 48
0.1
140
0.12
141
0.0
142
0.0
143
25.399999999999999
144
1.0
145
0.0
146
0.71
147
0.06
 71
     0
 72
     0
 73
     1
 74
     1
 75
     1
 76
     1
 77
     0
 78
     7
170
     0
171
     2
172
     0
173
     0
174
     0
175
     0
176
   256
177
   256
178
     2
  0
DIMSTYLE
  2
AM_ANSI$SH
 70
     0
  3

  4
mm
  5

  6

  7

 40
1.0
 41
0.1
 42
0.05
 43
0.5
 44
0.1
 45
0.0
 46
0.0
 47
0.1
 48
0.1
140
0.12
141
0.0
142
0.0
143
25.399999999999999
144
1.0
145
0.0
146
0.71
147
0.06
 71
     0
 72
     0
 73
     1
 74
     1
 75
     1
 76
     1
 77
     0
 78
     7
170
     0
171
     2
172
     0
173
     1
174
     0
175
     0
176
   256
177
   256
178
     2
  0
ENDTAB
  0
ENDSEC
  0
SECTION
  2
BLOCKS
  0
BLOCK
  8
0
  2
$MODEL_SPACE
 70
     0
 10
0.0
 20
0.0
 30
0.0
  3
$MODEL_SPACE
  1

  0
ENDBLK
  5
30E2
  8
0
  0
BLOCK
 67
     1
  8
0
  2
$PAPER_SPACE
 70
     0
 10
0.0
 20
0.0
 30
0.0
  3
$PAPER_SPACE
  1

  0
ENDBLK
  5
30DE
 67
     1
  8
0
  0
BLOCK
  8
0
  2
GENAXEH
 70
     0
 10
0.0
 20
0.0
 30
0.0
  3
GENAXEH
  1

  0
LINE
  5
2EE2
  8
0
 10
-1.0
 20
0.0
 30
0.0
 11
1.0
 21
0.0
 31
0.0
  0
ENDBLK
  5
2EE3
  8
0
  0
BLOCK
  8
0
  2
_OPEN30
 70
     0
 10
0.0
 20
0.0
 30
0.0
  3
_OPEN30
  1

  0
LINE
  5
2EE6
  8
0
 62
     0
 10
-1.0
 20
0.26794919
 30
0.0
 11
0.0
 21
0.0
 31
0.0
  0
LINE
  5
2EE7
  8
0
 62
     0
 10
0.0
 20
0.0
 30
0.0
 11
-1.0
 21
-0.26794919
 31
0.0
  0
LINE
  5
2EE8
  8
0
 62
     0
 10
0.0
 20
0.0
 30
0.0
 11
-1.0
 21
0.0
 31
0.0
  0
ENDBLK
  5
2EE9
  8
0
  0
BLOCK
  8
0
  2
_NONE
 70
     0
 10
0.0
 20
0.0
 30
0.0
  3
_NONE
  1

  0
ENDBLK
  5
2EEC
  8
0
  0
BLOCK
  8
0
  2
*U5
 70
     1
 10
0.0
 20
0.0
 30
0.0
  3
*U5
  1

  0
TEXT
  5
2EEF
  8
AM_0
 62
     4
 10
208.10090093641361
 20
222.430531
 30
0.0
 40
7.5
  1
\U+2205
 50
90.0
 41
0.8299999999999999
  0
TEXT
  5
2EF0
  8
AM_0
 62
     4
 10
208.10090093641361
 20
228.6555310000002
 30
0.0
 40
7.5
  1
160
 50
90.0
 41
0.8299999999999999
  0
ENDBLK
  5
2EF1
  8
0
  0
BLOCK
  8
0
  2
*U6
 70
     1
 10
0.0
 20
0.0
 30
0.0
  3
*U6
  1

  0
TEXT
  5
2EF4
  8
AM_0
 62
     4
 10
228.0339670319357
 20
218.2805310000002
 30
0.0
 40
7.5
  1
\U+2205
 50
90.0
 41
0.8299999999999999
  0
TEXT
  5
2EF5
  8
AM_0
 62
     4
 10
228.0339670319357
 20
224.5055310000001
 30
0.0
 40
7.5
  1
110
 50
90.0
 41
0.8299999999999999
  0
TEXT
  5
2EF6
  8
AM_0
 62
     4
 10
228.0339670319357
 20
237.99303100000009
 30
0.0
 40
6.0
  1
G7
 50
90.0
 41
0.8299999999999999
  0
ENDBLK
  5
2EF7
  8
0
  0
BLOCK
  8
0
  2
*U7
 70
     1
 10
0.0
 20
0.0
 30
0.0
  3
*U7
  1

  0
TEXT
  5
2EFA
  8
AM_0
 62
     4
 10
512.60337436659245
 20
240.44300000000001
 30
0.0
 40
7.5
  1
\U+2205
 50
90.0
 41
0.8299999999999999
  0
TEXT
  5
2EFB
  8
AM_0
 62
     4
 10
512.60337436659245
 20
246.66800000000001
 30
0.0
 40
7.5
  1
170
 50
90.0
 41
0.8299999999999999
  0
TEXT
  5
2EFC
  8
AM_0
 62
     4
 10
512.60337436659245
 20
262.23050000000001
 30
0.0
 40
6.0
  1
h7
 50
90.0
 41
0.8299999999999999
  0
ENDBLK
  5
2EFD
  8
0
  0
BLOCK
  8
0
  2
*U8
 70
     1
 10
0.0
 20
0.0
 30
0.0
  3
*U8
  1

  0
TEXT
  5
2F00
  8
AM_0
 62
     4
 10
651.59922012209086
 20
383.62440892724482
 30
0.0
 40
7.5
  1
o
 41
0.8299999999999999
  0
TEXT
  5
2F01
  8
AM_0
 62
     4
 10
659.00993440780553
 20
383.62440892724482
 30
0.0
 40
7.5
  1
 185
 41
0.8299999999999999
  0
ENDBLK
  5
2F02
  8
0
  0
BLOCK
  8
0
  2
*U9
 70
     1
 10
0.0
 20
0.0
 30
0.0
  3
*U9
  1

  0
TEXT
  5
2F05
  8
AM_0
 62
     4
 10
158.32819927022069
 20
218.796191085315
 30
0.0
 40
7.5
  1
\U+2205
 50
90.0
 41
0.8299999999999999
  0
TEXT
  5
2F06
  8
AM_0
 62
     4
 10
158.32819927022069
 20
225.021191085315
 30
0.0
 40
7.5
  1
110
 50
90.0
 41
0.8299999999999999
  0
TEXT
  5
2F07
  8
AM_0
 62
     4
 10
158.32819927022069
 20
238.50869108531501
 30
0.0
 40
6.0
  1
G7
 50
90.0
 41
0.8299999999999999
  0
ENDBLK
  5
2F08
  8
0
  0
BLOCK
  8
0
  2
*U10
 70
     1
 10
0.0
 20
0.0
 30
0.0
  3
*U10
  1

  0
TEXT
  5
2F0B
  8
AM_0
 62
     4
 10
138.39513317469871
 20
222.94619108531489
 30
0.0
 40
7.5
  1
\U+2205
 50
90.0
 41
0.8299999999999999
  0
TEXT
  5
2F0C
  8
AM_0
 62
     4
 10
138.39513317469871
 20
229.171191085315
 30
0.0
 40
7.5
  1
160
 50
90.0
 41
0.8299999999999999
  0
ENDBLK
  5
2F0D
  8
0
  0
BLOCK
  8
0
  2
*U11
 70
     1
 10
0.0
 20
0.0
 30
0.0
  3
*U11
  1

  0
TEXT
  5
2F10
  8
AM_0
 62
     4
 10
442.89760660487758
 20
240.9586600853149
 30
0.0
 40
7.5
  1
\U+2205
 50
90.0
 41
0.8299999999999999
  0
TEXT
  5
2F11
  8
AM_0
 62
     4
 10
442.89760660487758
 20
247.18366008531501
 30
0.0
 40
7.5
  1
170
 50
90.0
 41
0.8299999999999999
  0
TEXT
  5
2F12
  8
AM_0
 62
     4
 10
442.89760660487758
 20
262.74616008531501
 30
0.0
 40
6.0
  1
h7
 50
90.0
 41
0.8299999999999999
  0
ENDBLK
  5
2F13
  8
0
  0
BLOCK
  8
0
  2
*U12
 70
     1
 10
0.0
 20
0.0
 30
0.0
  3
*U12
  1

  0
TEXT
  5
2F16
  8
AM_0
 62
     4
 10
581.89345236037605
 20
384.14006901255982
 30
0.0
 40
7.5
  1
o
 41
0.8299999999999999
  0
TEXT
  5
2F17
  8
AM_0
 62
     4
 10
589.30416664609049
 20
384.14006901255982
 30
0.0
 40
7.5
  1
 185
 41
0.8299999999999999
  0
ENDBLK
  5
2F18
  8
0
  0
BLOCK
  8
0
  2
_ACMFILLEDHALF
 70
     0
 10
0.0
 20
0.0
 30
0.0
  3
_ACMFILLEDHALF
  1

  0
TRACE
  5
31E8
  8
AM_0
 62
     0
 10
-0.8
 20
0.0
 30
0.0
 11
-1.0
 21
0.166666666
 31
0.0
 12
0.0
 22
0.0
 32
0.0
 13
0.0
 23
0.0
 33
0.0
  0
LINE
  5
31E9
  8
AM_0
 62
     0
 10
-1.0
 20
0.0
 30
0.0
 11
-0.8
 21
0.0
 31
0.0
  0
ENDBLK
  5
31E7
  8
0
  0
ENDSEC
  0
SECTION
  2
ENTITIES
  0
LINE
  5
2F1A
  8
AM_0
 10
368.00187348713052
 20
507.21363094682079
 30
0.0
 11
400.0018734871303
 21
507.21363094682079
 31
0.0
  0
LINE
  5
2F1B
  8
AM_0
 10
358.00190348713051
 20
525.21366094682094
 30
0.0
 11
400.0018734871303
 21
525.21366094682094
 31
0.0
  0
LINE
  5
2F1C
  8
AM_0
 10
358.00190348713051
 20
497.21366094682088
 30
0.0
 11
400.0018734871303
 21
497.21366094682088
 31
0.0
  0
LINE
  5
2F1D
  8
AM_0
 10
368.00187348713052
 20
515.21360094682075
 30
0.0
 11
400.0018734871303
 21
515.21360094682075
 31
0.0
  0
LINE
  5
2F1E
  8
ﾁｭｳｼﾝｾﾝ
 10
176.6962772829078
 20
511.21363094682079
 30
0.0
 11
404.70890348713021
 21
511.21363094682079
 31
0.0
  0
POLYLINE
  5
2F1F
  8
AM_0
 66
     1
 10
0.0
 20
0.0
 30
0.0
  0
VERTEX
  5
2F20
  8
AM_0
 10
340.91496348713048
 20
595.62662094682094
 30
0.0
 42
0.081985852
  0
VERTEX
  5
2F21
  8
AM_0
 10
318.7990734871305
 20
540.71494094682089
 30
0.0
 42
0.10914194
  0
VERTEX
  5
2F22
  8
AM_0
 10
318.7991634871305
 20
481.71193094682093
 30
0.0
 42
0.081985219
  0
VERTEX
  5
2F23
  8
AM_0
 10
340.91496348713048
 20
426.80063094682089
 30
0.0
  0
SEQEND
  5
2F24
  8
AM_0
  0
ARC
  5
2F25
  8
AM_0
 10
368.00187348713052
 20
511.2136009468208
 30
0.0
 40
3.9999962
 50
90.000003000000945
 51
270.0
  0
LINE
  5
2F26
  8
AM_0
 10
358.00193348713032
 20
596.2136309468209
 30
0.0
 11
358.00193348713032
 21
426.2136309468209
 31
0.0
  0
LINE
  5
2F27
  8
AM_0
 10
344.00190348713051
 20
420.99424094682092
 30
0.0
 11
344.00190348713051
 21
601.43302094682099
 31
0.0
  0
LINE
  5
2F28
  8
AM_0
 10
348.00190348713028
 20
440.71363094682079
 30
0.0
 11
348.00190348713028
 21
581.38593094682096
 31
0.0
  0
LINE
  5
2F29
  8
AM_0
 10
354.00190348713028
 20
418.7136309468209
 30
0.0
 11
354.00190348713028
 21
603.7136309468209
 31
0.0
  0
LINE
  5
2F2A
  8
AM_0
 10
368.00187348713052
 20
515.21360094682075
 30
0.0
 11
368.00187348713052
 21
507.21363094682079
 31
0.0
  0
LINE
  5
2F2B
  8
AM_0
 10
235.50190348713039
 20
447.2136309468209
 30
0.0
 11
235.50190348713039
 21
575.21363094682044
 31
0.0
  0
LINE
  5
2F2C
  8
AM_0
 10
272.00187348713041
 20
440.12345094682092
 30
0.0
 11
272.00187348713041
 21
582.30381094682093
 31
0.0
  0
LINE
  5
2F2D
  8
AM_0
 10
262.00190348713039
 20
434.38477094682088
 30
0.0
 11
262.00190348713039
 21
588.04249094682075
 31
0.0
  0
LINE
  5
2F2E
  8
AM_0
 10
279.00190348713039
 20
428.96268094682091
 30
0.0
 11
279.00190348713039
 21
593.46458094682066
 31
0.0
  0
LINE
  5
2F2F
  8
AM_0
 10
338.94660348713052
 20
426.8693609468209
 30
0.0
 11
279.00190348713039
 21
428.96268094682091
 31
0.0
  0
ARC
  5
2F30
  8
AM_0
 10
267.00190348713039
 20
434.38477094682088
 30
0.0
 40
5.0
 50
180.00001000000091
 51
267.9999999999996
  0
LINE
  5
2F31
  8
AM_0
 10
279.00190348713039
 20
428.96268094682091
 30
0.0
 11
266.82740348713043
 21
429.38782094682091
 31
0.0
  0
LINE
  5
2F32
  8
AM_0
 10
235.50190348713039
 20
459.1736209468209
 30
0.0
 11
262.00187348713041
 21
459.1736209468209
 31
0.0
  0
LINE
  5
2F33
  8
AM_0
 10
235.50190348713039
 20
474.0657109468209
 30
0.0
 11
262.00187348713041
 21
474.0657109468209
 31
0.0
  0
LINE
  5
2F34
  8
AM_0
 10
235.50193348713029
 20
447.71360094682092
 30
0.0
 11
259.10658348713042
 21
446.88932094682087
 31
0.0
  0
LINE
  5
2F35
  8
AM_0
 10
262.00190348713039
 20
451.90513094682092
 30
0.0
 11
272.00187348713041
 21
451.90513094682092
 31
0.0
  0
ARC
  5
2F36
  8
AM_0
 10
259.00190348713039
 20
443.89115094682091
 30
0.0
 40
3.0
 50
0.0
 51
87.999999999999659
  0
LINE
  5
2F37
  8
AM_0
 10
342.30766348713053
 20
425.4079309468209
 30
0.0
 11
344.00193348713032
 21
423.71366094682071
 31
0.0
  0
ARC
  5
2F38
  8
AM_0
 10
338.77210348713038
 20
421.87241094682088
 30
0.0
 40
5.0
 50
45.000000999999187
 51
87.999999999999659
  0
LINE
  5
2F39
  8
AM_0
 10
354.00190348713028
 20
426.2136309468209
 30
0.0
 11
358.00193348713032
 21
426.2136309468209
 31
0.0
  0
ARC
  5
2F3A
  8
AM_0
 10
346.00193348713032
 20
420.99424094682092
 30
0.0
 40
2.0
 50
179.9999899999988
 51
268.00000999999861
  0
LINE
  5
2F3B
  8
AM_0
 10
345.93211348713032
 20
418.99543094682082
 30
0.0
 11
354.00187348713052
 21
418.7136309468209
 31
0.0
  0
ARC
  5
2F3C
  8
AM_0
 10
345.00190348713051
 20
441.04133094682089
 30
0.0
 40
3.0
 50
267.9999999999996
 51
0.0
  0
ARC
  5
2F3D
  8
AM_0
 10
347.00190348713051
 20
460.08839094682071
 30
0.0
 40
3.0
 50
90.000003000000945
 51
180.00001000000091
  0
LINE
  5
2F3E
  8
AM_0
 10
338.94660348713052
 20
595.55787094682091
 30
0.0
 11
279.00190348713039
 21
593.46458094682066
 31
0.0
  0
LINE
  5
2F3F
  8
AM_0
 10
235.50190348713039
 20
574.7136309468209
 30
0.0
 11
259.10661348713029
 21
575.53794094682098
 31
0.0
  0
LINE
  5
2F40
  8
AM_0
 10
235.50190348713039
 20
548.3615509468209
 30
0.0
 11
262.00187348713041
 21
548.3615509468209
 31
0.0
  0
LINE
  5
2F41
  8
AM_0
 10
235.50190348713039
 20
563.25364094682095
 30
0.0
 11
262.00187348713041
 21
563.25364094682095
 31
0.0
  0
LINE
  5
2F42
  8
AM_0
 10
262.00190348713039
 20
570.52213094682088
 30
0.0
 11
272.00187348713041
 21
570.52213094682088
 31
0.0
  0
ARC
  5
2F43
  8
AM_0
 10
259.00190348713039
 20
578.5361109468206
 30
0.0
 40
3.0
 50
272.0000000000004
 51
0.0
  0
ARC
  5
2F44
  8
AM_0
 10
267.00190348713039
 20
588.04249094682075
 30
0.0
 40
5.0
 50
91.999998000000545
 51
180.00001000000091
  0
LINE
  5
2F45
  8
AM_0
 10
279.00187348713041
 20
593.46458094682066
 30
0.0
 11
266.8273734871305
 21
593.03943094682086
 31
0.0
  0
ARC
  5
2F46
  8
AM_0
 10
347.00190348713051
 20
562.33887094682075
 30
0.0
 40
3.0
 50
179.9999899999988
 51
270.0
  0
ARC
  5
2F47
  8
AM_0
 10
345.00190348713051
 20
581.38593094682096
 30
0.0
 40
3.0
 50
0.0
 51
91.999998000000545
  0
LINE
  5
2F48
  8
AM_0
 10
342.30766348713053
 20
597.019290946821
 30
0.0
 11
344.00193348713032
 21
598.71360094682075
 31
0.0
  0
ARC
  5
2F49
  8
AM_0
 10
338.77210348713038
 20
600.55485094682092
 30
0.0
 40
5.0
 50
272.0000000000004
 51
315.0
  0
LINE
  5
2F4A
  8
AM_0
 10
354.00190348713028
 20
596.2136309468209
 30
0.0
 11
358.00193348713032
 21
596.2136309468209
 31
0.0
  0
LINE
  5
2F4B
  8
AM_0
 10
345.9321434871303
 20
603.43180094682089
 30
0.0
 11
354.00190348713028
 21
603.71360094682075
 31
0.0
  0
ARC
  5
2F4C
  8
AM_0
 10
346.00193348713032
 20
601.43302094682099
 30
0.0
 40
2.0
 50
91.999998000000545
 51
180.00001000000091
  0
LINE
  5
2F4D
  8
AM_0
 10
400.0018734871303
 20
525.21366094682094
 30
0.0
 11
400.0018734871303
 21
497.21366094682088
 31
0.0
  0
LINE
  5
2F4E
  8
ﾁｭｳｼﾝｾﾝ
 10
253.36088348713031
 20
256.00242208531478
 30
0.0
 11
404.94965348713038
 21
256.00242208531478
 31
0.0
  0
LINE
  5
2F4F
  8
AM_0
 10
354.0019134871302
 20
171.00242008531481
 30
0.0
 11
358.0018734871303
 21
171.00242008531481
 31
0.0
  0
LINE
  5
2F50
  8
AM_0
 10
354.0019134871302
 20
341.00240008531489
 30
0.0
 11
358.0018734871303
 21
341.00240008531489
 31
0.0
  0
ARC
  5
2F51
  8
AM_0
 10
318.16967348713041
 20
279.05241208531493
 30
0.0
 40
24.832211399999991
 50
349.38167999999962
 51
47.544065999999859
  0
LINE
  5
2F52
  8
AM_0
 10
279.0019434871304
 20
313.80245008531477
 30
0.0
 11
279.0019434871304
 21
151.8024230853149
 31
0.0
  0
LINE
  5
2F53
  8
AM_0
 10
262.00187348713041
 20
303.62477008531482
 30
0.0
 11
262.00187348713041
 21
154.3274630853148
 31
0.0
  0
LINE
  5
2F54
  8
AM_0
 10
235.5019434871304
 20
296.30241208531493
 30
0.0
 11
235.5019434871304
 21
169.3023770853149
 31
0.0
  0
LINE
  5
2F55
  8
0
 10
191.50194956680409
 20
312.80244108531491
 30
0.0
 11
191.50194956680409
 21
152.80244108531491
 31
0.0
  0
LINE
  5
2F56
  8
0
 10
201.50194956680409
 20
310.80244108531491
 30
0.0
 11
201.50194956680409
 21
154.80244108531491
 31
0.0
  0
LINE
  5
2F57
  8
0
  6
CONTINUOUS
 62
     7
 10
224.5019434871304
 20
294.80244108531491
 30
0.0
 11
224.5019434871304
 21
170.8024410853148
 31
0.0
  0
LINE
  5
2F58
  8
AM_0
 10
344.00186348713009
 20
232.0920530853148
 30
0.0
 11
344.00186348713009
 21
307.12763008531488
 31
0.0
  0
LINE
  5
2F59
  8
AM_0
 10
348.0019134871302
 20
185.5024070853149
 30
0.0
 11
348.0019134871302
 21
326.17469008531481
 31
0.0
  0
LINE
  5
2F5A
  8
AM_0
 10
354.0019134871302
 20
256.00242208531478
 30
0.0
 11
354.0019134871302
 21
348.50240008531478
 31
0.0
  0
LINE
  5
2F5B
  8
ﾁｭｳｼﾝｾﾝ
 10
176.6962772829078
 20
232.8024410853148
 30
0.0
 11
257.17003805649341
 21
232.8024410853148
 31
0.0
  0
ARC
  5
2F5C
  8
0
 10
222.5019434871304
 20
172.80244108531491
 30
0.0
 40
2.0
 50
0.0
 51
90.0
1001
GENIUS_GENODEF_13
1002
{
1000
HIER
1070
     0
1002
}
1002
{
1000
MANEDIT
1070
     0
1002
}
1002
{
1000
NOSEL
1070
     0
1002
}
1002
{
1000
BEHIND
1070
     0
1002
}
1002
{
1000
OTHER
1070
     0
1002
}
1002
{
1000
REACTOR
1002
}
1001
GENIUS_GENOBJ-N-FIL_13
1002
{
1000
OWNER
1000
GEN
1002
}
  0
LINE
  5
2F5D
  8
0
 10
191.50194956680409
 20
152.80244108531491
 30
0.0
 11
199.50194956680409
 21
152.80244108531491
 31
0.0
  0
ARC
  5
2F5E
  8
0
 10
199.50194956680409
 20
154.80244108531491
 30
0.0
 40
2.0
 50
270.0
 51
0.0
1001
GENIUS_GENODEF_13
1002
{
1000
HIER
1070
     0
1002
}
1002
{
1000
MANEDIT
1070
     0
1002
}
1002
{
1000
NOSEL
1070
     0
1002
}
1002
{
1000
BEHIND
1070
     0
1002
}
1002
{
1000
OTHER
1070
     0
1002
}
1002
{
1000
REACTOR
1002
}
1001
GENIUS_GENOBJ-N-FIL_13
1002
{
1000
OWNER
1000
GEN
1002
}
  0
LINE
  5
2F5F
  8
0
 10
222.5019434871304
 20
174.80244108531491
 30
0.0
 11
206.5019495668042
 21
174.80244108531491
 31
0.0
  0
ARC
  5
2F60
  8
0
 10
206.5019495668042
 20
169.80244108531491
 30
0.0
 40
5.0
 50
90.0
 51
180.0
1001
GENIUS_GENOBJ-N-FIL_13
1002
{
1000
OWNER
1000
GEN
1002
}
1001
GENIUS_GENODEF_13
1002
{
1000
HIER
1070
     0
1002
}
1002
{
1000
MANEDIT
1070
     0
1002
}
1002
{
1000
NOSEL
1070
     0
1002
}
1002
{
1000
BEHIND
1070
     0
1002
}
1002
{
1000
OTHER
1070
     0
1002
}
1002
{
1000
REACTOR
1002
}
  0
LINE
  5
2F61
  8
AM_0
 10
272.00186348713021
 20
263.95161208531482
 30
0.0
 11
272.00186348713021
 21
173.2584620853149
 31
0.0
  0
LINE
  5
2F62
  8
AM_0
 10
304.00187348713041
 20
180.71764708531501
 30
0.0
 11
304.00187348713041
 21
193.03765408531481
 31
0.0
  0
ARC
  5
2F63
  8
AM_0
 10
304.00352348713039
 20
186.8663120853148
 30
0.0
 40
7.331659199999998
 50
90.000003000000945
 51
270.0
  0
LINE
  5
2F64
  8
AM_0
 10
344.00186348713009
 20
166.2598070853148
 30
0.0
 11
344.00186348713009
 21
201.6317690853148
 31
0.0
  0
LINE
  5
2F65
  8
AM_0
 10
354.0019134871302
 20
163.50242008531481
 30
0.0
 11
354.0019134871302
 21
256.00242208531478
 31
0.0
  0
LINE
  5
2F66
  8
AM_0
 10
279.0019434871304
 20
166.6922090853148
 30
0.0
 11
344.00186348713009
 21
166.6922090853148
 31
0.0
  0
LINE
  5
2F67
  8
AM_0
 10
279.00188348713021
 20
151.8024230853149
 30
0.0
 11
321.75581348713018
 21
150.30942808531481
 31
0.0
  0
LINE
  5
2F68
  8
AM_0
 10
235.5018834871301
 20
169.30244008531491
 30
0.0
 11
257.72873348713023
 21
168.52625608531491
 31
0.0
  0
LINE
  5
2F69
  8
AM_0
 10
235.5019434871304
 20
181.3024400853148
 30
0.0
 11
262.00187348713041
 21
181.3024400853148
 31
0.0
  0
ARC
  5
2F6A
  8
0
 10
226.5019434871304
 20
170.8024410853148
 30
0.0
 40
2.0
 50
180.0
 51
270.0
1001
GENIUS_GENODEF_13
1002
{
1000
HIER
1070
     0
1002
}
1002
{
1000
MANEDIT
1070
     0
1002
}
1002
{
1000
NOSEL
1070
     0
1002
}
1002
{
1000
BEHIND
1070
     0
1002
}
1002
{
1000
OTHER
1070
     0
1002
}
1002
{
1000
REACTOR
1002
}
1001
GENIUS_GENOBJ-N-FIL_13
1002
{
1000
OWNER
1000
GEN
1002
}
  0
LINE
  5
2F6B
  8
0
 10
235.5019434871304
 20
168.80244108531491
 30
0.0
 11
226.5019434871304
 21
168.80244108531491
 31
0.0
  0
LINE
  5
2F6C
  8
AM_0
 10
235.5019434871304
 20
181.30242508531481
 30
0.0
 11
224.5019434871304
 21
181.30242508531481
 31
0.0
  0
ARC
  5
2F6D
  8
AM_0
 10
264.0019434871304
 20
169.25844808531491
 30
0.0
 40
2.00000007
 50
90.000003000000945
 51
180.00001000000091
  0
LINE
  5
2F6E
  8
AM_0
 10
279.00188348713021
 20
151.8024380853148
 30
0.0
 11
263.93210348713041
 21
152.32868308531491
 31
0.0
  0
ARC
  5
2F6F
  8
AM_0
 10
264.0019434871304
 20
154.3274630853148
 30
0.0
 40
2.00000007
 50
179.9999899999988
 51
268.00000999999861
  0
ARC
  5
2F70
  8
AM_0
 10
259.0018734871303
 20
165.28513408531481
 30
0.0
 40
3.0
 50
0.0
 51
79.999998000001099
  0
LINE
  5
2F71
  8
AM_0
 10
258.14495348713018
 20
168.48252208531491
 30
0.0
 11
259.5228834871304
 21
168.23955808531491
 31
0.0
  0
ARC
  5
2F72
  8
AM_0
 10
257.62400348713021
 20
165.5280860853149
 30
0.0
 40
3.0
 50
79.999998000001099
 51
87.999999999999659
  0
LINE
  5
2F73
  8
AM_0
 10
264.0019434871304
 20
171.25844908531491
 30
0.0
 11
270.0019434871304
 21
171.25844908531491
 31
0.0
  0
ARC
  5
2F74
  8
AM_0
 10
270.0019434871304
 20
173.2584620853149
 30
0.0
 40
2.00000007
 50
270.0
 51
0.0
  0
LINE
  5
2F75
  8
AM_0
 10
321.75581348713018
 20
150.30944308531491
 30
0.0
 11
344.00186348713009
 21
163.1532080853149
 31
0.0
  0
LINE
  5
2F76
  8
AM_0
 10
304.00187348713041
 20
179.53464808531481
 30
0.0
 11
344.00186348713009
 21
179.53464808531481
 31
0.0
  0
LINE
  5
2F77
  8
AM_0
 10
344.00186348713009
 20
163.1532080853149
 30
0.0
 11
354.0019134871302
 21
163.5024050853149
 31
0.0
  0
ARC
  5
2F78
  8
AM_0
 10
347.00186348713021
 20
166.2598070853148
 30
0.0
 40
3.0
 50
179.9999899999988
 51
271.99999000000139
  0
ARC
  5
2F79
  8
AM_0
 10
345.0019134871302
 20
185.5024070853149
 30
0.0
 40
3.0
 50
270.0
 51
0.0
  0
LINE
  5
2F7A
  8
AM_0
 10
235.5019434871304
 20
195.65450608531481
 30
0.0
 11
262.00187348713041
 21
195.65450608531481
 31
0.0
  0
LINE
  5
2F7B
  8
AM_0
 10
235.5019434871304
 20
195.65450608531481
 30
0.0
 11
224.5019434871304
 21
195.65450608531481
 31
0.0
  0
LINE
  5
2F7C
  8
AM_0
 10
235.5019434871304
 20
269.9503610853148
 30
0.0
 11
262.00187348713041
 21
269.9503610853148
 31
0.0
  0
LINE
  5
2F7D
  8
AM_0
 10
235.5019434871304
 20
269.9503610853148
 30
0.0
 11
224.5019434871304
 21
269.9503610853148
 31
0.0
  0
ARC
  5
2F7E
  8
AM_0
 10
264.0019434871304
 20
267.9516410853148
 30
0.0
 40
2.00000007
 50
179.9999899999988
 51
270.0
  0
LINE
  5
2F7F
  8
AM_0
 10
262.9173534871303
 20
259.4744990853149
 30
0.0
 11
270.0019434871304
 21
259.4744990853149
 31
0.0
  0
LINE
  5
2F80
  8
AM_0
 10
264.0019434871304
 20
265.9516430853148
 30
0.0
 11
270.0019434871304
 21
265.9516430853148
 31
0.0
  0
ARC
  5
2F81
  8
AM_0
 10
270.0019434871304
 20
263.95161208531482
 30
0.0
 40
2.00000007
 50
0.0
 51
90.000003000000945
  0
ARC
  5
2F82
  8
AM_0
 10
270.0019434871304
 20
257.47449808531479
 30
0.0
 40
2.00000007
 50
0.0
 51
90.000003000000945
  0
ARC
  5
2F83
  8
AM_0
 10
362.64716348713029
 20
246.7701980853148
 30
0.0
 40
24.832211399999991
 50
169.38167999999959
 51
218.7932100000013
  0
LINE
  5
2F84
  8
AM_0
 10
304.00187348713041
 20
194.19796408531499
 30
0.0
 11
344.00186348713009
 21
194.19796408531499
 31
0.0
  0
ARC
  5
2F85
  8
AM_0
 10
347.00186348713021
 20
201.6317690853148
 30
0.0
 40
3.0
 50
90.000003000000945
 51
180.00001000000091
  0
ARC
  5
2F86
  8
AM_0
 10
345.63089348713021
 20
233.0920670853148
 30
0.0
 40
3.0
 50
218.7932200000009
 51
270.0
  0
LINE
  5
2F87
  8
AM_0
 10
345.63089348713021
 20
230.0920670853148
 30
0.0
 11
348.0019134871302
 21
230.0920670853148
 31
0.0
  0
LINE
  5
2F88
  8
AM_0
 10
342.57665348713039
 20
274.47669808531481
 30
0.0
 11
338.24018348713031
 21
251.3459300853149
 31
0.0
  0
ARC
  5
2F89
  8
0
 10
222.5019434871304
 20
292.80244108531491
 30
0.0
 40
2.0
 50
270.0
 51
0.0
1001
GENIUS_GENODEF_13
1002
{
1000
HIER
1070
     0
1002
}
1002
{
1000
MANEDIT
1070
     0
1002
}
1002
{
1000
NOSEL
1070
     0
1002
}
1002
{
1000
BEHIND
1070
     0
1002
}
1002
{
1000
OTHER
1070
     0
1002
}
1002
{
1000
REACTOR
1002
}
1001
GENIUS_GENOBJ-N-FIL_13
1002
{
1000
OWNER
1000
GEN
1002
}
  0
LINE
  5
2F8A
  8
0
 10
222.5019434871304
 20
290.8024410853148
 30
0.0
 11
206.5019495668042
 21
290.8024410853148
 31
0.0
  0
ARC
  5
2F8B
  8
0
 10
206.5019495668042
 20
295.8024410853148
 30
0.0
 40
5.0
 50
180.0
 51
270.0
1001
GENIUS_GENOBJ-N-FIL_13
1002
{
1000
OWNER
1000
GEN
1002
}
1001
GENIUS_GENODEF_13
1002
{
1000
HIER
1070
     0
1002
}
1002
{
1000
MANEDIT
1070
     0
1002
}
1002
{
1000
NOSEL
1070
     0
1002
}
1002
{
1000
BEHIND
1070
     0
1002
}
1002
{
1000
OTHER
1070
     0
1002
}
1002
{
1000
REACTOR
1002
}
  0
LINE
  5
2F8C
  8
0
 10
191.50194956680409
 20
312.80244108531491
 30
0.0
 11
199.50194956680409
 21
312.80244108531491
 31
0.0
  0
ARC
  5
2F8D
  8
0
 10
199.50194956680409
 20
310.80244108531491
 30
0.0
 40
2.0
 50
0.0
 51
90.0
1001
GENIUS_GENODEF_13
1002
{
1000
HIER
1070
     0
1002
}
1002
{
1000
MANEDIT
1070
     0
1002
}
1002
{
1000
NOSEL
1070
     0
1002
}
1002
{
1000
BEHIND
1070
     0
1002
}
1002
{
1000
OTHER
1070
     0
1002
}
1002
{
1000
REACTOR
1002
}
1001
GENIUS_GENOBJ-N-FIL_13
1002
{
1000
OWNER
1000
GEN
1002
}
  0
LINE
  5
2F8E
  8
AM_0
 10
279.00188348713021
 20
313.80242008531479
 30
0.0
 11
314.3981934871303
 21
315.03851008531478
 31
0.0
  0
LINE
  5
2F8F
  8
AM_0
 10
279.0019434871304
 20
279.05241208531493
 30
0.0
 11
340.94720348713048
 21
279.05241208531493
 31
0.0
  0
LINE
  5
2F90
  8
AM_0
 10
235.5018834871301
 20
296.30241208531493
 30
0.0
 11
257.5889634871304
 21
297.07371208531481
 31
0.0
  0
LINE
  5
2F91
  8
AM_0
 10
235.5019434871304
 20
284.30241208531493
 30
0.0
 11
262.00187348713041
 21
284.30241208531493
 31
0.0
  0
LINE
  5
2F92
  8
AM_0
 10
235.5019434871304
 20
284.302451085315
 30
0.0
 11
224.5019434871304
 21
284.302451085315
 31
0.0
  0
LINE
  5
2F93
  8
0
 10
235.5019434871304
 20
296.80244108531508
 30
0.0
 11
226.5019434871304
 21
296.80244108531508
 31
0.0
  0
ARC
  5
2F94
  8
0
 10
226.5019434871304
 20
294.80244108531491
 30
0.0
 40
2.0
 50
90.0
 51
180.0
1001
GENIUS_GENODEF_13
1002
{
1000
HIER
1070
     0
1002
}
1002
{
1000
MANEDIT
1070
     0
1002
}
1002
{
1000
NOSEL
1070
     0
1002
}
1002
{
1000
BEHIND
1070
     0
1002
}
1002
{
1000
OTHER
1070
     0
1002
}
1002
{
1000
REACTOR
1002
}
1001
GENIUS_GENOBJ-N-FIL_13
1002
{
1000
OWNER
1000
GEN
1002
}
  0
ARC
  5
2F95
  8
AM_0
 10
259.0018734871303
 20
300.31974508531482
 30
0.0
 40
3.0
 50
279.99999999999852
 51
0.0
  0
LINE
  5
2F96
  8
AM_0
 10
272.00186348713021
 20
311.62661008531478
 30
0.0
 11
272.00186348713021
 21
289.13648908531479
 31
0.0
  0
ARC
  5
2F97
  8
AM_0
 10
270.0019434871304
 20
289.13648908531479
 30
0.0
 40
2.00000007
 50
270.0
 51
0.0
  0
LINE
  5
2F98
  8
AM_0
 10
264.0019434871304
 20
287.13651808531478
 30
0.0
 11
270.0019434871304
 21
287.13651808531478
 31
0.0
  0
ARC
  5
2F99
  8
AM_0
 10
264.0019434871304
 20
285.13651708531478
 30
0.0
 40
2.00000007
 50
90.000003000000945
 51
180.00001000000091
  0
LINE
  5
2F9A
  8
AM_0
 10
258.2827434871304
 20
297.14662108531491
 30
0.0
 11
259.5228834871304
 21
297.36527908531491
 31
0.0
  0
ARC
  5
2F9B
  8
AM_0
 10
257.41454348712989
 20
302.07068008531479
 30
0.0
 40
5.0000001000000003
 50
272.0000000000004
 51
279.99999999999852
  0
ARC
  5
2F9C
  8
AM_0
 10
274.00187348713041
 20
311.62661008531478
 30
0.0
 40
2.00000007
 50
91.999998000000545
 51
163.27364999999941
  0
ARC
  5
2F9D
  8
AM_0
 10
267.29807348713041
 20
313.64123008531482
 30
0.0
 40
5.0000001000000003
 50
272.0000000000004
 51
343.27365999999921
  0
ARC
  5
2F9E
  8
AM_0
 10
267.0019434871304
 20
303.62477008531482
 30
0.0
 40
5.0000001000000003
 50
91.999998000000545
 51
180.00001000000091
  0
LINE
  5
2F9F
  8
AM_0
 10
266.82737348713022
 20
308.62175008531477
 30
0.0
 11
267.47258348713041
 21
308.6442800853149
 31
0.0
  0
LINE
  5
2FA0
  8
AM_0
 10
279.00188348713021
 20
313.80242008531479
 30
0.0
 11
273.9321234871303
 21
313.62539008531479
 31
0.0
  0
LINE
  5
2FA1
  8
AM_0
 10
316.41482348713032
 20
315.9153500853148
 30
0.0
 11
344.00186348713009
 21
343.5024200853149
 31
0.0
  0
LINE
  5
2FA2
  8
AM_0
 10
344.00186348713009
 20
307.12763008531488
 30
0.0
 11
344.00186348713009
 21
346.22183008531482
 31
0.0
  0
LINE
  5
2FA3
  8
AM_0
 10
315.57920348713031
 20
315.07973008531479
 30
0.0
 11
334.93199348713023
 21
297.37354708531478
 31
0.0
  0
ARC
  5
2FA4
  8
AM_0
 10
314.29349348713032
 20
318.0366800853148
 30
0.0
 40
3.0
 50
272.0000000000004
 51
315.0
  0
LINE
  5
2FA5
  8
AM_0
 10
334.93199348713023
 20
297.37354708531478
 30
0.0
 11
334.93199348713023
 21
297.37354708531478
 31
0.0
  0
ARC
  5
2FA6
  8
AM_0
 10
347.00186348713021
 20
307.12763008531488
 30
0.0
 40
3.0
 50
179.9999899999988
 51
270.0
  0
ARC
  5
2FA7
  8
AM_0
 10
345.0019134871302
 20
326.17469008531481
 30
0.0
 40
3.0
 50
0.0
 51
91.999998000000545
  0
LINE
  5
2FA8
  8
AM_0
 10
345.9320934871302
 20
348.22061008531489
 30
0.0
 11
354.0019134871302
 21
348.50240008531478
 31
0.0
  0
ARC
  5
2FA9
  8
AM_0
 10
346.0018734871303
 20
346.22183008531482
 30
0.0
 40
2.00000007
 50
91.999998000000545
 51
180.00001000000091
  0
LINE
  5
2FAA
  8
AM_0
 10
358.0018734871303
 20
341.00240008531489
 30
0.0
 11
358.0018734871303
 21
171.00242008531481
 31
0.0
  0
CIRCLE
  5
2FAB
  8
AM_0
 10
577.26977764393132
 20
256.00242208531478
 30
0.0
 40
85.000001999999981
  0
ARC
  5
2FAC
  8
AM_0
 10
577.26977764393132
 20
232.8024410853148
 30
0.0
 40
81.000003000000007
 50
24.588775000001409
 51
54.52582999999899
  0
CIRCLE
  5
2FAD
  8
AM_0
 10
577.26977764393132
 20
256.00242208531478
 30
0.0
 40
80.000000999999983
  0
CIRCLE
  5
2FAE
  8
AM_0
 10
577.26977764393132
 20
256.00242208531478
 30
0.0
 40
29.000001000000001
  0
ARC
  5
2FAF
  8
AM_0
 10
577.26977764393132
 20
256.00242208531478
 30
0.0
 40
39.000011999999998
 50
143.2132099999989
 51
180.00001000000091
  0
ARC
  5
2FB0
  8
AM_0
 10
577.26977764393132
 20
256.00242208531478
 30
0.0
 40
39.000011999999998
 50
0.0
 51
36.786790999999447
  0
ARC
  5
2FB1
  8
AM_0
 10
577.26977764393132
 20
232.8024410853148
 30
0.0
 40
81.000003000000007
 50
125.474170000001
 51
155.4112299999997
  0
LINE
  5
2FB2
  8
ﾁｭｳｼﾝｾﾝ
 10
577.26977764393132
 20
146.4676910853149
 30
0.0
 11
577.26977764393132
 21
353.62154003925508
 31
0.0
  0
LINE
  5
2FB3
  8
AM_0
 10
669.76975864393125
 20
256.00242208531478
 30
0.0
 11
669.76975864393125
 21
286.00242508531488
 31
0.0
  0
LINE
  5
2FB4
  8
AM_0
 10
484.76976364393119
 20
256.00242208531478
 30
0.0
 11
484.76976364393119
 21
286.00242508531488
 31
0.0
  0
LINE
  5
2FB5
  8
ﾁｭｳｼﾝｾﾝ
 10
476.0060736439313
 20
256.00242208531478
 30
0.0
 11
676.18946298697301
 21
256.00242208531478
 31
0.0
  0
ARC
  5
2FB6
  8
AM_0
 10
577.26977764393132
 20
232.8024410853148
 30
0.0
 40
81.000003000000007
 50
270.0
 51
291.36619999999903
  0
LINE
  5
2FB7
  8
AM_0
 10
577.26977764393132
 20
163.50242008531481
 30
0.0
 11
607.26976564393135
 21
163.50242008531481
 31
0.0
  0
LINE
  5
2FB8
  8
ﾁｭｳｼﾝｾﾝ
 10
527.38032333511569
 20
232.8024410853148
 30
0.0
 11
627.15923195274706
 21
232.8024410853148
 31
0.0
  0
LINE
  5
2FB9
  8
AM_0
 10
358.0018734871303
 20
270.00242308531489
 30
0.0
 11
400.0018734871303
 21
270.00242308531489
 31
0.0
  0
LINE
  5
2FBA
  8
AM_0
 10
358.0018734871303
 20
242.0024390853149
 30
0.0
 11
400.0018734871303
 21
242.0024390853149
 31
0.0
  0
LINE
  5
2FBB
  8
AM_0
 10
368.00186348713032
 20
273.00242308531477
 30
0.0
 11
400.0018734871303
 21
273.00242308531477
 31
0.0
  0
LINE
  5
2FBC
  8
AM_0
 10
368.00186348713032
 20
273.00242308531477
 30
0.0
 11
368.00186348713032
 21
270.00242308531489
 31
0.0
  0
LINE
  5
2FBD
  8
AM_0
 10
400.0018734871303
 20
273.00242308531477
 30
0.0
 11
400.0018734871303
 21
242.0024390853149
 31
0.0
  0
LINE
  5
2FBE
  8
AM_0
 10
484.7697336439312
 20
226.00242208531481
 30
0.0
 11
487.17525364393111
 21
180.10233508531491
 31
0.0
  0
ARC
  5
2FBF
  8
AM_0
 10
535.51977664393132
 20
160.48929808531491
 30
0.0
 40
8.0000000999999976
 50
156.73874000000089
 51
323.2612700000002
  0
LINE
  5
2FC0
  8
AM_0
 10
547.26976264393124
 20
163.50242008531481
 30
0.0
 11
501.36969064393128
 21
165.9079370853149
 31
0.0
  0
ARC
  5
2FC1
  8
ﾁｭｳｼﾝｾﾝ1
 10
577.26977764393428
 20
256.00242208531807
 30
0.0
 40
107.50001100000451
 50
218.9860358254422
 51
231.25724150820389
  0
LINE
  5
2FC2
  8
ﾁｭｳｼﾝｾﾝ1
 10
508.2194860521052
 20
186.9521210193119
 30
0.0
 11
494.11049039994958
 21
172.8431435407692
 31
0.0
  0
CIRCLE
  5
2FC3
  8
AM_0
 10
501.25579864393109
 20
179.98844308531491
 30
0.0
 40
6.0000002999999991
  0
ARC
  5
2FC4
  8
AM_0
 10
502.1547546439312
 20
180.88738408531481
 30
0.0
 40
15.00000029999998
 50
183.00000999999961
 51
267.0000000000008
  0
ARC
  5
2FC5
  8
AM_0
 10
502.1547546439312
 20
180.88738408531481
 30
0.0
 40
15.00000029999998
 50
183.00000999999961
 51
267.0000000000008
  0
ARC
  5
2FC6
  8
AM_0
 10
577.26977764393132
 20
232.8024410853148
 30
0.0
 40
81.000003000000007
 50
248.6338000000008
 51
270.0
  0
LINE
  5
2FC7
  8
AM_0
 10
577.26977764393132
 20
163.50242008531481
 30
0.0
 11
547.26977764393121
 21
163.50242008531481
 31
0.0
  0
ARC
  5
2FC8
  8
AM_0
 10
545.9376096439313
 20
152.7131300853149
 30
0.0
 40
5.0000001000000003
 50
68.633798000000652
 51
143.26125999999971
  0
ARC
  5
2FC9
  8
AM_0
 10
577.26977764393132
 20
232.8024410853148
 30
0.0
 40
76.000001999999981
 50
167.23980000000071
 51
181.39353999999909
  0
LINE
  5
2FCA
  8
AM_0
 10
484.76976364393119
 20
256.00242208531478
 30
0.0
 11
484.76976364393119
 21
226.00242208531481
 31
0.0
  0
LINE
  5
2FCB
  8
AM_0
 10
538.26974764393105
 20
256.00242208531478
 30
0.0
 11
538.26974764393105
 21
232.8024410853148
 31
0.0
  0
LINE
  5
2FCC
  8
AM_0
 10
502.40481664393121
 20
227.80242508531501
 30
0.0
 11
533.26977664393132
 21
227.80242508531501
 31
0.0
  0
ARC
  5
2FCD
  8
AM_0
 10
533.26977664393132
 20
232.8024410853148
 30
0.0
 40
5.0000001000000003
 50
270.0
 51
0.0
  0
ARC
  5
2FCE
  8
AM_0
 10
577.26977764393132
 20
256.00242208531478
 30
0.0
 40
74.400002999999998
 50
171.8834499999985
 51
184.94541999999871
  0
ARC
  5
2FCF
  8
AM_0
 10
577.26977764393132
 20
256.00242208531478
 30
0.0
 40
14.000001299999999
 50
106.6015399999982
 51
73.398452000001853
  0
CIRCLE
  5
2FD0
  8
AM_5
 10
577.26977764393132
 20
256.00242208531478
 30
0.0
 40
4.000000199999997
  0
CIRCLE
  5
2FD1
  8
AM_0
 10
577.26977764393132
 20
256.00242208531478
 30
0.0
 40
3.0
  0
POINT
  5
2FD2
  8
AM_0
 10
577.26977764393132
 20
256.00242208531478
 30
0.0
  0
LINE
  5
2FD3
  8
AM_0
 10
573.26976364393136
 20
266.00242408531477
 30
0.0
 11
573.26976364393136
 21
273.00242308531477
 31
0.0
  0
LINE
  5
2FD4
  8
AM_0
 10
581.26976464393124
 20
266.00242408531477
 30
0.0
 11
581.26976464393124
 21
273.00242308531477
 31
0.0
  0
LINE
  5
2FD5
  8
AM_0
 10
573.26976364393136
 20
266.00242408531477
 30
0.0
 11
581.26976464393124
 21
266.00242408531477
 31
0.0
  0
LINE
  5
2FD6
  8
AM_0
 10
573.26976364393136
 20
273.00242308531477
 30
0.0
 11
581.26976464393124
 21
273.00242308531477
 31
0.0
  0
LINE
  5
2FD7
  8
AM_0
 10
669.76976764393135
 20
226.00242208531481
 30
0.0
 11
667.36424764393121
 21
180.10233508531491
 31
0.0
  0
LINE
  5
2FD8
  8
AM_0
 10
607.26976564393135
 20
163.50242008531481
 30
0.0
 11
653.16985264393134
 21
165.9079370853149
 31
0.0
  0
ARC
  5
2FD9
  8
AM_0
 10
619.01974864393128
 20
160.48929808531491
 30
0.0
 40
8.0000000999999976
 50
216.73874000000009
 51
23.261258000001192
  0
ARC
  5
2FDA
  8
AM_0
 10
608.60193364393126
 20
152.7131300853149
 30
0.0
 40
5.0000001000000003
 50
36.738737000001201
 51
111.3662099999999
  0
ARC
  5
2FDB
  8
AM_0
 10
652.38478564393131
 20
180.88738408531481
 30
0.0
 40
15.00000029999998
 50
272.99999999999909
 51
357.00000000000091
  0
ARC
  5
2FDC
  8
AM_0
 10
652.38478564393131
 20
180.88738408531481
 30
0.0
 40
15.00000029999998
 50
272.99999999999909
 51
357.00000000000091
  0
CIRCLE
  5
2FDD
  8
AM_0
 10
653.28374164393131
 20
179.98844308531491
 30
0.0
 40
6.0000002999999991
  0
ARC
  5
2FDE
  8
AM_0
 10
577.26977764393132
 20
232.8024410853148
 30
0.0
 40
76.000001999999981
 50
358.60644999999948
 51
12.760201999999399
  0
LINE
  5
2FDF
  8
AM_0
 10
616.26978064393131
 20
256.00242208531478
 30
0.0
 11
616.26978064393131
 21
232.8024410853148
 31
0.0
  0
LINE
  5
2FE0
  8
AM_0
 10
669.76975864393125
 20
256.00242208531478
 30
0.0
 11
669.76975864393125
 21
226.00242208531481
 31
0.0
  0
LINE
  5
2FE1
  8
AM_0
 10
652.13471164393115
 20
227.80242508531501
 30
0.0
 11
621.26976364393136
 21
227.80242508531501
 31
0.0
  0
ARC
  5
2FE2
  8
AM_0
 10
621.26976364393136
 20
232.8024410853148
 30
0.0
 40
5.0000001000000003
 50
179.9999899999988
 51
270.0
  0
ARC
  5
2FE3
  8
AM_0
 10
577.26977764393132
 20
256.00242208531478
 30
0.0
 40
74.400002999999998
 50
355.05458000000118
 51
8.1165493999996752
  0
ARC
  5
2FE4
  8
AM_0
 10
577.26977764393132
 20
232.8024410853148
 30
0.0
 40
81.000003000000007
 50
58.860945000000022
 51
86.245803000000379
  0
LINE
  5
2FE5
  8
AM_0
 10
577.26977764393132
 20
348.50240008531478
 30
0.0
 11
607.26976564393135
 21
348.50240008531478
 31
0.0
  0
LINE
  5
2FE6
  8
AM_0
 10
604.54233364393133
 20
287.51762308531482
 30
0.0
 11
629.43012064393122
 21
312.40541008531488
 31
0.0
  0
LINE
  5
2FE7
  8
AM_0
 10
545.75456464393119
 20
283.27497508531491
 30
0.0
 11
520.86679264393115
 21
308.16275008531483
 31
0.0
  0
LINE
  5
2FE8
  8
AM_0
 10
549.99720964393146
 20
287.51762308531482
 30
0.0
 11
525.10940764393115
 21
312.40541008531488
 31
0.0
  0
LINE
  5
2FE9
  8
AM_0
 10
547.26974764393117
 20
348.50243008531493
 30
0.0
 11
501.36969064393128
 21
346.09691008531479
 31
0.0
  0
LINE
  5
2FEA
  8
AM_0
 10
484.76976364393119
 20
286.00242508531488
 30
0.0
 11
487.17528364393121
 21
331.90250008531478
 31
0.0
  0
ARC
  5
2FEB
  8
AM_0
 10
518.74548364393127
 20
306.04142008531483
 30
0.0
 40
3.0
 50
45.000000999999187
 51
139.4691400000001
  0
ARC
  5
2FEC
  8
AM_0
 10
527.2307466439313
 20
314.52671008531479
 30
0.0
 40
3.0
 50
130.5308599999999
 51
225.0
  0
CIRCLE
  5
2FED
  8
AM_0
 10
501.25579864393109
 20
332.01641008531482
 30
0.0
 40
6.0000002999999991
  0
ARC
  5
2FEE
  8
AM_0
 10
502.1547546439312
 20
331.1174600853148
 30
0.0
 40
15.00000029999998
 50
92.999998999998368
 51
176.99999000000011
  0
ARC
  5
2FEF
  8
AM_0
 10
502.1547546439312
 20
331.1174600853148
 30
0.0
 40
15.00000029999998
 50
92.999998999998368
 51
176.99999000000011
  0
LINE
  5
2FF0
  8
AM_0
 10
574.76976364393136
 20
316.62218008531482
 30
0.0
 11
574.76976364393136
 21
327.1902500853148
 31
0.0
  0
LINE
  5
2FF1
  8
AM_0
 10
579.76977964393132
 20
316.62218008531482
 30
0.0
 11
579.76977964393132
 21
327.1902500853148
 31
0.0
  0
ARC
  5
2FF2
  8
AM_0
 10
577.26977764393132
 20
256.00242208531478
 30
0.0
 40
39.000011999999998
 50
53.213208000002012
 51
126.78679000000091
  0
ARC
  5
2FF3
  8
AM_0
 10
571.76976364393136
 20
316.62218008531482
 30
0.0
 40
3.0
 50
273.75419999999917
 51
0.0
  0
ARC
  5
2FF4
  8
AM_0
 10
543.63325864393119
 20
281.15363908531481
 30
0.0
 40
3.0
 50
323.21320999999892
 51
45.000000999999187
  0
ARC
  5
2FF5
  8
AM_0
 10
552.11851864393134
 20
289.63892908531483
 30
0.0
 40
3.0
 50
225.0
 51
306.78679000000079
  0
ARC
  5
2FF6
  8
AM_0
 10
577.2697911173077
 20
232.80241108531479
 30
0.0
 40
81.000003000000007
 50
93.754195000000877
 51
121.1390599999998
  0
ARC
  5
2FF7
  8
AM_0
 10
602.42102464393122
 20
289.63892908531483
 30
0.0
 40
3.0
 50
233.21320999999909
 51
315.0
  0
ARC
  5
2FF8
  8
AM_0
 10
582.76977964393132
 20
316.62218008531482
 30
0.0
 40
3.0
 50
180.00001000000091
 51
266.2458000000006
  0
LINE
  5
2FF9
  8
AM_0
 10
577.26977764393132
 20
348.50240008531478
 30
0.0
 11
547.26977764393121
 21
348.50240008531478
 31
0.0
  0
ARC
  5
2FFA
  8
AM_0
 10
571.76976364393136
 20
327.1902500853148
 30
0.0
 40
3.0
 50
0.0
 51
94.41791900000014
  0
ARC
  5
2FFB
  8
AM_0
 10
582.76977964393132
 20
327.1902500853148
 30
0.0
 40
3.0
 50
85.582085999998753
 51
180.00001000000091
  0
LINE
  5
2FFC
  8
AM_0
 10
669.76977364393133
 20
286.00242508531488
 30
0.0
 11
667.36424764393121
 21
331.90250008531478
 31
0.0
  0
LINE
  5
2FFD
  8
AM_0
 10
608.78497864393125
 20
283.27497508531491
 30
0.0
 11
633.67276564393137
 21
308.16275008531483
 31
0.0
  0
ARC
  5
2FFE
  8
AM_0
 10
610.90628464393126
 20
281.15363908531481
 30
0.0
 40
3.0
 50
135.0
 51
216.78679000000079
  0
ARC
  5
2FFF
  8
AM_0
 10
635.79407164393137
 20
306.04142008531483
 30
0.0
 40
3.0
 50
40.530865000001221
 51
135.0
  0
ARC
  5
3000
  8
AM_0
 10
627.30878164393118
 20
314.52671008531479
 30
0.0
 40
3.0
 50
315.0
 51
49.469137000000707
  0
LINE
  5
3001
  8
AM_0
 10
607.26976564393135
 20
348.50243008531493
 30
0.0
 11
653.16985264393134
 21
346.09691008531479
 31
0.0
  0
ARC
  5
3002
  8
AM_0
 10
652.38478564393131
 20
331.1174600853148
 30
0.0
 40
15.00000029999998
 50
3.0000000999988461
 51
86.999999000000216
  0
ARC
  5
3003
  8
AM_0
 10
652.38478564393131
 20
331.1174600853148
 30
0.0
 40
15.00000029999998
 50
3.0000000999988461
 51
86.999999000000216
  0
ARC
  5
3004
  8
ﾁｭｳｼﾝｾﾝ1
 10
577.26977764392075
 20
256.00242208530432
 30
0.0
 40
107.5000110000146
 50
38.852188836942439
 51
51.124540376617709
  0
CIRCLE
  5
3005
  8
AM_0
 10
653.28374164393131
 20
332.01641008531482
 30
0.0
 40
6.0000002999999991
  0
LINE
  5
3006
  8
ﾁｭｳｼﾝｾﾝ1
 10
646.03549341972825
 20
324.76816510126952
 30
0.0
 11
660.22401283190709
 21
338.95666673991383
 31
0.0
  0
LINE
  5
3007
  8
0
 10
201.5019095668041
 20
589.21367744682072
 30
0.0
 11
201.5019095668041
 21
433.21367744682078
 31
0.0
  0
LINE
  5
3008
  8
0
 10
191.5019095668041
 20
591.21367744682072
 30
0.0
 11
191.5019095668041
 21
431.21367744682078
 31
0.0
  0
LINE
  5
3009
  8
0
  6
CONTINUOUS
 62
     7
 10
224.50190348713039
 20
573.21367744682072
 30
0.0
 11
224.50190348713039
 21
449.21367744682078
 31
0.0
  0
LINE
  5
300A
  8
AM_0
 10
235.50190348713039
 20
474.06574244682082
 30
0.0
 11
224.50190348713039
 21
474.06574244682082
 31
0.0
  0
LINE
  5
300B
  8
AM_0
 10
235.50190348713039
 20
459.71366144682071
 30
0.0
 11
224.50190348713039
 21
459.71366144682071
 31
0.0
  0
LINE
  5
300C
  8
0
 10
235.50190348713039
 20
447.21367744682078
 30
0.0
 11
226.50190348713039
 21
447.21367744682078
 31
0.0
  0
LINE
  5
300D
  8
0
 10
191.5019095668041
 20
431.21367744682078
 30
0.0
 11
199.50190956680399
 21
431.21367744682078
 31
0.0
  0
ARC
  5
300E
  8
0
 10
199.50190956680399
 20
433.21367744682078
 30
0.0
 40
2.0
 50
270.0
 51
0.0
1001
GENIUS_GENODEF_13
1002
{
1000
HIER
1070
     0
1002
}
1002
{
1000
MANEDIT
1070
     0
1002
}
1002
{
1000
NOSEL
1070
     0
1002
}
1002
{
1000
BEHIND
1070
     0
1002
}
1002
{
1000
OTHER
1070
     0
1002
}
1002
{
1000
REACTOR
1002
}
1001
GENIUS_GENOBJ-N-FIL_13
1002
{
1000
OWNER
1000
GEN
1002
}
  0
LINE
  5
300F
  8
0
 10
222.50190348713051
 20
453.21367744682078
 30
0.0
 11
206.5019095668041
 21
453.21367744682078
 31
0.0
  0
ARC
  5
3010
  8
0
 10
206.5019095668041
 20
448.21367744682078
 30
0.0
 40
5.0
 50
90.0
 51
180.0
1001
GENIUS_GENOBJ-N-FIL_13
1002
{
1000
OWNER
1000
GEN
1002
}
1001
GENIUS_GENODEF_13
1002
{
1000
HIER
1070
     0
1002
}
1002
{
1000
MANEDIT
1070
     0
1002
}
1002
{
1000
NOSEL
1070
     0
1002
}
1002
{
1000
BEHIND
1070
     0
1002
}
1002
{
1000
OTHER
1070
     0
1002
}
1002
{
1000
REACTOR
1002
}
  0
ARC
  5
3011
  8
0
 10
226.50190348713039
 20
449.21367744682078
 30
0.0
 40
2.0
 50
180.0
 51
270.0
1001
GENIUS_GENODEF_13
1002
{
1000
HIER
1070
     0
1002
}
1002
{
1000
MANEDIT
1070
     0
1002
}
1002
{
1000
NOSEL
1070
     0
1002
}
1002
{
1000
BEHIND
1070
     0
1002
}
1002
{
1000
OTHER
1070
     0
1002
}
1002
{
1000
REACTOR
1002
}
1001
GENIUS_GENOBJ-N-FIL_13
1002
{
1000
OWNER
1000
GEN
1002
}
  0
ARC
  5
3012
  8
0
 10
222.50190348713051
 20
451.21367744682078
 30
0.0
 40
2.0
 50
0.0
 51
90.0
1001
GENIUS_GENODEF_13
1002
{
1000
HIER
1070
     0
1002
}
1002
{
1000
MANEDIT
1070
     0
1002
}
1002
{
1000
NOSEL
1070
     0
1002
}
1002
{
1000
BEHIND
1070
     0
1002
}
1002
{
1000
OTHER
1070
     0
1002
}
1002
{
1000
REACTOR
1002
}
1001
GENIUS_GENOBJ-N-FIL_13
1002
{
1000
OWNER
1000
GEN
1002
}
  0
LINE
  5
3013
  8
0
 10
235.50190348713039
 20
575.21367744682072
 30
0.0
 11
226.50190348713039
 21
575.21367744682072
 31
0.0
  0
LINE
  5
3014
  8
AM_0
 10
235.50190348713039
 20
562.71368744682093
 30
0.0
 11
224.50190348713039
 21
562.71368744682093
 31
0.0
  0
LINE
  5
3015
  8
AM_0
 10
235.50190348713039
 20
548.36159744682084
 30
0.0
 11
224.50190348713039
 21
548.36159744682084
 31
0.0
  0
LINE
  5
3016
  8
0
 10
222.50190348713051
 20
569.21367744682072
 30
0.0
 11
206.5019095668041
 21
569.21367744682072
 31
0.0
  0
ARC
  5
3017
  8
0
 10
206.5019095668041
 20
574.21367744682072
 30
0.0
 40
5.0
 50
180.0
 51
270.0
1001
GENIUS_GENOBJ-N-FIL_13
1002
{
1000
OWNER
1000
GEN
1002
}
1001
GENIUS_GENODEF_13
1002
{
1000
HIER
1070
     0
1002
}
1002
{
1000
MANEDIT
1070
     0
1002
}
1002
{
1000
NOSEL
1070
     0
1002
}
1002
{
1000
BEHIND
1070
     0
1002
}
1002
{
1000
OTHER
1070
     0
1002
}
1002
{
1000
REACTOR
1002
}
  0
ARC
  5
3018
  8
0
 10
226.50190348713039
 20
573.21367744682072
 30
0.0
 40
2.0
 50
90.0
 51
180.0
1001
GENIUS_GENODEF_13
1002
{
1000
HIER
1070
     0
1002
}
1002
{
1000
MANEDIT
1070
     0
1002
}
1002
{
1000
NOSEL
1070
     0
1002
}
1002
{
1000
BEHIND
1070
     0
1002
}
1002
{
1000
OTHER
1070
     0
1002
}
1002
{
1000
REACTOR
1002
}
1001
GENIUS_GENOBJ-N-FIL_13
1002
{
1000
OWNER
1000
GEN
1002
}
  0
ARC
  5
3019
  8
0
 10
222.50190348713051
 20
571.21367744682072
 30
0.0
 40
2.0
 50
270.0
 51
0.0
1001
GENIUS_GENODEF_13
1002
{
1000
HIER
1070
     0
1002
}
1002
{
1000
MANEDIT
1070
     0
1002
}
1002
{
1000
NOSEL
1070
     0
1002
}
1002
{
1000
BEHIND
1070
     0
1002
}
1002
{
1000
OTHER
1070
     0
1002
}
1002
{
1000
REACTOR
1002
}
1001
GENIUS_GENOBJ-N-FIL_13
1002
{
1000
OWNER
1000
GEN
1002
}
  0
LINE
  5
301A
  8
0
 10
191.5019095668041
 20
591.21367744682072
 30
0.0
 11
199.50190956680399
 21
591.21367744682072
 31
0.0
  0
ARC
  5
301B
  8
0
 10
199.50190956680399
 20
589.21367744682072
 30
0.0
 40
2.0
 50
0.0
 51
90.0
1001
GENIUS_GENODEF_13
1002
{
1000
HIER
1070
     0
1002
}
1002
{
1000
MANEDIT
1070
     0
1002
}
1002
{
1000
NOSEL
1070
     0
1002
}
1002
{
1000
BEHIND
1070
     0
1002
}
1002
{
1000
OTHER
1070
     0
1002
}
1002
{
1000
REACTOR
1002
}
1001
GENIUS_GENOBJ-N-FIL_13
1002
{
1000
OWNER
1000
GEN
1002
}
  0
ARC
  5
301C
  8
ﾁｭｳｼﾝｾﾝ1
 10
577.26977764394155
 20
256.00242208530432
 30
0.0
 40
107.5000110000146
 50
128.87545962338231
 51
141.14781116305741
  0
LINE
  5
301D
  8
ﾁｭｳｼﾝｾﾝ1
 10
508.5040618681341
 20
324.76816510126952
 30
0.0
 11
494.31554245595521
 21
338.95666673991383
 31
0.0
  0
ARC
  5
301E
  8
ﾁｭｳｼﾝｾﾝ1
 10
577.26977764392814
 20
256.00242208531807
 30
0.0
 40
107.50001100000451
 50
308.742758491796
 51
321.0139641745576
  0
LINE
  5
301F
  8
ﾁｭｳｼﾝｾﾝ1
 10
646.32006923575716
 20
186.9521210193119
 30
0.0
 11
660.42906488791266
 21
172.8431435407692
 31
0.0
  0
TEXT
  5
320D
  8
AM_0
 10
492.16839464792218
 20
530.07557151234334
 30
0.0
 40
10.0
  1
VX04-060AF~VX04-100AF
  0
ENDSEC
  0
EOF
