  0
SECTION
  2
HEADER
  9
$ACADVER
  1
AC1009
  9
$INSBASE
 10
0.0
 20
0.0
 30
0.0
  9
$EXTMIN
 10
166.15223911911269
 20
130.74151888927551
 30
-0.0015258207003583
  9
$EXTMAX
 10
821.94436077615717
 20
698.57102222647973
 30
0.0000000349246037
  9
$LIMMIN
 10
0.0
 20
0.0
  9
$LIMMAX
 10
853.5
 20
555.00000000000011
  9
$ORTHOMODE
 70
     0
  9
$REGENMODE
 70
     1
  9
$FILLMODE
 70
     1
  9
$QTEXTMODE
 70
     0
  9
$MIRRTEXT
 70
     1
  9
$DRAGMODE
 70
     2
  9
$LTSCALE
 40
3.0
  9
$OSMODE
 70
   551
  9
$ATTMODE
 70
     1
  9
$TEXTSIZE
 40
2.5
  9
$TRACEWID
 40
1.0
  9
$TEXTSTYLE
  7
STANDARD
  9
$CLAYER
  8
AM_0
  9
$CELTYPE
  6
BYLAYER
  9
$CECOLOR
 62
   256
  9
$DIMSCALE
 40
1.0
  9
$DIMASZ
 40
2.5
  9
$DIMEXO
 40
1.0
  9
$DIMDLI
 40
8.0
  9
$DIMRND
 40
0.0
  9
$DIMDLE
 40
0.0
  9
$DIMEXE
 40
0.6
  9
$DIMTP
 40
0.1
  9
$DIMTM
 40
0.1
  9
$DIMTXT
 40
2.5
  9
$DIMCEN
 40
0.0
  9
$DIMTSZ
 40
0.0
  9
$DIMTOL
 70
     0
  9
$DIMLIM
 70
     0
  9
$DIMTIH
 70
     0
  9
$DIMTOH
 70
     0
  9
$DIMSE1
 70
     0
  9
$DIMSE2
 70
     0
  9
$DIMTAD
 70
     1
  9
$DIMZIN
 70
     8
  9
$DIMBLK
  1

  9
$DIMASO
 70
     1
  9
$DIMSHO
 70
     1
  9
$DIMPOST
  1

  9
$DIMAPOST
  1
"
  9
$DIMALT
 70
     0
  9
$DIMALTD
 70
     2
  9
$DIMALTF
 40
0.0393701
  9
$DIMLFAC
 40
1.0
  9
$DIMTOFL
 70
     1
  9
$DIMTVP
 40
0.0
  9
$DIMTIX
 70
     0
  9
$DIMSOXD
 70
     0
  9
$DIMSAH
 70
     0
  9
$DIMBLK1
  1

  9
$DIMBLK2
  1

  9
$DIMSTYLE
  2
AM_ISO
  9
$DIMCLRD
 70
   256
  9
$DIMCLRE
 70
   256
  9
$DIMCLRT
 70
     4
  9
$DIMTFAC
 40
0.71
  9
$DIMGAP
 40
0.8
  9
$LUNITS
 70
     2
  9
$LUPREC
 70
     2
  9
$SKETCHINC
 40
1.0
  9
$FILLETRAD
 40
15.0
  9
$AUNITS
 70
     0
  9
$AUPREC
 70
     0
  9
$MENU
  1
.
  9
$ELEVATION
 40
0.0
  9
$PELEVATION
 40
0.0
  9
$THICKNESS
 40
0.0
  9
$LIMCHECK
 70
     0
  9
$BLIPMODE
 70
     0
  9
$CHAMFERA
 40
6.0
  9
$CHAMFERB
 40
3.0
  9
$SKPOLY
 70
     0
  9
$TDCREATE
 40
2452066.403275996
  9
$TDUPDATE
 40
2458541.5425501391
  9
$TDINDWG
 40
0.1638956366
  9
$TDUSRTIMER
 40
0.163895625
  9
$USRTIMER
 70
     1
  9
$ANGBASE
 50
0.0
  9
$ANGDIR
 70
     0
  9
$PDMODE
 70
     0
  9
$PDSIZE
 40
0.0
  9
$PLINEWID
 40
0.0
  9
$COORDS
 70
     1
  9
$SPLFRAME
 70
     0
  9
$SPLINETYPE
 70
     6
  9
$SPLINESEGS
 70
     8
  9
$ATTDIA
 70
     1
  9
$ATTREQ
 70
     1
  9
$HANDLING
 70
     1
  9
$HANDSEED
  5
3101
  9
$SURFTAB1
 70
     6
  9
$SURFTAB2
 70
     6
  9
$SURFTYPE
 70
     6
  9
$SURFU
 70
     6
  9
$SURFV
 70
     6
  9
$UCSNAME
  2

  9
$UCSORG
 10
0.0
 20
0.0
 30
0.0
  9
$UCSXDIR
 10
1.0
 20
0.0
 30
0.0
  9
$UCSYDIR
 10
0.0
 20
1.0
 30
0.0
  9
$PUCSNAME
  2

  9
$PUCSORG
 10
0.0
 20
0.0
 30
0.0
  9
$PUCSXDIR
 10
1.0
 20
0.0
 30
0.0
  9
$PUCSYDIR
 10
0.0
 20
1.0
 30
0.0
  9
$USERI1
 70
     0
  9
$USERI2
 70
     0
  9
$USERI3
 70
     0
  9
$USERI4
 70
     0
  9
$USERI5
 70
     0
  9
$USERR1
 40
0.0
  9
$USERR2
 40
0.0
  9
$USERR3
 40
0.0
  9
$USERR4
 40
0.0
  9
$USERR5
 40
0.0
  9
$WORLDVIEW
 70
     1
  9
$SHADEDGE
 70
     3
  9
$SHADEDIF
 70
    70
  9
$TILEMODE
 70
     1
  9
$MAXACTVP
 70
    64
  9
$PLIMCHECK
 70
     0
  9
$PEXTMIN
 10
1.0000000000000000E+020
 20
1.0000000000000000E+020
 30
1.0000000000000000E+020
  9
$PEXTMAX
 10
-1.0000000000000000E+020
 20
-1.0000000000000000E+020
 30
-1.0000000000000000E+020
  9
$PLIMMIN
 10
0.0
 20
0.0
  9
$PLIMMAX
 10
420.0
 20
297.0
  9
$UNITMODE
 70
     0
  9
$VISRETAIN
 70
     1
  9
$PLINEGEN
 70
     0
  9
$PSLTSCALE
 70
     1
  0
ENDSEC
  0
SECTION
  2
TABLES
  0
TABLE
  2
VPORT
 70
     1
  0
VPORT
  2
*ACTIVE
 70
     0
 10
0.0
 20
0.0
 11
1.0
 21
1.0
 12
494.04829994763497
 22
414.65627055787758
 13
0.0
 23
0.0
 14
7.5
 24
7.5
 15
30.0
 25
30.0
 16
0.0
 26
0.0
 36
1.0
 17
0.0
 27
0.0
 37
0.0
 40
571.72764638070896
 41
1.7571592210767459
 42
50.0
 43
0.0
 44
0.0
 50
0.0
 51
0.0
 71
     0
 72
   100
 73
     1
 74
     3
 75
     0
 76
     0
 77
     0
 78
     0
  0
ENDTAB
  0
TABLE
  2
LTYPE
 70
    26
  0
LTYPE
  2
CONTINUOUS
 70
     0
  3
Solid line
 72
    65
 73
     0
 40
0.0
  0
LTYPE
  2
AM_ISO02W050
 70
     0
  3
__ __ __ __ __ __ __ __ __ __ __ __ __ __ __
 72
    65
 73
     2
 40
7.5
 49
6.0
 49
-1.5
  0
LTYPE
  2
AM_ISO08W050
 70
     0
  3
____ . ____ . ____ . ____ . ____ . ____ . ____
 72
    65
 73
     4
 40
18.0
 49
12.0
 49
-1.5
 49
3.0
 49
-1.5
  0
LTYPE
  2
AM_ISO09W050
 70
     0
  3
_____ . . _____ . . _____ . . ____ .. ____
 72
    65
 73
     6
 40
22.5
 49
12.0
 49
-1.5
 49
3.0
 49
-1.5
 49
3.0
 49
-1.5
  0
LTYPE
  2
AMCONSTR
 70
     0
  3
_______________________
 72
    65
 73
     2
 40
9999.0
 49
9999.0
 49
0.0
  0
LTYPE
  2
AM_ISO08W050X2
 70
     0
  3
__ . __ . __ . __ . __ . __
 72
    65
 73
     4
 40
9.0
 49
6.0
 49
-0.75
 49
1.5
 49
-0.75
  0
LTYPE
  2
AM_ISO02W050X2
 70
     0
  3
 _ _ _ _ _ _ _ _ _ _ _ _
 72
    65
 73
     2
 40
3.75
 49
3.0
 49
-0.75
  0
LTYPE
  2
AMZIGZAG
 70
     0
  3
/\/-/\/-/\/-/\/-/\/-/\/
 72
    65
 73
     2
 40
11.000099999999991
 49
0.0001
 49
-11.0
  0
LTYPE
  2
ACISOWELD
 70
     0
  3
_ _ _ _ _
 72
    65
 73
     2
 40
2.0
 49
2.0
 49
-1.0
  0
LTYPE
  2
ACISOTGB
 70
     0
  3
__ . . __ . .
 72
    65
 73
     6
 40
9.0
 49
4.0
 49
-1.0
 49
1.0
 49
-1.0
 49
1.0
 49
-1.0
  0
LTYPE
  2
ACISOTGL
 70
     0
  3
_ _ _ _ _
 72
    65
 73
     2
 40
3.0
 49
2.0
 49
-1.0
  0
LTYPE
  2
CENTER
 70
     0
  3
__ . __
 72
    65
 73
     4
 40
7.0
 49
4.0
 49
-1.0
 49
1.0
 49
-1.0
  0
LTYPE
  2
PHANTOM2
 70
     0
  3
Phantom (.5x) ___ _ _ ___ _ _ ___ _ _ ___ _ _
 72
    65
 73
     6
 40
31.75
 49
15.875
 49
-3.174999999999998
 49
3.174999999999998
 49
-3.174999999999998
 49
3.174999999999998
 49
-3.174999999999998
  0
LTYPE
  2
ACANSTGBM
 70
     0
  3
__ . . __ . .
 72
    65
 73
     6
 40
9.0
 49
4.0
 49
-1.0
 49
1.0
 49
-1.0
 49
1.0
 49
-1.0
  0
LTYPE
  2
ACANSTGLM
 70
     0
  3
_ _ _ _ _
 72
    65
 73
     2
 40
3.0
 49
2.0
 49
-1.0
  0
LTYPE
  2
GEN7
 70
     0
  3
____ . ____ . ____ . ____ . ____ . ____ . ____
 72
    65
 73
     4
 40
14.25
 49
9.75
 49
-1.5
 49
1.5
 49
-1.5
  0
LTYPE
  2
GEN7A
 70
     0
  3
__ . __ . __
 72
    65
 73
     4
 40
7.375
 49
4.75
 49
-0.875
 49
0.875
 49
-0.875
  0
LTYPE
  2
ACJISTGB
 70
     0
  3
__ . . __ . .
 72
    65
 73
     6
 40
9.0
 49
4.0
 49
-1.0
 49
1.0
 49
-1.0
 49
1.0
 49
-1.0
  0
LTYPE
  2
ACJISTGL
 70
     0
  3
_ _ _ _ _
 72
    65
 73
     2
 40
3.0
 49
2.0
 49
-1.0
  0
LTYPE
  2
HIDDEN
 70
     0
  3
Hidden __ __ __ __ __ __ __ __ __ __ __ __ __ _
 72
    65
 73
     2
 40
0.375
 49
0.25
 49
-0.125
  0
LTYPE
  2
CENTER2
 70
     0
  3
Center (.5x) ___ _ ___ _ ___ _ ___ _ ___ _ ___
 72
    65
 73
     4
 40
1.125
 49
0.75
 49
-0.125
 49
0.125
 49
-0.125
  0
LTYPE
  2
HIDDEN2
 70
     0
  3
Hidden (.5x) _ _ _ _ _ _ _ _ _ _ _ _ _ _ _ _ _
 72
    65
 73
     2
 40
0.1875
 49
0.125
 49
-0.0625
  0
LTYPE
  2
AMZIGZAG2
 70
     0
  3
/\/-/\/-/\/-/\/-/\/-/\/
 72
    65
 73
     2
 40
0.4401
 49
0.0001
 49
-0.4400000000000002
  0
LTYPE
  2
ACANSTGB
 70
     0
  3
__ . . __ . .
 72
    65
 73
     6
 40
0.35433070866
 49
0.15748031496
 49
-0.03937007874
 49
0.03937007874
 49
-0.03937007874
 49
0.03937007874
 49
-0.03937007874
  0
LTYPE
  2
ACANSTGL
 70
     0
  3
_ _ _ _ _
 72
    65
 73
     2
 40
0.11811023622
 49
0.07874015748
 49
-0.03937007874
  0
ENDTAB
  0
TABLE
  2
LAYER
 70
     6
  0
LAYER
  2
0
 70
     0
 62
     7
  6
CONTINUOUS
  0
LAYER
  2
AM_0
 70
     0
 62
     7
  6
CONTINUOUS
  0
LAYER
  2
AM_5
 70
     0
 62
     2
  6
CONTINUOUS
  0
LAYER
  2
DEFPOINTS
 70
     0
 62
     7
  6
CONTINUOUS
  0
LAYER
  2
ﾁｭｳｼﾝｾﾝ
 70
     0
 62
     1
  6
GEN7
  0
LAYER
  2
ﾁｭｳｼﾝｾﾝ1
 70
     0
 62
     1
  6
GEN7A
  0
ENDTAB
  0
TABLE
  2
STYLE
 70
     9
  0
STYLE
  2
STANDARD
 70
     0
 40
0.0
 41
0.8299999999999999
 50
0.0
 71
     0
 42
2.5
  3
txt.shx
  4
bigfont.shx
  0
STYLE
  2
ANNOTATIVE
 70
     0
 40
0.0
 41
1.0
 50
0.0
 71
     0
 42
0.2
  3
txt
  4

  0
STYLE
  2

 70
     1
 40
0.0
 41
1.0
 50
0.0
 71
     0
 42
2.5
  3
ltypeshp.shx
  4

  0
STYLE
  2
ACISOTS
 70
     0
 40
1.0
 41
1.0
 50
0.0
 71
     0
 42
2.5
  3
isocp.shx
  4
extfont.shx
  0
STYLE
  2
ACISOGDT
 70
     0
 40
0.0
 41
1.0
 50
0.0
 71
     0
 42
2.5
  3
amgdt.shx
  4

  0
STYLE
  2
ACANSTS
 70
     0
 40
1.0
 41
1.0
 50
0.0
 71
     0
 42
2.5
  3
romans.shx
  4
bigfont.shx
  0
STYLE
  2
ACANSGDT
 70
     0
 40
0.0
 41
1.0
 50
0.0
 71
     0
 42
2.5
  3
amgdt.shx
  4

  0
STYLE
  2
ACJISTS
 70
     0
 40
1.0
 41
1.0
 50
0.0
 71
     0
 42
2.5
  3
isocp.shx
  4
bigfont.shx
  0
STYLE
  2
ACJISGDT
 70
     0
 40
0.0
 41
1.0
 50
0.0
 71
     0
 42
2.5
  3
amgdt.shx
  4

  0
ENDTAB
  0
TABLE
  2
VIEW
 70
     6
  0
VIEW
  2
AM_VIEW1
 70
     0
 40
277.49999999999989
 10
249.64779005524849
 20
416.24999999999989
 41
499.2955801104971
 11
0.0
 21
0.0
 31
1.0
 12
0.0
 22
0.0
 32
0.0
 42
50.0
 43
0.0
 44
0.0
 50
0.0
 71
     0
  0
VIEW
  2
AM_VIEW2
 70
     0
 40
277.49999999999989
 10
603.85220994475117
 20
416.24999999999989
 41
499.2955801104971
 11
0.0
 21
0.0
 31
1.0
 12
0.0
 22
0.0
 32
0.0
 42
50.0
 43
0.0
 44
0.0
 50
0.0
 71
     0
  0
VIEW
  2
AM_VIEW3
 70
     0
 40
277.49999999999989
 10
249.64779005524849
 20
138.7499999999998
 41
499.2955801104971
 11
0.0
 21
0.0
 31
1.0
 12
0.0
 22
0.0
 32
0.0
 42
50.0
 43
0.0
 44
0.0
 50
0.0
 71
     0
  0
VIEW
  2
AM_VIEW4
 70
     0
 40
277.49999999999989
 10
603.85220994475117
 20
138.7499999999998
 41
499.2955801104971
 11
0.0
 21
0.0
 31
1.0
 12
0.0
 22
0.0
 32
0.0
 42
50.0
 43
0.0
 44
0.0
 50
0.0
 71
     0
  0
VIEW
  2
AM_VIEW5
 70
     0
 40
277.5
 10
426.75
 20
277.49999999999989
 41
499.2955801104971
 11
0.0
 21
0.0
 31
1.0
 12
0.0
 22
0.0
 32
0.0
 42
50.0
 43
0.0
 44
0.0
 50
0.0
 71
     0
  0
VIEW
  2
AM_VIEW6
 70
     0
 40
554.99445000000014
 10
426.75
 20
277.49999999999989
 41
998.5811743093924
 11
0.0
 21
0.0
 31
1.0
 12
0.0
 22
0.0
 32
0.0
 42
50.0
 43
0.0
 44
0.0
 50
0.0
 71
     0
  0
ENDTAB
  0
TABLE
  2
UCS
 70
     0
  0
ENDTAB
  0
TABLE
  2
APPID
 70
    95
  0
APPID
  2
ACAD
 70
     0
  0
APPID
  2
ACADANNOTATIVE
 70
     0
  0
APPID
  2
MCAD_NO_VIS
 70
     0
  0
APPID
  2
ACAD_TEMP_GRAPHIC
 70
     0
  0
APPID
  2
ACATTRIBSERVICES
 70
     0
  0
APPID
  2
GENIUS_GENREC_14
 70
     0
  0
APPID
  2
GENIUS_GENOBJ-N-REC_13
 70
     0
  0
APPID
  2
GENIUS_GENODEF_13
 70
     0
  0
APPID
  2
GENIUS_GENOLIS_13
 70
     0
  0
APPID
  2
GENIUS_GENOBJ-N-TIT_13
 70
     0
  0
APPID
  2
GENIUS_GENOENT_13
 70
     0
  0
APPID
  2
GENIUS_GENTITLE_13
 70
     0
  0
APPID
  2
GENIUS_GENOREF_13
 70
     0
  0
APPID
  2
GENIUS_GENSCREG_15
 70
     0
  0
APPID
  2
GENIUS_GENOBJ-N-SDF_13
 70
     0
  0
APPID
  2
GENIUS_GENFIL_13
 70
     0
  0
APPID
  2
GENIUS_GENOBJ-N-CHA_13
 70
     0
  0
APPID
  2
GENIUS_GENDTOL_13
 70
     0
  0
APPID
  2
GENIUS_GENOBJ-N-FIL_13
 70
     0
  0
APPID
  2
AD_DRAW
 70
     0
  0
APPID
  2
DESIGNERASSEMBLIES
 70
     0
  0
APPID
  2
ASURF_PCURVE_APPNAME
 70
     0
  0
APPID
  2
GENIUS_GE3SECT_13
 70
     0
  0
APPID
  2
GENIUS_GENCFG_13
 70
     0
  0
APPID
  2
GENIUS_GE3CFG0_13
 70
     0
  0
APPID
  2
GENIUS_GENCFG0_13
 70
     0
  0
APPID
  2
GENIUS_GENCFG1_13
 70
     0
  0
APPID
  2
GENIUS_GENCFG2_13
 70
     0
  0
APPID
  2
GENIUS_GENCFG3_13
 70
     0
  0
APPID
  2
GENIUS_GENCFG4_13
 70
     0
  0
APPID
  2
GENIUS_GEVCFG0_13
 70
     0
  0
APPID
  2
GENIUS_GENHINW_13
 70
     0
  0
APPID
  2
GENIUS_FIRSTVISTXT_14
 70
     0
  0
APPID
  2
GENIUS_GENOBJ-N-LEADER_13
 70
     0
  0
APPID
  2
GEV_VCCNULL_SWITCH_OFF
 70
     0
  0
APPID
  2
GENIUS_GEFCFG0_13
 70
     0
  0
APPID
  2
GENIUS_GENZVEED_13
 70
     0
  0
APPID
  2
GENIUS_GENSCREG_13
 70
     0
  0
APPID
  2
GENIUS_DUMCFG0_13
 70
     0
  0
APPID
  2
GEVID936201362
 70
     0
  0
APPID
  2
GEVDC
 70
     0
  0
APPID
  2
GEVCON
 70
     0
  0
APPID
  2
VCC
 70
     0
  0
APPID
  2
GEVPT
 70
     0
  0
APPID
  2
GEVIT
 70
     0
  0
APPID
  2
GENBH
 70
     0
  0
APPID
  2
GEVMK
 70
     0
  0
APPID
  2
GENIUS_GENBH_13
 70
     0
  0
APPID
  2
GENIUS_GENOBJ-NBEHI-BHF_13
 70
     0
  0
APPID
  2
GENIUS_GENOBJ-NBEHI-BHB_13
 70
     0
  0
APPID
  2
GENIUS_GENOBJ-F-DESC_13
 70
     0
  0
APPID
  2
GENIUS_GEFDESC_14
 70
     0
  0
APPID
  2
GENIUS_GENOBJ-F-PART_13
 70
     0
  0
APPID
  2
GENIUS_GEFSTDP_13
 70
     0
  0
APPID
  2
GENIUS_GEFPARTINS_13
 70
     0
  0
APPID
  2
GENIUS_GENTRA_14
 70
     0
  0
APPID
  2
GENIUS_GENINF13_13
 70
     0
  0
APPID
  2
GENIUS_GENOBJ-N-INFOPT_13
 70
     0
  0
APPID
  2
GENIUS_GENOBJ-N-RSSYM_13
 70
     0
  0
APPID
  2
GENIUS_GENSYMENT_13
 70
     0
  0
APPID
  2
GENIUS_GENSCSYM_13
 70
     0
  0
APPID
  2
GENIUS_GEFINFNAM_13
 70
     0
  0
APPID
  2
GENIUS_GENOBJ-N-CEN_13
 70
     0
  0
APPID
  2
GENIUS_GENOBJ-N-CRS_13
 70
     0
  0
APPID
  2
GENIUS_GENOBJ-N-CRC_13
 70
     0
  0
APPID
  2
GENIUS_GENCRC_14
 70
     0
  0
APPID
  2
GEVID942827039
 70
     0
  0
APPID
  2
GEVID942827040
 70
     0
  0
APPID
  2
GEVID942827041
 70
     0
  0
APPID
  2
GENIUS_GENOBJ-F-SCPASSM_13
 70
     0
  0
APPID
  2
GENIUS_GENDIMSH_14
 70
     0
  0
APPID
  2
GEVID942827042
 70
     0
  0
APPID
  2
GEVID946020473
 70
     0
  0
APPID
  2
GEVID946020474
 70
     0
  0
APPID
  2
GEVID946020475
 70
     0
  0
APPID
  2
GENIUS_GENOBJ-N-HTC_13
 70
     0
  0
APPID
  2
GENIUS_GENHATCH_13
 70
     0
  0
APPID
  2
GEVID948854295
 70
     0
  0
APPID
  2
GEVID939402019
 70
     0
  0
APPID
  2
GEVID952919491
 70
     0
  0
APPID
  2
GEVID952919492
 70
     0
  0
APPID
  2
GENIUS_GEFWELD_13
 70
     0
  0
APPID
  2
GENIUS_GENOBJ-F-WELS_13
 70
     0
  0
APPID
  2
GEVID952919493
 70
     0
  0
APPID
  2
GENIUS_GENOBJ-N-RSBK_13
 70
     0
  0
APPID
  2
GENIUS_GENOBJ-N-LIB_13
 70
     0
  0
APPID
  2
GENIUS_GENSCALE_13
 70
     0
  0
APPID
  2
GEVID986376691
 70
     0
  0
APPID
  2
DCO15
 70
     0
  0
APPID
  2
ACAD_DSTYLE_DIMBREAK
 70
     0
  0
APPID
  2
ACAD_DSTYLE_DIMJAG
 70
     0
  0
APPID
  2
ACAD_NAV_VCDISPLAY
 70
     0
  0
APPID
  2
ACADANNOPO
 70
     0
  0
APPID
  2
ACAD_EXEMPT_FROM_CAD_STANDARDS
 70
     0
  0
APPID
  2
ACAD_MLEADERVER
 70
     0
  0
ENDTAB
  0
TABLE
  2
DIMSTYLE
 70
    22
  0
DIMSTYLE
  2
STANDARD
 70
     0
  3

  4

  5

  6

  7

 40
1.0
 41
0.18
 42
0.0625
 43
0.38
 44
0.18
 45
0.0
 46
0.0
 47
0.0
 48
0.0
140
0.18
141
0.09
142
0.0
143
25.399999999999999
144
1.0
145
0.0
146
1.0
147
0.09
 71
     0
 72
     0
 73
     1
 74
     1
 75
     0
 76
     0
 77
     0
 78
     0
170
     0
171
     2
172
     0
173
     0
174
     0
175
     0
176
     0
177
     0
178
     0
  0
DIMSTYLE
  2
ANNOTATIVE
 70
     0
  3

  4

  5

  6

  7

 40
1.0
 41
0.18
 42
0.0625
 43
0.38
 44
0.18
 45
0.0
 46
0.0
 47
0.0
 48
0.0
140
0.18
141
0.09
142
0.0
143
25.399999999999999
144
1.0
145
0.0
146
1.0
147
0.09
 71
     0
 72
     0
 73
     1
 74
     1
 75
     0
 76
     0
 77
     0
 78
     0
170
     0
171
     2
172
     0
173
     0
174
     0
175
     0
176
     0
177
     0
178
     0
  0
DIMSTYLE
  2
AM_ISO
 70
     0
  3

  4
"
  5

  6

  7

 40
1.0
 41
2.5
 42
1.0
 43
8.0
 44
0.6
 45
0.0
 46
0.0
 47
0.1
 48
0.1
140
2.5
141
0.0
142
0.0
143
0.0393701
144
1.0
145
0.0
146
0.71
147
0.8
 71
     0
 72
     0
 73
     0
 74
     0
 75
     0
 76
     0
 77
     1
 78
     8
170
     0
171
     2
172
     1
173
     0
174
     0
175
     0
176
   256
177
   256
178
     4
  0
DIMSTYLE
  2
AM_ISO$3
 70
     0
  3

  4
"
  5

  6

  7

 40
1.0
 41
2.5
 42
1.0
 43
8.0
 44
0.6
 45
0.0
 46
0.0
 47
0.1
 48
0.1
140
2.5
141
0.0
142
0.0
143
0.0393701
144
1.0
145
0.0
146
0.71
147
0.8
 71
     0
 72
     0
 73
     0
 74
     1
 75
     0
 76
     0
 77
     1
 78
     8
170
     0
171
     2
172
     0
173
     0
174
     0
175
     0
176
   256
177
   256
178
     4
  0
DIMSTYLE
  2
AM_ISO$4
 70
     0
  3

  4
"
  5

  6

  7

 40
1.0
 41
2.5
 42
1.0
 43
8.0
 44
0.6
 45
0.0
 46
0.0
 47
0.1
 48
0.1
140
2.5
141
0.0
142
0.0
143
0.0393701
144
1.0
145
0.0
146
0.71
147
0.8
 71
     0
 72
     0
 73
     0
 74
     1
 75
     0
 76
     0
 77
     1
 78
     8
170
     0
171
     2
172
     0
173
     0
174
     0
175
     0
176
   256
177
   256
178
     4
  0
DIMSTYLE
  2
AM_ISO$6
 70
     0
  3

  4
"
  5

  6

  7

 40
1.0
 41
2.5
 42
1.0
 43
8.0
 44
0.6
 45
0.0
 46
0.0
 47
0.1
 48
0.1
140
2.5
141
0.0
142
0.0
143
0.0393701
144
1.0
145
0.0
146
0.71
147
0.8
 71
     0
 72
     0
 73
     0
 74
     0
 75
     0
 76
     0
 77
     0
 78
     8
170
     0
171
     2
172
     1
173
     0
174
     0
175
     0
176
   256
177
   256
178
     4
  0
DIMSTYLE
  2
AM_ISO$7
 70
     0
  3

  4
"
  5

  6

  7

 40
1.0
 41
2.5
 42
1.0
 43
8.0
 44
0.6
 45
0.0
 46
0.0
 47
0.1
 48
0.1
140
2.5
141
0.0
142
0.0
143
0.0393701
144
1.0
145
0.0
146
0.71
147
0.8
 71
     0
 72
     0
 73
     0
 74
     0
 75
     0
 76
     0
 77
     1
 78
     8
170
     0
171
     2
172
     1
173
     0
174
     0
175
     0
176
   256
177
   256
178
     4
  0
DIMSTYLE
  2
AM_ISO$SF
 70
     0
  3

  4
"
  5

  6

  7

 40
1.0
 41
2.5
 42
1.0
 43
10.0
 44
1.0
 45
0.0
 46
0.0
 47
0.1
 48
0.1
140
3.5
141
0.0
142
0.0
143
0.0393701
144
1.0
145
0.0
146
0.71
147
1.5
 71
     0
 72
     0
 73
     0
 74
     0
 75
     1
 76
     1
 77
     1
 78
     8
170
     0
171
     2
172
     1
173
     0
174
     0
175
     0
176
   256
177
   256
178
     2
  0
DIMSTYLE
  2
AM_ISO$SH
 70
     0
  3

  4
"
  5

  6

  7

 40
1.0
 41
2.5
 42
1.0
 43
10.0
 44
1.0
 45
0.0
 46
0.0
 47
0.1
 48
0.1
140
3.5
141
0.0
142
0.0
143
0.0393701
144
2.0
145
0.0
146
0.71
147
1.5
 71
     0
 72
     0
 73
     0
 74
     0
 75
     1
 76
     1
 77
     1
 78
     8
170
     0
171
     2
172
     1
173
     1
174
     0
175
     0
176
   256
177
   256
178
     2
  0
DIMSTYLE
  2
AM_JIS
 70
     0
  3

  4
"
  5

  6

  7

 40
1.0
 41
2.5
 42
1.0
 43
7.0
 44
1.0
 45
0.0
 46
0.0
 47
0.1
 48
0.1000000001
140
2.5
141
0.0
142
0.0
143
0.0393701
144
1.0
145
0.0
146
0.71
147
1.0
 71
     0
 72
     0
 73
     0
 74
     0
 75
     0
 76
     0
 77
     3
 78
     8
170
     0
171
     2
172
     1
173
     0
174
     0
175
     0
176
   256
177
   256
178
     4
  0
DIMSTYLE
  2
AM_JIS$3
 70
     0
  3

  4
"
  5

  6

  7

 40
1.0
 41
2.5
 42
1.0
 43
7.0
 44
1.0
 45
0.0
 46
0.0
 47
0.1
 48
0.1000000001
140
2.5
141
0.0
142
0.0
143
0.0393701
144
1.0
145
0.0
146
0.71
147
1.0
 71
     0
 72
     0
 73
     0
 74
     1
 75
     0
 76
     0
 77
     3
 78
     8
170
     0
171
     2
172
     0
173
     0
174
     0
175
     0
176
   256
177
   256
178
     4
  0
DIMSTYLE
  2
AM_JIS$4
 70
     0
  3

  4
"
  5

  6

  7

 40
1.0
 41
2.5
 42
1.0
 43
7.0
 44
1.0
 45
0.0
 46
0.0
 47
0.1
 48
0.1000000001
140
2.5
141
0.0
142
0.0
143
0.0393701
144
1.0
145
0.0
146
0.71
147
1.0
 71
     0
 72
     0
 73
     0
 74
     0
 75
     0
 76
     0
 77
     3
 78
     8
170
     0
171
     2
172
     0
173
     0
174
     0
175
     0
176
   256
177
   256
178
     4
  0
DIMSTYLE
  2
AM_JIS$6
 70
     0
  3

  4
"
  5

  6

  7

 40
1.0
 41
2.5
 42
1.0
 43
7.0
 44
1.0
 45
0.0
 46
0.0
 47
0.1
 48
0.1000000001
140
2.5
141
0.0
142
0.0
143
0.0393701
144
1.0
145
0.0
146
0.71
147
1.0
 71
     0
 72
     0
 73
     0
 74
     0
 75
     0
 76
     0
 77
     0
 78
     8
170
     0
171
     2
172
     1
173
     0
174
     0
175
     0
176
   256
177
   256
178
     4
  0
DIMSTYLE
  2
AM_JIS$7
 70
     0
  3

  4
"
  5

  6

  7

 40
1.0
 41
2.5
 42
1.0
 43
7.0
 44
1.0
 45
0.0
 46
0.0
 47
0.1
 48
0.1000000001
140
2.5
141
0.0
142
0.0
143
0.0393701
144
1.0
145
0.0
146
0.71
147
1.0
 71
     0
 72
     0
 73
     0
 74
     0
 75
     0
 76
     0
 77
     3
 78
     8
170
     0
171
     2
172
     1
173
     0
174
     0
175
     0
176
   256
177
   256
178
     4
  0
DIMSTYLE
  2
AM_JIS$SF
 70
     0
  3

  4
"
  5

  6

  7

 40
1.0
 41
2.5
 42
1.0
 43
10.0
 44
1.0
 45
0.0
 46
0.0
 47
0.1
 48
0.1
140
3.5
141
0.0
142
0.0
143
0.0393701
144
1.0
145
0.0
146
0.71
147
1.5
 71
     0
 72
     0
 73
     0
 74
     0
 75
     1
 76
     1
 77
     3
 78
     8
170
     0
171
     2
172
     1
173
     0
174
     0
175
     0
176
   256
177
   256
178
     4
  0
DIMSTYLE
  2
AM_JIS$SH
 70
     0
  3

  4
"
  5

  6

  7

 40
1.0
 41
2.5
 42
1.0
 43
10.0
 44
1.0
 45
0.0
 46
0.0
 47
0.1
 48
0.1
140
3.5
141
0.0
142
0.0
143
0.0393701
144
1.0
145
0.0
146
0.71
147
1.5
 71
     0
 72
     0
 73
     0
 74
     0
 75
     1
 76
     0
 77
     3
 78
     8
170
     0
171
     2
172
     1
173
     1
174
     0
175
     0
176
   256
177
   256
178
     4
  0
DIMSTYLE
  2
AM_ANSI
 70
     0
  3

  4
mm
  5

  6

  7

 40
1.0
 41
0.1
 42
0.05
 43
0.5
 44
0.1
 45
0.0
 46
0.0
 47
0.1
 48
0.1
140
0.12
141
0.0
142
0.0
143
25.399999999999999
144
1.0
145
0.0
146
0.71
147
0.06
 71
     0
 72
     0
 73
     1
 74
     1
 75
     0
 76
     0
 77
     0
 78
     7
170
     0
171
     2
172
     0
173
     0
174
     0
175
     0
176
   256
177
   256
178
     2
  0
DIMSTYLE
  2
AM_ANSI$3
 70
     0
  3

  4
mm
  5

  6

  7

 40
1.0
 41
0.1
 42
0.05
 43
0.5
 44
0.1
 45
0.0
 46
0.0
 47
0.1
 48
0.1
140
0.12
141
0.0
142
0.0
143
25.399999999999999
144
1.0
145
0.0
146
0.71
147
0.06
 71
     0
 72
     0
 73
     1
 74
     1
 75
     0
 76
     0
 77
     0
 78
     7
170
     0
171
     2
172
     0
173
     0
174
     0
175
     0
176
   256
177
   256
178
     2
  0
DIMSTYLE
  2
AM_ANSI$4
 70
     0
  3

  4
mm
  5

  6

  7

 40
1.0
 41
0.1
 42
0.05
 43
0.5
 44
0.1
 45
0.0
 46
0.0
 47
0.1
 48
0.1
140
0.12
141
0.0
142
0.0
143
25.399999999999999
144
1.0
145
0.0
146
0.71
147
0.06
 71
     0
 72
     0
 73
     1
 74
     1
 75
     0
 76
     0
 77
     0
 78
     7
170
     0
171
     2
172
     0
173
     0
174
     0
175
     0
176
   256
177
   256
178
     2
  0
DIMSTYLE
  2
AM_ANSI$7
 70
     0
  3

  4
mm
  5

  6

  7

 40
1.0
 41
0.1
 42
0.05
 43
0.5
 44
0.1
 45
0.0
 46
0.0
 47
0.1
 48
0.1
140
0.24
141
0.0
142
0.0
143
25.399999999999999
144
1.0
145
0.0
146
0.71
147
0.06
 71
     0
 72
     0
 73
     1
 74
     1
 75
     0
 76
     0
 77
     0
 78
     7
170
     0
171
     2
172
     0
173
     0
174
     0
175
     0
176
   256
177
   256
178
     2
  0
DIMSTYLE
  2
AM_ANSI$SF
 70
     0
  3

  4
mm
  5

  6

  7

 40
1.0
 41
0.1
 42
0.05
 43
0.5
 44
0.1
 45
0.0
 46
0.0
 47
0.1
 48
0.1
140
0.12
141
0.0
142
0.0
143
25.399999999999999
144
1.0
145
0.0
146
0.71
147
0.06
 71
     0
 72
     0
 73
     1
 74
     1
 75
     1
 76
     1
 77
     0
 78
     7
170
     0
171
     2
172
     0
173
     0
174
     0
175
     0
176
   256
177
   256
178
     2
  0
DIMSTYLE
  2
AM_ANSI$SH
 70
     0
  3

  4
mm
  5

  6

  7

 40
1.0
 41
0.1
 42
0.05
 43
0.5
 44
0.1
 45
0.0
 46
0.0
 47
0.1
 48
0.1
140
0.12
141
0.0
142
0.0
143
25.399999999999999
144
1.0
145
0.0
146
0.71
147
0.06
 71
     0
 72
     0
 73
     1
 74
     1
 75
     1
 76
     1
 77
     0
 78
     7
170
     0
171
     2
172
     0
173
     1
174
     0
175
     0
176
   256
177
   256
178
     2
  0
ENDTAB
  0
ENDSEC
  0
SECTION
  2
BLOCKS
  0
BLOCK
  8
0
  2
$MODEL_SPACE
 70
     0
 10
0.0
 20
0.0
 30
0.0
  3
$MODEL_SPACE
  1

  0
ENDBLK
  5
2F67
  8
0
  0
BLOCK
 67
     1
  8
0
  2
$PAPER_SPACE
 70
     0
 10
0.0
 20
0.0
 30
0.0
  3
$PAPER_SPACE
  1

  0
ENDBLK
  5
2F63
 67
     1
  8
0
  0
BLOCK
  8
0
  2
GENAXEH
 70
     0
 10
0.0
 20
0.0
 30
0.0
  3
GENAXEH
  1

  0
LINE
  5
2D6F
  8
0
 10
-1.0
 20
0.0
 30
0.0
 11
1.0
 21
0.0
 31
0.0
  0
ENDBLK
  5
2D70
  8
0
  0
BLOCK
  8
0
  2
_OPEN30
 70
     0
 10
0.0
 20
0.0
 30
0.0
  3
_OPEN30
  1

  0
LINE
  5
2D73
  8
0
 62
     0
 10
-1.0
 20
0.26794919
 30
0.0
 11
0.0
 21
0.0
 31
0.0
  0
LINE
  5
2D74
  8
0
 62
     0
 10
0.0
 20
0.0
 30
0.0
 11
-1.0
 21
-0.26794919
 31
0.0
  0
LINE
  5
2D75
  8
0
 62
     0
 10
0.0
 20
0.0
 30
0.0
 11
-1.0
 21
0.0
 31
0.0
  0
ENDBLK
  5
2D76
  8
0
  0
BLOCK
  8
0
  2
_NONE
 70
     0
 10
0.0
 20
0.0
 30
0.0
  3
_NONE
  1

  0
ENDBLK
  5
2D79
  8
0
  0
BLOCK
  8
0
  2
*U5
 70
     1
 10
0.0
 20
0.0
 30
0.0
  3
*U5
  1

  0
TEXT
  5
2D7C
  8
AM_0
 62
     4
 10
183.1737019050008
 20
220.94117499999999
 30
0.0
 40
7.5
  1
\U+2205
 50
90.0
 41
0.8299999999999999
  0
TEXT
  5
2D7D
  8
AM_0
 62
     4
 10
183.1737019050008
 20
227.16617500000001
 30
0.0
 40
7.5
  1
160
 50
90.0
 41
0.8299999999999999
  0
ENDBLK
  5
2D7E
  8
0
  0
BLOCK
  8
0
  2
*U6
 70
     1
 10
0.0
 20
0.0
 30
0.0
  3
*U6
  1

  0
TEXT
  5
2D81
  8
AM_0
 62
     4
 10
203.10676800052281
 20
216.79117500000001
 30
0.0
 40
7.5
  1
\U+2205
 50
90.0
 41
0.8299999999999999
  0
TEXT
  5
2D82
  8
AM_0
 62
     4
 10
203.10676800052281
 20
223.01617500000009
 30
0.0
 40
7.5
  1
110
 50
90.0
 41
0.8299999999999999
  0
TEXT
  5
2D83
  8
AM_0
 62
     4
 10
203.10676800052281
 20
236.50367499999999
 30
0.0
 40
6.0
  1
G7
 50
90.0
 41
0.8299999999999999
  0
ENDBLK
  5
2D84
  8
0
  0
BLOCK
  8
0
  2
*U7
 70
     1
 10
0.0
 20
0.0
 30
0.0
  3
*U7
  1

  0
TEXT
  5
2D87
  8
AM_0
 62
     4
 10
472.66083130285369
 20
174.57387397656831
 30
0.0
 40
7.5
  1
\U+2205
 50
90.0
 41
0.8299999999999999
  0
TEXT
  5
2D88
  8
AM_0
 62
     4
 10
472.66083130285369
 20
180.7988739765683
 30
0.0
 40
7.5
  1
210
 50
90.0
 41
0.8299999999999999
  0
TEXT
  5
2D89
  8
AM_0
 62
     4
 10
472.66083130285369
 20
196.3613739765681
 30
0.0
 40
6.0
  1
h7
 50
90.0
 41
0.8299999999999999
  0
ENDBLK
  5
2D8A
  8
0
  0
BLOCK
  8
0
  2
*U8
 70
     1
 10
0.0
 20
0.0
 30
0.0
  3
*U8
  1

  0
TEXT
  5
2D8D
  8
AM_0
 62
     4
 10
648.88972208626683
 20
415.871488729921
 30
0.0
 40
7.5
  1
o
 41
0.8299999999999999
  0
TEXT
  5
2D8E
  8
AM_0
 62
     4
 10
656.30043637198116
 20
415.871488729921
 30
0.0
 40
7.5
  1
 235
 41
0.8299999999999999
  0
ENDBLK
  5
2D8F
  8
0
  0
BLOCK
  8
0
  2
*U9
 70
     1
 10
0.0
 20
0.0
 30
0.0
  3
*U9
  1

  0
TEXT
  5
2D92
  8
AM_0
 62
     4
 10
143.91911976743401
 20
221.54789408814551
 30
0.0
 40
7.5
  1
\U+2205
 50
90.0
 41
0.8299999999999999
  0
TEXT
  5
2D93
  8
AM_0
 62
     4
 10
143.91911976743401
 20
227.77289408814559
 30
0.0
 40
7.5
  1
110
 50
90.0
 41
0.8299999999999999
  0
TEXT
  5
2D94
  8
AM_0
 62
     4
 10
143.91911976743401
 20
241.2603940881456
 30
0.0
 40
6.0
  1
G7
 50
90.0
 41
0.8299999999999999
  0
ENDBLK
  5
2D95
  8
0
  0
BLOCK
  8
0
  2
*U10
 70
     1
 10
0.0
 20
0.0
 30
0.0
  3
*U10
  1

  0
TEXT
  5
2D98
  8
AM_0
 62
     4
 10
123.9860536719119
 20
225.6978940881456
 30
0.0
 40
7.5
  1
\U+2205
 50
90.0
 41
0.8299999999999999
  0
TEXT
  5
2D99
  8
AM_0
 62
     4
 10
123.9860536719119
 20
231.9228940881456
 30
0.0
 40
7.5
  1
160
 50
90.0
 41
0.8299999999999999
  0
ENDBLK
  5
2D9A
  8
0
  0
BLOCK
  8
0
  2
*U11
 70
     1
 10
0.0
 20
0.0
 30
0.0
  3
*U11
  1

  0
TEXT
  5
2D9D
  8
AM_0
 62
     4
 10
413.47318306976467
 20
179.33059306471381
 30
0.0
 40
7.5
  1
\U+2205
 50
90.0
 41
0.8299999999999999
  0
TEXT
  5
2D9E
  8
AM_0
 62
     4
 10
413.47318306976467
 20
185.5555930647138
 30
0.0
 40
7.5
  1
210
 50
90.0
 41
0.8299999999999999
  0
TEXT
  5
2D9F
  8
AM_0
 62
     4
 10
413.47318306976467
 20
201.11809306471361
 30
0.0
 40
6.0
  1
h7
 50
90.0
 41
0.8299999999999999
  0
ENDBLK
  5
2DA0
  8
0
  0
BLOCK
  8
0
  2
*U12
 70
     1
 10
0.0
 20
0.0
 30
0.0
  3
*U12
  1

  0
TEXT
  5
2DA3
  8
AM_0
 62
     4
 10
589.70207385317815
 20
420.62820781806658
 30
0.0
 40
7.5
  1
o
 41
0.8299999999999999
  0
TEXT
  5
2DA4
  8
AM_0
 62
     4
 10
597.11278813889226
 20
420.62820781806658
 30
0.0
 40
7.5
  1
 235
 41
0.8299999999999999
  0
ENDBLK
  5
2DA5
  8
0
  0
BLOCK
  8
0
  2
_ACMFILLEDHALF
 70
     0
 10
0.0
 20
0.0
 30
0.0
  3
_ACMFILLEDHALF
  1

  0
TRACE
  5
306D
  8
AM_0
 62
     0
 10
-0.8
 20
0.0
 30
0.0
 11
-1.0
 21
0.166666666
 31
0.0
 12
0.0
 22
0.0
 32
0.0
 13
0.0
 23
0.0
 33
0.0
  0
LINE
  5
306E
  8
AM_0
 62
     0
 10
-1.0
 20
0.0
 30
0.0
 11
-0.8
 21
0.0
 31
0.0
  0
ENDBLK
  5
306C
  8
0
  0
ENDSEC
  0
SECTION
  2
ENTITIES
  0
LINE
  5
2DA7
  8
AM_0
 10
388.59282398434402
 20
576.0474281500783
 30
0.0
 11
433.59285398434389
 21
576.0474281500783
 31
0.0
  0
LINE
  5
2DA8
  8
AM_0
 10
388.59282398434402
 20
586.04739815007827
 30
0.0
 11
433.59285398434389
 21
586.04739815007827
 31
0.0
  0
LINE
  5
2DA9
  8
AM_0
 10
433.59285398434389
 20
565.04745815007846
 30
0.0
 11
375.59282398434402
 21
565.04745815007846
 31
0.0
  0
LINE
  5
2DAA
  8
AM_0
 10
433.59285398434389
 20
597.04745815007846
 30
0.0
 11
375.59282398434402
 21
597.04745815007846
 31
0.0
  0
LINE
  5
2DAB
  8
ﾁｭｳｼﾝｾﾝ
 10
166.21043638105601
 20
581.04739815007827
 30
0.0
 11
441.50563398434389
 21
581.04739815007827
 31
0.0
  0
POLYLINE
  5
2DAC
  8
AM_0
 66
     1
 10
0.0
 20
0.0
 30
0.0
  0
VERTEX
  5
2DAD
  8
AM_0
 10
349.25893398434403
 20
683.71352815007845
 30
0.0
 42
0.079826728
  0
VERTEX
  5
2DAE
  8
AM_0
 10
323.4171039843439
 20
616.80708815007824
 30
0.0
 42
0.10414858
  0
VERTEX
  5
2DAF
  8
AM_0
 10
323.41717398434372
 20
545.28735815007815
 30
0.0
 42
0.079826255
  0
VERTEX
  5
2DB0
  8
AM_0
 10
349.25893398434403
 20
478.38128815007821
 30
0.0
  0
SEQEND
  5
2DB1
  8
AM_0
  0
ARC
  5
2DB2
  8
AM_0
 10
388.59282398434402
 20
581.04739815007827
 30
0.0
 40
5.0
 50
90.000003000000945
 51
270.0
  0
LINE
  5
2DB3
  8
AM_0
 10
388.59282398434402
 20
586.04739815007827
 30
0.0
 11
388.59282398434402
 21
576.0474281500783
 31
0.0
  0
LINE
  5
2DB4
  8
AM_0
 10
356.59282398434402
 20
466.96829815007823
 30
0.0
 11
356.59282398434402
 21
695.12655815007827
 31
0.0
  0
LINE
  5
2DB5
  8
AM_0
 10
363.59282398434402
 20
490.44769815007822
 30
0.0
 11
363.59282398434402
 21
671.64718815007825
 31
0.0
  0
LINE
  5
2DB6
  8
AM_0
 10
371.59282398434402
 20
463.5474281500783
 30
0.0
 11
371.59282398434402
 21
698.54745815007846
 31
0.0
  0
LINE
  5
2DB7
  8
AM_0
 10
375.59282398434402
 20
476.04739815007832
 30
0.0
 11
375.59282398434402
 21
686.04745815007846
 31
0.0
  0
LINE
  5
2DB8
  8
AM_0
 10
221.0927639843438
 20
645.0473831500783
 30
0.0
 11
221.0927639843438
 21
517.0473831500783
 31
0.0
  0
LINE
  5
2DB9
  8
AM_0
 10
248.5927639843438
 20
483.82803815007833
 30
0.0
 11
248.5927639843438
 21
678.26681815007851
 31
0.0
  0
LINE
  5
2DBA
  8
AM_0
 10
233.5927639843438
 20
509.11849815007832
 30
0.0
 11
233.5927639843438
 21
652.97634815007837
 31
0.0
  0
LINE
  5
2DBB
  8
AM_0
 10
258.59276398434378
 20
481.54742815007847
 30
0.0
 11
258.59276398434378
 21
680.54739815007827
 31
0.0
  0
LINE
  5
2DBC
  8
AM_0
 10
258.59288398434398
 20
481.54742815007847
 30
0.0
 11
347.29058398434398
 21
478.4500481500782
 31
0.0
  0
ARC
  5
2DBD
  8
AM_0
 10
250.5927639843438
 20
483.82803815007833
 30
0.0
 40
2.0
 50
179.9999899999988
 51
268.00000999999861
  0
LINE
  5
2DBE
  8
AM_0
 10
250.52294398434381
 20
481.82925815007832
 30
0.0
 11
258.59276398434378
 21
481.54742815007847
 31
0.0
  0
LINE
  5
2DBF
  8
AM_0
 10
221.09282398434391
 20
517.54736815007846
 30
0.0
 11
228.7673239843439
 21
517.27941815007819
 31
0.0
  0
LINE
  5
2DC0
  8
AM_0
 10
221.0927639843438
 20
529.00741815007825
 30
0.0
 11
233.5927639843438
 21
529.00741815007825
 31
0.0
  0
ARC
  5
2DC1
  8
AM_0
 10
238.59276398434389
 20
509.11849815007832
 30
0.0
 40
5.0
 50
179.9999899999988
 51
225.0
  0
LINE
  5
2DC2
  8
AM_0
 10
235.0572439843439
 20
505.5829781500783
 30
0.0
 11
247.71410398434381
 21
492.92614815007818
 31
0.0
  0
ARC
  5
2DC3
  8
AM_0
 10
245.5927639843438
 20
490.80477815007828
 30
0.0
 40
3.0
 50
0.0
 51
44.999998000001611
  0
ARC
  5
2DC4
  8
AM_0
 10
228.59276398434389
 20
512.28246815007833
 30
0.0
 40
5.0
 50
0.0
 51
87.999999999999503
  0
LINE
  5
2DC5
  8
AM_0
 10
221.0927639843438
 20
543.89742815007833
 30
0.0
 11
233.5927639843438
 21
543.89742815007833
 31
0.0
  0
LINE
  5
2DC6
  8
AM_0
 10
359.48815398434402
 20
463.97012815007838
 30
0.0
 11
371.59282398434402
 21
463.5474281500783
 31
0.0
  0
LINE
  5
2DC7
  8
AM_0
 10
350.65163398434368
 20
476.98858815007821
 30
0.0
 11
356.59285398434372
 21
471.04736815007851
 31
0.0
  0
ARC
  5
2DC8
  8
AM_0
 10
347.11608398434367
 20
473.45306815007842
 30
0.0
 40
5.0
 50
45.000000999996892
 51
87.999999999999503
  0
ARC
  5
2DC9
  8
AM_0
 10
359.59282398434402
 20
466.96829815007823
 30
0.0
 40
3.0
 50
179.9999899999988
 51
268.00000999999861
  0
LINE
  5
2DCA
  8
AM_0
 10
371.59282398434402
 20
476.04739815007832
 30
0.0
 11
375.59282398434402
 21
476.04739815007832
 31
0.0
  0
ARC
  5
2DCB
  8
AM_0
 10
360.59282398434402
 20
490.44769815007822
 30
0.0
 40
3.0
 50
267.99999999999932
 51
0.0
  0
LINE
  5
2DCC
  8
AM_0
 10
360.30828398434397
 20
487.45580815007821
 30
0.0
 11
360.48812398434387
 21
487.44952815007838
 31
0.0
  0
LINE
  5
2DCD
  8
AM_0
 10
359.59282398434402
 20
525.1366881500785
 30
0.0
 11
363.59282398434402
 21
525.1366881500785
 31
0.0
  0
ARC
  5
2DCE
  8
AM_0
 10
359.59282398434402
 20
522.13668815007838
 30
0.0
 40
3.0
 50
90.000003000000945
 51
180.00001000000091
  0
LINE
  5
2DCF
  8
AM_0
 10
258.59282398434391
 20
680.54739815007827
 30
0.0
 11
347.29061398434391
 21
683.64480815007835
 31
0.0
  0
ARC
  5
2DD0
  8
AM_0
 10
250.5927639843438
 20
678.26681815007851
 30
0.0
 40
2.0
 50
91.999998000000545
 51
180.00001000000091
  0
LINE
  5
2DD1
  8
AM_0
 10
221.0927639843438
 20
618.19741815007831
 30
0.0
 11
233.5927639843438
 21
618.19741815007831
 31
0.0
  0
LINE
  5
2DD2
  8
AM_0
 10
221.09282398434391
 20
644.54739815007827
 30
0.0
 11
228.76726398434391
 21
644.81539815007841
 31
0.0
  0
LINE
  5
2DD3
  8
AM_0
 10
221.0927639843438
 20
633.08743815007836
 30
0.0
 11
233.5927639843438
 21
633.08743815007836
 31
0.0
  0
ARC
  5
2DD4
  8
AM_0
 10
238.59276398434389
 20
652.97634815007837
 30
0.0
 40
5.0
 50
135.0
 51
180.00001000000091
  0
ARC
  5
2DD5
  8
AM_0
 10
228.59276398434389
 20
649.81240815007845
 30
0.0
 40
5.0
 50
272.0000000000004
 51
0.0
  0
LINE
  5
2DD6
  8
AM_0
 10
235.0572439843439
 20
656.51186815007827
 30
0.0
 11
247.71410398434381
 21
669.16873815007852
 31
0.0
  0
ARC
  5
2DD7
  8
AM_0
 10
245.5927639843438
 20
671.29006815007847
 30
0.0
 40
3.0
 50
315.0
 51
0.0
  0
LINE
  5
2DD8
  8
AM_0
 10
250.5230039843438
 20
680.26565815007848
 30
0.0
 11
258.59276398434378
 21
680.54745815007846
 31
0.0
  0
LINE
  5
2DD9
  8
AM_0
 10
359.59282398434402
 20
636.95815815007825
 30
0.0
 11
363.59282398434402
 21
636.95815815007825
 31
0.0
  0
ARC
  5
2DDA
  8
AM_0
 10
359.59282398434402
 20
639.95815815007825
 30
0.0
 40
3.0
 50
179.9999899999988
 51
270.0
  0
ARC
  5
2DDB
  8
AM_0
 10
360.59282398434402
 20
671.64718815007825
 30
0.0
 40
3.0
 50
0.0
 51
91.999998000000545
  0
LINE
  5
2DDC
  8
AM_0
 10
360.30831398434373
 20
674.63900815007855
 30
0.0
 11
360.48812398434387
 21
674.64529815007825
 31
0.0
  0
LINE
  5
2DDD
  8
AM_0
 10
359.48815398434402
 20
698.12472815007845
 30
0.0
 11
371.592853984344
 21
698.54739815007827
 31
0.0
  0
LINE
  5
2DDE
  8
AM_0
 10
350.65163398434368
 20
685.10623815007852
 30
0.0
 11
356.59285398434372
 21
691.04745815007846
 31
0.0
  0
ARC
  5
2DDF
  8
AM_0
 10
347.11608398434367
 20
688.64175815007843
 30
0.0
 40
5.0
 50
272.0000000000004
 51
315.0
  0
ARC
  5
2DE0
  8
AM_0
 10
359.59282398434402
 20
695.12655815007827
 30
0.0
 40
3.0
 50
91.999998000000545
 51
180.00001000000091
  0
LINE
  5
2DE1
  8
AM_0
 10
371.59282398434402
 20
686.04745815007846
 30
0.0
 11
375.59282398434402
 21
686.04745815007846
 31
0.0
  0
LINE
  5
2DE2
  8
AM_0
 10
433.59285398434389
 20
565.04745815007846
 30
0.0
 11
433.59285398434389
 21
597.04745815007846
 31
0.0
  0
LINE
  5
2DE3
  8
ﾁｭｳｼﾝｾﾝ
 10
436.71114398434372
 20
263.55418208814558
 30
0.0
 11
242.26933123380149
 21
263.55418208814558
 31
0.0
  0
LINE
  5
2DE4
  8
AM_0
 10
359.69754398434372
 20
145.6388040881456
 30
0.0
 11
371.59287398434373
 21
146.05419308814541
 31
0.0
  0
LINE
  5
2DE5
  8
AM_0
 10
359.4881739843438
 20
380.63148008814551
 30
0.0
 11
371.59287398434373
 21
381.05421008814562
 31
0.0
  0
LINE
  5
2DE6
  8
AM_0
 10
344.48064398434371
 20
312.59126408814541
 30
0.0
 11
340.05993398434362
 21
269.98737908814559
 31
0.0
  0
LINE
  5
2DE7
  8
AM_0
 10
356.59287398434373
 20
234.78993008814541
 30
0.0
 11
356.59287398434373
 21
322.46493008814559
 31
0.0
  0
LINE
  5
2DE8
  8
AM_0
 10
233.59287398434381
 20
163.62527108814561
 30
0.0
 11
233.59287398434381
 21
307.48310708814557
 31
0.0
  0
LINE
  5
2DE9
  8
AM_0
 10
221.09286398434381
 20
299.05415408814548
 30
0.0
 11
221.09286398434381
 21
172.05413408814539
 31
0.0
  0
LINE
  5
2DEA
  8
AM_0
 10
248.5928739843437
 20
138.3347880881455
 30
0.0
 11
248.5928739843437
 21
332.77362008814572
 31
0.0
  0
LINE
  5
2DEB
  8
AM_0
 10
258.59286398434381
 20
136.05420008814551
 30
0.0
 11
258.59286398434381
 21
335.05419008814539
 31
0.0
  0
LINE
  5
2DEC
  8
0
 10
177.0928700640176
 20
315.55414408814551
 30
0.0
 11
177.0928700640176
 21
155.55414408814551
 31
0.0
  0
LINE
  5
2DED
  8
0
 10
187.0928700640176
 20
313.55414408814551
 30
0.0
 11
187.0928700640176
 21
157.55414408814551
 31
0.0
  0
LINE
  5
2DEE
  8
0
  6
CONTINUOUS
 62
     7
 10
210.09286398434369
 20
297.55414408814551
 30
0.0
 11
210.09286398434369
 21
173.55414408814559
 31
0.0
  0
LINE
  5
2DEF
  8
AM_0
 10
363.59283398434371
 20
263.55418208814558
 30
0.0
 11
363.59283398434371
 21
354.1539300881455
 31
0.0
  0
LINE
  5
2DF0
  8
ﾁｭｳｼﾝｾﾝ
 10
166.21043638105601
 20
235.55419808814551
 30
0.0
 11
254.69784745507209
 21
235.5541980881456
 31
0.0
  0
ARC
  5
2DF1
  8
AM_0
 10
238.5928539843438
 20
163.62527108814561
 30
0.0
 40
5.0000001000000003
 50
179.9999899999988
 51
225.0
  0
ARC
  5
2DF2
  8
AM_0
 10
228.59286398434369
 20
166.7892570881454
 30
0.0
 40
5.0000001000000003
 50
0.0
 51
87.999999999999659
  0
LINE
  5
2DF3
  8
0
 10
208.09286398434369
 20
177.55414408814559
 30
0.0
 11
192.0928700640176
 21
177.55414408814559
 31
0.0
  0
ARC
  5
2DF4
  8
0
 10
192.0928700640176
 20
172.55414408814559
 30
0.0
 40
5.0
 50
90.0
 51
180.0
1001
GENIUS_GENOBJ-N-FIL_13
1002
{
1000
OWNER
1000
GEN
1002
}
1001
GENIUS_GENODEF_13
1002
{
1000
HIER
1070
     0
1002
}
1002
{
1000
MANEDIT
1070
     0
1002
}
1002
{
1000
NOSEL
1070
     0
1002
}
1002
{
1000
BEHIND
1070
     0
1002
}
1002
{
1000
OTHER
1070
     0
1002
}
1002
{
1000
REACTOR
1002
}
  0
LINE
  5
2DF5
  8
0
 10
177.0928700640176
 20
155.55414408814551
 30
0.0
 11
185.09287006401749
 21
155.55414408814551
 31
0.0
  0
ARC
  5
2DF6
  8
0
 10
185.09287006401749
 20
157.55414408814551
 30
0.0
 40
2.0
 50
270.0
 51
0.0
1001
GENIUS_GENODEF_13
1002
{
1000
HIER
1070
     0
1002
}
1002
{
1000
MANEDIT
1070
     0
1002
}
1002
{
1000
NOSEL
1070
     0
1002
}
1002
{
1000
BEHIND
1070
     0
1002
}
1002
{
1000
OTHER
1070
     0
1002
}
1002
{
1000
REACTOR
1002
}
1001
GENIUS_GENOBJ-N-FIL_13
1002
{
1000
OWNER
1000
GEN
1002
}
  0
LINE
  5
2DF7
  8
0
 10
221.09286398434381
 20
171.55414408814551
 30
0.0
 11
212.09286398434369
 21
171.55414408814551
 31
0.0
  0
ARC
  5
2DF8
  8
0
 10
212.09286398434369
 20
173.55414408814559
 30
0.0
 40
2.0
 50
180.0
 51
270.0
1001
GENIUS_GENODEF_13
1002
{
1000
HIER
1070
     0
1002
}
1002
{
1000
MANEDIT
1070
     0
1002
}
1002
{
1000
NOSEL
1070
     0
1002
}
1002
{
1000
BEHIND
1070
     0
1002
}
1002
{
1000
OTHER
1070
     0
1002
}
1002
{
1000
REACTOR
1002
}
1001
GENIUS_GENOBJ-N-FIL_13
1002
{
1000
OWNER
1000
GEN
1002
}
  0
LINE
  5
2DF9
  8
AM_0
 10
221.09286398434381
 20
172.05419408814561
 30
0.0
 11
228.76737398434369
 21
171.78618908814551
 31
0.0
  0
LINE
  5
2DFA
  8
AM_0
 10
221.09286398434381
 20
184.0541280881454
 30
0.0
 11
210.09286398434369
 21
184.0541280881454
 31
0.0
  0
ARC
  5
2DFB
  8
0
 10
208.09286398434369
 20
175.55414408814551
 30
0.0
 40
2.0
 50
0.0
 51
90.0
1001
GENIUS_GENODEF_13
1002
{
1000
HIER
1070
     0
1002
}
1002
{
1000
MANEDIT
1070
     0
1002
}
1002
{
1000
NOSEL
1070
     0
1002
}
1002
{
1000
BEHIND
1070
     0
1002
}
1002
{
1000
OTHER
1070
     0
1002
}
1002
{
1000
REACTOR
1002
}
1001
GENIUS_GENOBJ-N-FIL_13
1002
{
1000
OWNER
1000
GEN
1002
}
  0
LINE
  5
2DFC
  8
AM_0
 10
221.09286398434381
 20
184.05420908814551
 30
0.0
 11
233.59287398434381
 21
184.05420908814551
 31
0.0
  0
LINE
  5
2DFD
  8
AM_0
 10
221.09286398434381
 20
198.4062090881456
 30
0.0
 11
210.09286398434369
 21
198.4062090881456
 31
0.0
  0
LINE
  5
2DFE
  8
AM_0
 10
221.09286398434381
 20
198.40626308814549
 30
0.0
 11
233.59287398434381
 21
198.40626308814549
 31
0.0
  0
LINE
  5
2DFF
  8
AM_0
 10
221.09286398434381
 20
272.70206408814551
 30
0.0
 11
210.09286398434369
 21
272.70206408814551
 31
0.0
  0
LINE
  5
2E00
  8
AM_0
 10
221.09286398434381
 20
272.70213308814562
 30
0.0
 11
233.59287398434381
 21
272.70213308814562
 31
0.0
  0
LINE
  5
2E01
  8
AM_0
 10
356.59287398434373
 20
148.6369890881455
 30
0.0
 11
356.59287398434373
 21
198.86492708814541
 31
0.0
  0
LINE
  5
2E02
  8
AM_0
 10
363.59283398434371
 20
172.18623008814541
 30
0.0
 11
363.59283398434371
 21
263.55418208814558
 31
0.0
  0
LINE
  5
2E03
  8
AM_0
 10
248.5928739843437
 20
175.17396008814541
 30
0.0
 11
354.85638398434372
 21
175.17396008814541
 31
0.0
  0
LINE
  5
2E04
  8
AM_0
 10
248.5928739843437
 20
155.13642308814551
 30
0.0
 11
354.85638398434372
 21
155.13642308814551
 31
0.0
  0
LINE
  5
2E05
  8
AM_0
 10
258.59286398434381
 20
136.05420008814551
 30
0.0
 11
343.82973398434382
 21
133.8221910881455
 31
0.0
  0
LINE
  5
2E06
  8
AM_0
 10
235.05732398434361
 20
160.0897020881456
 30
0.0
 11
247.7142039843439
 21
147.4328400881455
 31
0.0
  0
LINE
  5
2E07
  8
AM_0
 10
250.52310398434361
 20
136.33600208814559
 30
0.0
 11
258.59286398434381
 21
136.05419408814561
 31
0.0
  0
ARC
  5
2E08
  8
AM_0
 10
250.59285398434369
 20
138.3347880881455
 30
0.0
 40
2.00000007
 50
179.9999899999988
 51
268.00000999999861
  0
ARC
  5
2E09
  8
AM_0
 10
245.5928739843437
 20
145.31156408814539
 30
0.0
 40
3.0
 50
0.0
 51
45.000000999999187
  0
LINE
  5
2E0A
  8
AM_0
 10
343.82979398434389
 20
133.82220008814551
 30
0.0
 11
364.59285398434372
 21
145.80976208814559
 31
0.0
  0
ARC
  5
2E0B
  8
AM_0
 10
359.59287398434373
 20
148.6369890881455
 30
0.0
 40
3.0
 50
179.9999899999988
 51
271.99999000000139
  0
LINE
  5
2E0C
  8
AM_0
 10
358.87740398434369
 20
169.12447808814551
 30
0.0
 11
360.69753398434381
 21
169.1880450881454
 31
0.0
  0
ARC
  5
2E0D
  8
AM_0
 10
360.59283398434371
 20
172.18623008814541
 30
0.0
 40
3.0
 50
272.0000000000004
 51
0.0
  0
LINE
  5
2E0E
  8
AM_0
 10
258.59280398434362
 20
265.73951708814542
 30
0.0
 11
258.59439398434381
 21
265.73951708814542
 31
0.0
  0
ARC
  5
2E0F
  8
AM_0
 10
379.84638398434362
 20
265.8589470881455
 30
0.0
 40
40.000001999999981
 50
174.0759799999995
 51
234.45534000000009
  0
ARC
  5
2E10
  8
AM_0
 10
359.59287398434373
 20
198.86492708814541
 30
0.0
 40
3.0
 50
90.000003000000945
 51
180.00001000000091
  0
LINE
  5
2E11
  8
AM_0
 10
359.59287398434373
 20
201.86492708814541
 30
0.0
 11
363.59283398434371
 21
201.86492708814541
 31
0.0
  0
ARC
  5
2E12
  8
AM_0
 10
359.59287398434373
 20
234.78993008814541
 30
0.0
 40
3.0
 50
179.9999899999988
 51
270.0
  0
LINE
  5
2E13
  8
AM_0
 10
359.59287398434373
 20
231.7899300881455
 30
0.0
 11
363.59283398434371
 21
231.7899300881455
 31
0.0
  0
ARC
  5
2E14
  8
AM_0
 10
228.59286398434369
 20
304.31913608814551
 30
0.0
 40
5.0000001000000003
 50
272.0000000000004
 51
0.0
  0
ARC
  5
2E15
  8
AM_0
 10
238.5928539843438
 20
307.48310708814557
 30
0.0
 40
5.0000001000000003
 50
135.0
 51
180.00001000000091
  0
LINE
  5
2E16
  8
0
 10
208.09286398434369
 20
293.55414408814539
 30
0.0
 11
192.0928700640176
 21
293.55414408814539
 31
0.0
  0
ARC
  5
2E17
  8
0
 10
192.0928700640176
 20
298.55414408814539
 30
0.0
 40
5.0
 50
180.0
 51
270.0
1001
GENIUS_GENOBJ-N-FIL_13
1002
{
1000
OWNER
1000
GEN
1002
}
1001
GENIUS_GENODEF_13
1002
{
1000
HIER
1070
     0
1002
}
1002
{
1000
MANEDIT
1070
     0
1002
}
1002
{
1000
NOSEL
1070
     0
1002
}
1002
{
1000
BEHIND
1070
     0
1002
}
1002
{
1000
OTHER
1070
     0
1002
}
1002
{
1000
REACTOR
1002
}
  0
LINE
  5
2E18
  8
0
 10
177.0928700640176
 20
315.55414408814551
 30
0.0
 11
185.09287006401749
 21
315.55414408814551
 31
0.0
  0
ARC
  5
2E19
  8
0
 10
185.09287006401749
 20
313.55414408814551
 30
0.0
 40
2.0
 50
0.0
 51
90.0
1001
GENIUS_GENODEF_13
1002
{
1000
HIER
1070
     0
1002
}
1002
{
1000
MANEDIT
1070
     0
1002
}
1002
{
1000
NOSEL
1070
     0
1002
}
1002
{
1000
BEHIND
1070
     0
1002
}
1002
{
1000
OTHER
1070
     0
1002
}
1002
{
1000
REACTOR
1002
}
1001
GENIUS_GENOBJ-N-FIL_13
1002
{
1000
OWNER
1000
GEN
1002
}
  0
LINE
  5
2E1A
  8
AM_0
 10
221.09286398434381
 20
287.05415408814571
 30
0.0
 11
210.09286398434369
 21
287.05415408814571
 31
0.0
  0
LINE
  5
2E1B
  8
0
 10
221.09286398434381
 20
299.55414408814551
 30
0.0
 11
212.09286398434369
 21
299.55414408814551
 31
0.0
  0
ARC
  5
2E1C
  8
0
 10
208.09286398434369
 20
295.55414408814551
 30
0.0
 40
2.0
 50
270.0
 51
0.0
1001
GENIUS_GENODEF_13
1002
{
1000
HIER
1070
     0
1002
}
1002
{
1000
MANEDIT
1070
     0
1002
}
1002
{
1000
NOSEL
1070
     0
1002
}
1002
{
1000
BEHIND
1070
     0
1002
}
1002
{
1000
OTHER
1070
     0
1002
}
1002
{
1000
REACTOR
1002
}
1001
GENIUS_GENOBJ-N-FIL_13
1002
{
1000
OWNER
1000
GEN
1002
}
  0
ARC
  5
2E1D
  8
0
 10
212.09286398434369
 20
297.55414408814551
 30
0.0
 40
2.0
 50
90.0
 51
180.0
1001
GENIUS_GENODEF_13
1002
{
1000
HIER
1070
     0
1002
}
1002
{
1000
MANEDIT
1070
     0
1002
}
1002
{
1000
NOSEL
1070
     0
1002
}
1002
{
1000
BEHIND
1070
     0
1002
}
1002
{
1000
OTHER
1070
     0
1002
}
1002
{
1000
REACTOR
1002
}
1001
GENIUS_GENOBJ-N-FIL_13
1002
{
1000
OWNER
1000
GEN
1002
}
  0
LINE
  5
2E1E
  8
AM_0
 10
221.09286398434381
 20
287.0541840881454
 30
0.0
 11
233.59287398434381
 21
287.0541840881454
 31
0.0
  0
LINE
  5
2E1F
  8
AM_0
 10
221.09286398434381
 20
299.0541840881454
 30
0.0
 11
228.76737398434369
 21
299.3221590881455
 31
0.0
  0
LINE
  5
2E20
  8
AM_0
 10
356.59287398434373
 20
322.46493008814559
 30
0.0
 11
356.59287398434373
 21
377.63328008814551
 31
0.0
  0
LINE
  5
2E21
  8
AM_0
 10
321.10335398434393
 20
338.06472008814529
 30
0.0
 11
356.59287398434373
 21
373.55421008814562
 31
0.0
  0
LINE
  5
2E22
  8
AM_0
 10
258.59286398434381
 20
335.05422008814571
 30
0.0
 11
317.69877398434357
 21
336.60195008814549
 31
0.0
  0
LINE
  5
2E23
  8
AM_0
 10
248.5928739843437
 20
314.75862008814551
 30
0.0
 11
343.58637398434371
 21
314.75862008814551
 31
0.0
  0
ARC
  5
2E24
  8
AM_0
 10
245.5928739843437
 20
325.79682008814541
 30
0.0
 40
3.0
 50
315.0
 51
0.0
  0
LINE
  5
2E25
  8
AM_0
 10
235.05732398434361
 20
311.01866108814551
 30
0.0
 11
247.7142039843439
 21
323.67552008814562
 31
0.0
  0
LINE
  5
2E26
  8
AM_0
 10
250.52304398434359
 20
334.77240008814562
 30
0.0
 11
258.59286398434381
 21
335.05419008814539
 31
0.0
  0
ARC
  5
2E27
  8
AM_0
 10
250.59285398434369
 20
332.77362008814572
 30
0.0
 40
2.00000007
 50
91.999998000000545
 51
180.00001000000091
  0
ARC
  5
2E28
  8
AM_0
 10
323.59287398434378
 20
314.75862008814551
 30
0.0
 40
21.000000600000011
 50
354.07597999999939
 51
80.875524999999854
  0
ARC
  5
2E29
  8
AM_0
 10
359.59287398434373
 20
322.46493008814559
 30
0.0
 40
3.0
 50
179.9999899999988
 51
270.0
  0
LINE
  5
2E2A
  8
AM_0
 10
359.59287398434373
 20
319.46493008814542
 30
0.0
 11
363.59283398434371
 21
319.46493008814542
 31
0.0
  0
LINE
  5
2E2B
  8
AM_0
 10
319.69281398434362
 20
336.65415008814529
 30
0.0
 11
326.92302398434367
 21
335.49291008814572
 31
0.0
  0
ARC
  5
2E2C
  8
AM_0
 10
317.56779398434372
 20
341.6002200881457
 30
0.0
 40
5.0000001000000003
 50
271.49999999999932
 51
315.0
  0
LINE
  5
2E2D
  8
AM_0
 10
360.3082839843438
 20
357.14580008814562
 30
0.0
 11
360.48816398434371
 21
357.1520400881455
 31
0.0
  0
ARC
  5
2E2E
  8
AM_0
 10
360.59283398434371
 20
354.1539300881455
 30
0.0
 40
3.0
 50
0.0
 51
91.999998000000545
  0
ARC
  5
2E2F
  8
AM_0
 10
359.59287398434373
 20
377.63328008814551
 30
0.0
 40
3.0
 50
91.999998000000545
 51
180.00001000000091
  0
CIRCLE
  5
2E30
  8
AM_0
 10
644.91274845692135
 20
263.55418208814558
 30
0.0
 40
105.00000299999979
  0
CIRCLE
  5
2E31
  8
AM_0
 10
644.91274845692135
 20
263.55418208814558
 30
0.0
 40
99.000003000000021
  0
ARC
  5
2E32
  8
AM_0
 10
644.91274845692135
 20
263.55418208814558
 30
0.0
 40
48.0
 50
0.0
 51
35.223151999999843
  0
ARC
  5
2E33
  8
AM_0
 10
644.91274845692135
 20
263.55418208814558
 30
0.0
 40
89.000003999999961
 50
0.4282278599984297
 51
13.87576399999806
  0
CIRCLE
  5
2E34
  8
AM_0
 10
644.91274845692135
 20
263.55418208814558
 30
0.0
 40
29.000001000000001
  0
ARC
  5
2E35
  8
AM_0
 10
644.91274845692135
 20
263.55418208814558
 30
0.0
 40
48.0
 50
144.77683999999979
 51
180.00001000000091
  0
ARC
  5
2E36
  8
AM_0
 10
644.91274845692135
 20
263.55418208814558
 30
0.0
 40
89.000003999999961
 50
166.12423000000109
 51
179.5717700000001
  0
LINE
  5
2E37
  8
ﾁｭｳｼﾝｾﾝ
 10
644.91274845692135
 20
130.78347308814551
 30
0.0
 11
644.91274845692135
 21
386.65161008814562
 31
0.0
  0
LINE
  5
2E38
  8
AM_0
 10
762.41274645692124
 20
263.55418208814558
 30
0.0
 11
762.41274645692124
 21
293.55418208814541
 31
0.0
  0
LINE
  5
2E39
  8
AM_0
 10
527.41274745692147
 20
263.55418208814558
 30
0.0
 11
527.41274745692147
 21
293.55418208814541
 31
0.0
  0
LINE
  5
2E3A
  8
AM_0
 10
639.91273545692161
 20
274.55418308814552
 30
0.0
 11
639.91273545692161
 21
282.5541840881454
 31
0.0
  0
LINE
  5
2E3B
  8
AM_0
 10
649.9127344569215
 20
274.55418308814552
 30
0.0
 11
649.9127344569215
 21
282.5541840881454
 31
0.0
  0
LINE
  5
2E3C
  8
AM_0
 10
375.59283398434371
 20
158.55420908814551
 30
0.0
 11
375.59283398434371
 21
368.55420008814559
 31
0.0
  0
LINE
  5
2E3D
  8
AM_0
 10
371.59287398434373
 20
263.55418208814558
 30
0.0
 11
371.59287398434373
 21
381.05418008814547
 31
0.0
  0
LINE
  5
2E3E
  8
AM_0
 10
388.59285398434389
 20
279.55418408814552
 30
0.0
 11
388.59285398434389
 21
282.5541840881454
 31
0.0
  0
LINE
  5
2E3F
  8
AM_0
 10
433.59285398434389
 20
247.55419808814551
 30
0.0
 11
433.59285398434389
 21
282.5541840881454
 31
0.0
  0
LINE
  5
2E40
  8
ﾁｭｳｼﾝｾﾝ
 10
522.24509745692137
 20
263.55418208814558
 30
0.0
 11
766.72247745692152
 21
263.55418208814558
 31
0.0
  0
LINE
  5
2E41
  8
AM_0
 10
674.91273645692149
 20
146.05419308814541
 30
0.0
 11
740.07201645692146
 21
149.46905108814551
 31
0.0
  0
ARC
  5
2E42
  8
AM_0
 10
644.91274845692135
 20
235.5541980881456
 30
0.0
 40
99.500004000000004
 50
242.8856599999979
 51
297.11435000000108
  0
LINE
  5
2E43
  8
ﾁｭｳｼﾝｾﾝ
 10
586.61978542746795
 20
235.5541980881456
 30
0.0
 11
702.13461675159556
 21
235.5541980881456
 31
0.0
  0
ARC
  5
2E44
  8
AM_0
 10
550.80019845692163
 20
169.4416470881454
 30
0.0
 40
20.000000700000001
 50
183.00000999999961
 51
267.0000000000008
  0
ARC
  5
2E45
  8
ﾁｭｳｼﾝｾﾝ1
 10
644.91274845692942
 20
263.55418208815382
 30
0.0
 40
135.0000030000113
 50
218.8943437636357
 51
231.39772629616891
  0
CIRCLE
  5
2E46
  8
AM_0
 10
549.45333645692142
 20
168.09479708814541
 30
0.0
 40
7.5000002999999982
  0
LINE
  5
2E47
  8
ﾁｭｳｼﾝｾﾝ1
 10
559.37053867931832
 20
178.0120023105425
 30
0.0
 11
539.81769770758922
 21
158.4591613388132
 31
0.0
  0
LINE
  5
2E48
  8
AM_0
 10
527.41271745692143
 20
233.5541970881456
 30
0.0
 11
530.82755745692145
 21
168.3949080881456
 31
0.0
  0
LINE
  5
2E49
  8
AM_0
 10
371.59287398434373
 20
146.0542080881454
 30
0.0
 11
371.59287398434373
 21
263.55418208814558
 31
0.0
  0
LINE
  5
2E4A
  8
AM_0
 10
371.59287398434373
 20
158.55420908814551
 30
0.0
 11
375.59283398434371
 21
158.55420908814551
 31
0.0
  0
LINE
  5
2E4B
  8
AM_0
 10
433.59285398434389
 20
279.55418408814552
 30
0.0
 11
375.59283398434371
 21
279.55418408814552
 31
0.0
  0
LINE
  5
2E4C
  8
AM_0
 10
433.59285398434389
 20
247.55419808814551
 30
0.0
 11
375.59283398434371
 21
247.55419808814551
 31
0.0
  0
LINE
  5
2E4D
  8
AM_0
 10
527.41274745692147
 20
263.55418208814558
 30
0.0
 11
527.41274745692147
 21
233.55418208814541
 31
0.0
  0
LINE
  5
2E4E
  8
AM_0
 10
614.91273345692139
 20
146.05419308814541
 30
0.0
 11
549.75344445692144
 21
149.4690360881454
 31
0.0
  0
LINE
  5
2E4F
  8
AM_0
 10
644.91274845692135
 20
146.0542080881454
 30
0.0
 11
614.91273345692139
 21
146.0542080881454
 31
0.0
  0
LINE
  5
2E50
  8
AM_0
 10
644.91274845692135
 20
146.0542080881454
 30
0.0
 11
674.91275145692157
 21
146.0542080881454
 31
0.0
  0
ARC
  5
2E51
  8
AM_0
 10
644.91274845692135
 20
235.5541980881456
 30
0.0
 40
93.500003999999976
 50
162.1467900000001
 51
183.00788
  0
LINE
  5
2E52
  8
AM_0
 10
596.91273345692139
 20
263.55418208814558
 30
0.0
 11
596.91273345692139
 21
225.55418108814541
 31
0.0
  0
LINE
  5
2E53
  8
AM_0
 10
591.9127324569215
 20
220.55419508814549
 30
0.0
 11
558.93600045692142
 21
220.55419508814549
 31
0.0
  0
ARC
  5
2E54
  8
AM_0
 10
558.93600045692142
 20
225.55418108814541
 30
0.0
 40
5.0000001000000003
 50
203.8444700000006
 51
270.0
  0
ARC
  5
2E55
  8
AM_0
 10
591.9127324569215
 20
225.55418108814541
 30
0.0
 40
5.0000001000000003
 50
270.0
 51
0.0
  0
ARC
  5
2E56
  8
AM_0
 10
644.91274845692135
 20
263.55418208814558
 30
0.0
 40
16.000000499999999
 50
108.2099600000016
 51
71.790051999998809
  0
ARC
  5
2E57
  8
AM_0
 10
644.91274845692135
 20
263.55418208814558
 30
0.0
 40
16.000000499999999
 50
108.2099600000016
 51
71.790051999998809
  0
CIRCLE
  5
2E58
  8
AM_5
 10
644.91274845692135
 20
263.55418208814558
 30
0.0
 40
4.000000199999997
  0
LINE
  5
2E59
  8
AM_0
 10
639.91273545692161
 20
274.55418308814552
 30
0.0
 11
649.9127344569215
 21
274.55418308814552
 31
0.0
  0
CIRCLE
  5
2E5A
  8
AM_0
 10
644.91274845692135
 20
263.55418208814558
 30
0.0
 40
2.75000007
  0
CIRCLE
  5
2E5B
  8
AM_0
 10
644.91274845692135
 20
263.55418208814558
 30
0.0
 40
2.75000007
  0
CIRCLE
  5
2E5C
  8
AM_0
 10
644.91274845692135
 20
263.55418208814558
 30
0.0
 40
2.75000007
  0
LINE
  5
2E5D
  8
AM_0
 10
762.41274645692124
 20
233.55418208814541
 30
0.0
 11
758.99789745692124
 21
168.3949080881456
 31
0.0
  0
ARC
  5
2E5E
  8
AM_0
 10
739.02530145692106
 20
169.4416470881454
 30
0.0
 40
20.000000700000001
 50
272.99999999999909
 51
357.00000000000091
  0
CIRCLE
  5
2E5F
  8
AM_0
 10
740.37215745692151
 20
168.09479708814541
 30
0.0
 40
7.5000002999999982
  0
LINE
  5
2E60
  8
AM_0
 10
692.91275145692146
 20
263.55418208814558
 30
0.0
 11
692.91275145692146
 21
225.55418108814541
 31
0.0
  0
ARC
  5
2E61
  8
AM_0
 10
644.91274845692135
 20
235.5541980881456
 30
0.0
 40
93.500003999999976
 50
356.99211999999977
 51
17.85321299999984
  0
LINE
  5
2E62
  8
AM_0
 10
697.91275245692145
 20
220.55419508814549
 30
0.0
 11
730.88948145692154
 21
220.55419508814549
 31
0.0
  0
ARC
  5
2E63
  8
AM_0
 10
697.91275245692145
 20
225.55418108814541
 30
0.0
 40
5.0000001000000003
 50
179.9999899999988
 51
270.0
  0
ARC
  5
2E64
  8
AM_0
 10
730.88948145692154
 20
225.55418108814541
 30
0.0
 40
5.0000001000000003
 50
270.0
 51
336.1555299999992
  0
LINE
  5
2E65
  8
AM_0
 10
762.41274645692124
 20
263.55418208814558
 30
0.0
 11
762.41274645692124
 21
233.55418208814541
 31
0.0
  0
LINE
  5
2E66
  8
AM_0
 10
674.91273645692149
 20
381.05418008814547
 30
0.0
 11
740.07201645692146
 21
377.6393400881455
 31
0.0
  0
ARC
  5
2E67
  8
AM_0
 10
644.91274845692135
 20
235.5541980881456
 30
0.0
 40
99.500004000000004
 50
58.838494000002051
 51
86.644179999999864
  0
ARC
  5
2E68
  8
AM_0
 10
675.48115545692156
 20
306.85050908814571
 30
0.0
 40
5.0000001000000003
 50
234.776859999999
 51
315.0
  0
ARC
  5
2E69
  8
AM_0
 10
550.80019845692163
 20
357.6667200881455
 30
0.0
 40
20.000000700000001
 50
92.999998999998368
 51
176.99999000000011
  0
CIRCLE
  5
2E6A
  8
AM_0
 10
549.45333645692142
 20
359.01360008814561
 30
0.0
 40
7.5000002999999982
  0
LINE
  5
2E6B
  8
AM_0
 10
433.59285398434389
 20
282.5541840881454
 30
0.0
 11
388.59285398434389
 21
282.5541840881454
 31
0.0
  0
LINE
  5
2E6C
  8
AM_0
 10
371.59287398434373
 20
368.55420008814559
 30
0.0
 11
375.59283398434371
 21
368.55420008814559
 31
0.0
  0
LINE
  5
2E6D
  8
AM_0
 10
527.41274745692147
 20
293.55418208814541
 30
0.0
 11
530.82758745692149
 21
358.7134800881455
 31
0.0
  0
LINE
  5
2E6E
  8
AM_0
 10
610.80882045692135
 20
303.31498808814558
 30
0.0
 11
581.57850345692145
 21
332.5452600881456
 31
0.0
  0
LINE
  5
2E6F
  8
AM_0
 10
605.15196045692142
 20
297.65812508814548
 30
0.0
 11
575.92165845692125
 21
326.88843008814558
 31
0.0
  0
ARC
  5
2E70
  8
AM_0
 10
644.91274845692135
 20
235.5541980881456
 30
0.0
 40
99.500004000000004
 50
125.86368999999939
 51
150.26975999999931
  0
ARC
  5
2E71
  8
AM_0
 10
601.6164064569216
 20
294.12260408814541
 30
0.0
 40
5.0000001000000003
 50
324.77685000000031
 51
45.000000999999187
  0
ARC
  5
2E72
  8
AM_0
 10
572.38610445692143
 20
323.3529000881457
 30
0.0
 40
5.0000001000000003
 50
45.000000999999187
 51
140.49418000000091
  0
ARC
  5
2E73
  8
AM_0
 10
585.1140124569215
 20
336.0808200881454
 30
0.0
 40
5.0000001000000003
 50
129.50581999999901
 51
225.0
  0
ARC
  5
2E74
  8
AM_0
 10
644.91274845692135
 20
263.55418208814558
 30
0.0
 40
48.0
 50
54.776850000000422
 51
125.2231400000008
  0
LINE
  5
2E75
  8
AM_0
 10
639.91273545692161
 20
282.5541840881454
 30
0.0
 11
649.9127344569215
 21
282.5541840881454
 31
0.0
  0
ARC
  5
2E76
  8
AM_0
 10
614.34432945692151
 20
306.85050908814571
 30
0.0
 40
5.0000001000000003
 50
225.0
 51
305.22314999999952
  0
ARC
  5
2E77
  8
AM_0
 10
638.91273345692139
 20
344.06889008814539
 30
0.0
 40
3.0
 50
0.0
 51
90.000003000000945
  0
ARC
  5
2E78
  8
AM_0
 10
638.91273345692139
 20
337.87842008814562
 30
0.0
 40
3.0
 50
273.35581999999999
 51
0.0
  0
ARC
  5
2E79
  8
AM_0
 10
644.91274845692135
 20
235.5541980881456
 30
0.0
 40
99.500004000000004
 50
93.355818000000696
 51
121.1614999999983
  0
LINE
  5
2E7A
  8
AM_0
 10
641.91274845692135
 20
344.06889008814539
 30
0.0
 11
641.91274845692135
 21
337.87842008814562
 31
0.0
  0
ARC
  5
2E7B
  8
AM_0
 10
650.91274845692135
 20
344.06889008814539
 30
0.0
 40
3.0
 50
90.000003000000945
 51
180.00001000000091
  0
ARC
  5
2E7C
  8
AM_0
 10
650.91274845692135
 20
337.87842008814562
 30
0.0
 40
3.0
 50
179.9999899999988
 51
266.64419000000049
  0
LINE
  5
2E7D
  8
AM_0
 10
647.91274845692146
 20
344.06889008814539
 30
0.0
 11
647.91274845692146
 21
337.87842008814562
 31
0.0
  0
LINE
  5
2E7E
  8
AM_0
 10
614.91273345692139
 20
381.05418008814547
 30
0.0
 11
549.75347445692148
 21
377.6393400881455
 31
0.0
  0
LINE
  5
2E7F
  8
AM_0
 10
644.91274845692135
 20
381.05418008814547
 30
0.0
 11
614.91273345692139
 21
381.05418008814547
 31
0.0
  0
LINE
  5
2E80
  8
AM_0
 10
644.91274845692135
 20
381.05418008814547
 30
0.0
 11
674.91275145692157
 21
381.05418008814547
 31
0.0
  0
ARC
  5
2E81
  8
AM_0
 10
739.02530145692106
 20
357.6667200881455
 30
0.0
 40
20.000000700000001
 50
3.0000000999988461
 51
86.999999000000216
  0
ARC
  5
2E82
  8
ﾁｭｳｼﾝｾﾝ1
 10
644.91274845692101
 20
263.55418208814541
 30
0.0
 40
135.0000030000005
 50
38.36839300000004
 51
51.61020247956106
  0
LINE
  5
2E83
  8
ﾁｭｳｼﾝｾﾝ1
 10
730.06328363498653
 20
348.7047146045
 30
0.0
 11
749.5313532022659
 21
368.17280749193827
 31
0.0
  0
CIRCLE
  5
2E84
  8
AM_0
 10
740.37215745692151
 20
359.01360008814561
 30
0.0
 40
7.5000002999999982
  0
LINE
  5
2E85
  8
AM_0
 10
684.67353945692162
 20
297.65812508814548
 30
0.0
 11
713.90386245692139
 21
326.88843008814558
 31
0.0
  0
LINE
  5
2E86
  8
AM_0
 10
679.01669445692164
 20
303.31498808814558
 30
0.0
 11
708.24701145692165
 21
332.54529008814541
 31
0.0
  0
ARC
  5
2E87
  8
AM_0
 10
644.91274845692135
 20
235.5541980881456
 30
0.0
 40
99.500004000000004
 50
29.730243000001629
 51
54.136312000000359
  0
ARC
  5
2E88
  8
AM_0
 10
688.20907545692137
 20
294.12260408814541
 30
0.0
 40
5.0000001000000003
 50
135.0
 51
215.22314999999929
  0
ARC
  5
2E89
  8
AM_0
 10
704.71147245692146
 20
336.0808200881454
 30
0.0
 40
5.0000001000000003
 50
315.0
 51
50.49418200000094
  0
ARC
  5
2E8A
  8
AM_0
 10
717.43937745692153
 20
323.3529000881457
 30
0.0
 40
5.0000001000000003
 50
39.505817999999088
 51
135.0
  0
LINE
  5
2E8B
  8
AM_0
 10
762.41273745692104
 20
293.55418208814541
 30
0.0
 11
758.99788845692171
 21
358.7134800881455
 31
0.0
  0
LINE
  5
2E8C
  8
0
  6
CONTINUOUS
 62
     7
 10
210.0927639843438
 20
643.04734415007806
 30
0.0
 11
210.0927639843438
 21
519.0473441500784
 31
0.0
  0
LINE
  5
2E8D
  8
0
 10
187.0927700640176
 20
659.04734415007806
 30
0.0
 11
187.0927700640176
 21
503.04734415007829
 31
0.0
  0
LINE
  5
2E8E
  8
0
 10
177.09277006401771
 20
661.0473441500784
 30
0.0
 11
177.09277006401771
 21
501.04734415007812
 31
0.0
  0
LINE
  5
2E8F
  8
0
 10
208.0927639843438
 20
523.0473441500784
 30
0.0
 11
192.0927700640176
 21
523.0473441500784
 31
0.0
  0
LINE
  5
2E90
  8
0
 10
177.09277006401771
 20
501.04734415007812
 30
0.0
 11
185.09277006401771
 21
501.04734415007812
 31
0.0
  0
ARC
  5
2E91
  8
0
 10
185.09277006401771
 20
503.04734415007829
 30
0.0
 40
2.0
 50
270.0
 51
0.0
1001
GENIUS_GENODEF_13
1002
{
1000
HIER
1070
     0
1002
}
1002
{
1000
MANEDIT
1070
     0
1002
}
1002
{
1000
NOSEL
1070
     0
1002
}
1002
{
1000
BEHIND
1070
     0
1002
}
1002
{
1000
OTHER
1070
     0
1002
}
1002
{
1000
REACTOR
1002
}
1001
GENIUS_GENOBJ-N-FIL_13
1002
{
1000
OWNER
1000
GEN
1002
}
  0
ARC
  5
2E92
  8
0
 10
192.0927700640176
 20
518.0473441500784
 30
0.0
 40
5.0
 50
90.0
 51
180.0
1001
GENIUS_GENOBJ-N-FIL_13
1002
{
1000
OWNER
1000
GEN
1002
}
1001
GENIUS_GENODEF_13
1002
{
1000
HIER
1070
     0
1002
}
1002
{
1000
MANEDIT
1070
     0
1002
}
1002
{
1000
NOSEL
1070
     0
1002
}
1002
{
1000
BEHIND
1070
     0
1002
}
1002
{
1000
OTHER
1070
     0
1002
}
1002
{
1000
REACTOR
1002
}
  0
ARC
  5
2E93
  8
0
 10
208.0927639843438
 20
521.04734415007817
 30
0.0
 40
2.0
 50
0.0
 51
90.0
1001
GENIUS_GENODEF_13
1002
{
1000
HIER
1070
     0
1002
}
1002
{
1000
MANEDIT
1070
     0
1002
}
1002
{
1000
NOSEL
1070
     0
1002
}
1002
{
1000
BEHIND
1070
     0
1002
}
1002
{
1000
OTHER
1070
     0
1002
}
1002
{
1000
REACTOR
1002
}
1001
GENIUS_GENOBJ-N-FIL_13
1002
{
1000
OWNER
1000
GEN
1002
}
  0
ARC
  5
2E94
  8
0
 10
212.09276398434389
 20
519.0473441500784
 30
0.0
 40
2.0
 50
180.0
 51
270.0
1001
GENIUS_GENODEF_13
1002
{
1000
HIER
1070
     0
1002
}
1002
{
1000
MANEDIT
1070
     0
1002
}
1002
{
1000
NOSEL
1070
     0
1002
}
1002
{
1000
BEHIND
1070
     0
1002
}
1002
{
1000
OTHER
1070
     0
1002
}
1002
{
1000
REACTOR
1002
}
1001
GENIUS_GENOBJ-N-FIL_13
1002
{
1000
OWNER
1000
GEN
1002
}
  0
LINE
  5
2E95
  8
0
 10
221.0927639843438
 20
517.04734415007817
 30
0.0
 11
212.09276398434389
 21
517.04734415007817
 31
0.0
  0
LINE
  5
2E96
  8
AM_0
 10
221.0927639843438
 20
529.54732815007833
 30
0.0
 11
210.0927639843438
 21
529.54732815007833
 31
0.0
  0
LINE
  5
2E97
  8
AM_0
 10
221.0927639843438
 20
543.89940915007833
 30
0.0
 11
210.0927639843438
 21
543.89940915007833
 31
0.0
  0
ARC
  5
2E98
  8
0
 10
208.0927639843438
 20
641.0473441500784
 30
0.0
 40
2.0
 50
270.0
 51
0.0
1001
GENIUS_GENODEF_13
1002
{
1000
HIER
1070
     0
1002
}
1002
{
1000
MANEDIT
1070
     0
1002
}
1002
{
1000
NOSEL
1070
     0
1002
}
1002
{
1000
BEHIND
1070
     0
1002
}
1002
{
1000
OTHER
1070
     0
1002
}
1002
{
1000
REACTOR
1002
}
1001
GENIUS_GENOBJ-N-FIL_13
1002
{
1000
OWNER
1000
GEN
1002
}
  0
ARC
  5
2E99
  8
0
 10
192.0927700640176
 20
644.0473441500784
 30
0.0
 40
5.0
 50
180.0
 51
270.0
1001
GENIUS_GENOBJ-N-FIL_13
1002
{
1000
OWNER
1000
GEN
1002
}
1001
GENIUS_GENODEF_13
1002
{
1000
HIER
1070
     0
1002
}
1002
{
1000
MANEDIT
1070
     0
1002
}
1002
{
1000
NOSEL
1070
     0
1002
}
1002
{
1000
BEHIND
1070
     0
1002
}
1002
{
1000
OTHER
1070
     0
1002
}
1002
{
1000
REACTOR
1002
}
  0
LINE
  5
2E9A
  8
0
 10
208.0927639843438
 20
639.04734415007806
 30
0.0
 11
192.0927700640176
 21
639.04734415007806
 31
0.0
  0
LINE
  5
2E9B
  8
AM_0
 10
221.0927639843438
 20
618.19526415007829
 30
0.0
 11
210.0927639843438
 21
618.19526415007829
 31
0.0
  0
LINE
  5
2E9C
  8
AM_0
 10
221.0927639843438
 20
632.54735415007849
 30
0.0
 11
210.0927639843438
 21
632.54735415007849
 31
0.0
  0
LINE
  5
2E9D
  8
0
 10
177.09277006401771
 20
661.0473441500784
 30
0.0
 11
185.09277006401771
 21
661.0473441500784
 31
0.0
  0
ARC
  5
2E9E
  8
0
 10
185.09277006401771
 20
659.04734415007806
 30
0.0
 40
2.0
 50
0.0
 51
90.0
1001
GENIUS_GENODEF_13
1002
{
1000
HIER
1070
     0
1002
}
1002
{
1000
MANEDIT
1070
     0
1002
}
1002
{
1000
NOSEL
1070
     0
1002
}
1002
{
1000
BEHIND
1070
     0
1002
}
1002
{
1000
OTHER
1070
     0
1002
}
1002
{
1000
REACTOR
1002
}
1001
GENIUS_GENOBJ-N-FIL_13
1002
{
1000
OWNER
1000
GEN
1002
}
  0
ARC
  5
2E9F
  8
0
 10
212.09276398434389
 20
643.04734415007806
 30
0.0
 40
2.0
 50
90.0
 51
180.0
1001
GENIUS_GENODEF_13
1002
{
1000
HIER
1070
     0
1002
}
1002
{
1000
MANEDIT
1070
     0
1002
}
1002
{
1000
NOSEL
1070
     0
1002
}
1002
{
1000
BEHIND
1070
     0
1002
}
1002
{
1000
OTHER
1070
     0
1002
}
1002
{
1000
REACTOR
1002
}
1001
GENIUS_GENOBJ-N-FIL_13
1002
{
1000
OWNER
1000
GEN
1002
}
  0
LINE
  5
2EA0
  8
0
 10
221.0927639843438
 20
645.0473441500784
 30
0.0
 11
212.09276398434389
 21
645.0473441500784
 31
0.0
  0
ARC
  5
2EA1
  8
ﾁｭｳｼﾝｾﾝ1
 10
644.9127484569218
 20
263.55418208814541
 30
0.0
 40
135.0000030000005
 50
128.3897975204388
 51
141.6316069999998
  0
LINE
  5
2EA2
  8
ﾁｭｳｼﾝｾﾝ1
 10
559.76221327885605
 20
348.7047146045
 30
0.0
 11
540.29414371157714
 21
368.17280749193827
 31
0.0
  0
ARC
  5
2EA3
  8
ﾁｭｳｼﾝｾﾝ1
 10
644.91274845691328
 20
263.55418208815382
 30
0.0
 40
135.0000030000113
 50
308.60227370383109
 51
321.10565623636421
  0
LINE
  5
2EA4
  8
ﾁｭｳｼﾝｾﾝ1
 10
730.45495823452472
 20
178.0120023105425
 30
0.0
 11
750.00779920625382
 21
158.4591613388132
 31
0.0
  0
TEXT
  5
3092
  8
AM_0
 10
519.42512136689402
 20
613.63931484372586
 30
0.0
 40
15.0
  1
VX04-120AF~VX04-200AF
  0
ENDSEC
  0
EOF
