  0
SECTION
  2
HEADER
  9
$ACADVER
  1
AC1009
  9
$INSBASE
 10
0.0
 20
0.0
 30
0.0
  9
$EXTMIN
 10
304.48654541453152
 20
254.33566251696041
 30
-0.0000000000112498
  9
$EXTMAX
 10
1137.1144133801729
 20
944.70208280780696
 30
0.0000000000002956
  9
$LIMMIN
 10
0.0
 20
0.0
  9
$LIMMAX
 10
1422.5
 20
925.0
  9
$ORTHOMODE
 70
     0
  9
$REGENMODE
 70
     1
  9
$FILLMODE
 70
     1
  9
$QTEXTMODE
 70
     0
  9
$MIRRTEXT
 70
     1
  9
$DRAGMODE
 70
     2
  9
$LTSCALE
 40
5.0
  9
$OSMODE
 70
   551
  9
$ATTMODE
 70
     1
  9
$TEXTSIZE
 40
2.5
  9
$TRACEWID
 40
1.0
  9
$TEXTSTYLE
  7
STANDARD
  9
$CLAYER
  8
AM_0
  9
$CELTYPE
  6
BYLAYER
  9
$CECOLOR
 62
   256
  9
$DIMSCALE
 40
1.0
  9
$DIMASZ
 40
2.5
  9
$DIMEXO
 40
1.0
  9
$DIMDLI
 40
8.0
  9
$DIMRND
 40
0.0
  9
$DIMDLE
 40
0.0
  9
$DIMEXE
 40
0.6
  9
$DIMTP
 40
0.1
  9
$DIMTM
 40
0.1
  9
$DIMTXT
 40
2.5
  9
$DIMCEN
 40
0.0
  9
$DIMTSZ
 40
0.0
  9
$DIMTOL
 70
     0
  9
$DIMLIM
 70
     0
  9
$DIMTIH
 70
     0
  9
$DIMTOH
 70
     0
  9
$DIMSE1
 70
     0
  9
$DIMSE2
 70
     0
  9
$DIMTAD
 70
     1
  9
$DIMZIN
 70
     8
  9
$DIMBLK
  1

  9
$DIMASO
 70
     1
  9
$DIMSHO
 70
     1
  9
$DIMPOST
  1

  9
$DIMAPOST
  1
"
  9
$DIMALT
 70
     0
  9
$DIMALTD
 70
     2
  9
$DIMALTF
 40
0.0393701
  9
$DIMLFAC
 40
1.0
  9
$DIMTOFL
 70
     1
  9
$DIMTVP
 40
0.0
  9
$DIMTIX
 70
     0
  9
$DIMSOXD
 70
     0
  9
$DIMSAH
 70
     0
  9
$DIMBLK1
  1

  9
$DIMBLK2
  1

  9
$DIMSTYLE
  2
AM_ISO
  9
$DIMCLRD
 70
   256
  9
$DIMCLRE
 70
   256
  9
$DIMCLRT
 70
     4
  9
$DIMTFAC
 40
0.71
  9
$DIMGAP
 40
0.8
  9
$LUNITS
 70
     2
  9
$LUPREC
 70
     2
  9
$SKETCHINC
 40
1.0
  9
$FILLETRAD
 40
25.0
  9
$AUNITS
 70
     0
  9
$AUPREC
 70
     0
  9
$MENU
  1
.
  9
$ELEVATION
 40
0.0
  9
$PELEVATION
 40
0.0
  9
$THICKNESS
 40
0.0
  9
$LIMCHECK
 70
     0
  9
$BLIPMODE
 70
     0
  9
$CHAMFERA
 40
10.0
  9
$CHAMFERB
 40
5.0
  9
$SKPOLY
 70
     0
  9
$TDCREATE
 40
2452066.4161684369
  9
$TDUPDATE
 40
2458541.5430412041
  9
$TDINDWG
 40
0.1852391088
  9
$TDUSRTIMER
 40
0.1852389005
  9
$USRTIMER
 70
     1
  9
$ANGBASE
 50
0.0
  9
$ANGDIR
 70
     0
  9
$PDMODE
 70
     0
  9
$PDSIZE
 40
0.0
  9
$PLINEWID
 40
0.0
  9
$COORDS
 70
     1
  9
$SPLFRAME
 70
     0
  9
$SPLINETYPE
 70
     6
  9
$SPLINESEGS
 70
     8
  9
$ATTDIA
 70
     1
  9
$ATTREQ
 70
     1
  9
$HANDLING
 70
     1
  9
$HANDSEED
  5
33B8
  9
$SURFTAB1
 70
     6
  9
$SURFTAB2
 70
     6
  9
$SURFTYPE
 70
     6
  9
$SURFU
 70
     6
  9
$SURFV
 70
     6
  9
$UCSNAME
  2

  9
$UCSORG
 10
0.0
 20
0.0
 30
0.0
  9
$UCSXDIR
 10
1.0
 20
0.0
 30
0.0
  9
$UCSYDIR
 10
0.0
 20
1.0
 30
0.0
  9
$PUCSNAME
  2

  9
$PUCSORG
 10
0.0
 20
0.0
 30
0.0
  9
$PUCSXDIR
 10
1.0
 20
0.0
 30
0.0
  9
$PUCSYDIR
 10
0.0
 20
1.0
 30
0.0
  9
$USERI1
 70
     0
  9
$USERI2
 70
     0
  9
$USERI3
 70
     0
  9
$USERI4
 70
     0
  9
$USERI5
 70
     0
  9
$USERR1
 40
0.0
  9
$USERR2
 40
0.0
  9
$USERR3
 40
0.0
  9
$USERR4
 40
0.0
  9
$USERR5
 40
0.0
  9
$WORLDVIEW
 70
     1
  9
$SHADEDGE
 70
     3
  9
$SHADEDIF
 70
    70
  9
$TILEMODE
 70
     1
  9
$MAXACTVP
 70
    64
  9
$PLIMCHECK
 70
     0
  9
$PEXTMIN
 10
1.0000000000000000E+020
 20
1.0000000000000000E+020
 30
1.0000000000000000E+020
  9
$PEXTMAX
 10
-1.0000000000000000E+020
 20
-1.0000000000000000E+020
 30
-1.0000000000000000E+020
  9
$PLIMMIN
 10
0.0
 20
0.0
  9
$PLIMMAX
 10
420.0
 20
297.0
  9
$UNITMODE
 70
     0
  9
$VISRETAIN
 70
     1
  9
$PLINEGEN
 70
     0
  9
$PSLTSCALE
 70
     1
  0
ENDSEC
  0
SECTION
  2
TABLES
  0
TABLE
  2
VPORT
 70
     1
  0
VPORT
  2
*ACTIVE
 70
     0
 10
0.0
 20
0.0
 11
1.0
 21
1.0
 12
720.80047939735255
 22
599.51887266238373
 13
0.0
 23
0.0
 14
12.5
 24
12.5
 15
50.0
 25
50.0
 16
0.0
 26
0.0
 36
1.0
 17
0.0
 27
0.0
 37
0.0
 40
695.1057778672141
 41
1.7571592210767459
 42
50.0
 43
0.0
 44
0.0
 50
0.0
 51
0.0
 71
     0
 72
   100
 73
     1
 74
     3
 75
     0
 76
     0
 77
     0
 78
     0
  0
ENDTAB
  0
TABLE
  2
LTYPE
 70
    25
  0
LTYPE
  2
CONTINUOUS
 70
     0
  3
Solid line
 72
    65
 73
     0
 40
0.0
  0
LTYPE
  2
AM_ISO02W050
 70
     0
  3
__ __ __ __ __ __ __ __ __ __ __ __ __ __ __
 72
    65
 73
     2
 40
7.5
 49
6.0
 49
-1.5
  0
LTYPE
  2
AM_ISO08W050
 70
     0
  3
____ . ____ . ____ . ____ . ____ . ____ . ____
 72
    65
 73
     4
 40
18.0
 49
12.0
 49
-1.5
 49
3.0
 49
-1.5
  0
LTYPE
  2
AM_ISO09W050
 70
     0
  3
_____ . . _____ . . _____ . . ____ .. ____
 72
    65
 73
     6
 40
22.5
 49
12.0
 49
-1.5
 49
3.0
 49
-1.5
 49
3.0
 49
-1.5
  0
LTYPE
  2
AMCONSTR
 70
     0
  3
_______________________
 72
    65
 73
     2
 40
9999.0
 49
9999.0
 49
0.0
  0
LTYPE
  2
AM_ISO08W050X2
 70
     0
  3
__ . __ . __ . __ . __ . __
 72
    65
 73
     4
 40
9.0
 49
6.0
 49
-0.75
 49
1.5
 49
-0.75
  0
LTYPE
  2
AM_ISO02W050X2
 70
     0
  3
 _ _ _ _ _ _ _ _ _ _ _ _
 72
    65
 73
     2
 40
3.75
 49
3.0
 49
-0.75
  0
LTYPE
  2
AMZIGZAG
 70
     0
  3
/\/-/\/-/\/-/\/-/\/-/\/
 72
    65
 73
     2
 40
11.000099999999991
 49
0.0001
 49
-11.0
  0
LTYPE
  2
ACISOWELD
 70
     0
  3
_ _ _ _ _
 72
    65
 73
     2
 40
2.0
 49
2.0
 49
-1.0
  0
LTYPE
  2
ACISOTGB
 70
     0
  3
__ . . __ . .
 72
    65
 73
     6
 40
9.0
 49
4.0
 49
-1.0
 49
1.0
 49
-1.0
 49
1.0
 49
-1.0
  0
LTYPE
  2
ACISOTGL
 70
     0
  3
_ _ _ _ _
 72
    65
 73
     2
 40
3.0
 49
2.0
 49
-1.0
  0
LTYPE
  2
CENTER
 70
     0
  3
__ . __
 72
    65
 73
     4
 40
7.0
 49
4.0
 49
-1.0
 49
1.0
 49
-1.0
  0
LTYPE
  2
PHANTOM2
 70
     0
  3
Phantom (.5x) ___ _ _ ___ _ _ ___ _ _ ___ _ _
 72
    65
 73
     6
 40
31.75
 49
15.875
 49
-3.174999999999998
 49
3.174999999999998
 49
-3.174999999999998
 49
3.174999999999998
 49
-3.174999999999998
  0
LTYPE
  2
ACANSTGBM
 70
     0
  3
__ . . __ . .
 72
    65
 73
     6
 40
9.0
 49
4.0
 49
-1.0
 49
1.0
 49
-1.0
 49
1.0
 49
-1.0
  0
LTYPE
  2
ACANSTGLM
 70
     0
  3
_ _ _ _ _
 72
    65
 73
     2
 40
3.0
 49
2.0
 49
-1.0
  0
LTYPE
  2
GEN7A
 70
     0
  3
__ . __ . __
 72
    65
 73
     4
 40
7.375
 49
4.75
 49
-0.875
 49
0.875
 49
-0.875
  0
LTYPE
  2
ACJISTGB
 70
     0
  3
__ . . __ . .
 72
    65
 73
     6
 40
9.0
 49
4.0
 49
-1.0
 49
1.0
 49
-1.0
 49
1.0
 49
-1.0
  0
LTYPE
  2
ACJISTGL
 70
     0
  3
_ _ _ _ _
 72
    65
 73
     2
 40
3.0
 49
2.0
 49
-1.0
  0
LTYPE
  2
HIDDEN
 70
     0
  3
Hidden __ __ __ __ __ __ __ __ __ __ __ __ __ _
 72
    65
 73
     2
 40
0.375
 49
0.25
 49
-0.125
  0
LTYPE
  2
CENTER2
 70
     0
  3
Center (.5x) ___ _ ___ _ ___ _ ___ _ ___ _ ___
 72
    65
 73
     4
 40
1.125
 49
0.75
 49
-0.125
 49
0.125
 49
-0.125
  0
LTYPE
  2
HIDDEN2
 70
     0
  3
Hidden (.5x) _ _ _ _ _ _ _ _ _ _ _ _ _ _ _ _ _
 72
    65
 73
     2
 40
0.1875
 49
0.125
 49
-0.0625
  0
LTYPE
  2
AMZIGZAG2
 70
     0
  3
/\/-/\/-/\/-/\/-/\/-/\/
 72
    65
 73
     2
 40
0.4401
 49
0.0001
 49
-0.4400000000000002
  0
LTYPE
  2
ACANSTGB
 70
     0
  3
__ . . __ . .
 72
    65
 73
     6
 40
0.35433070866
 49
0.15748031496
 49
-0.03937007874
 49
0.03937007874
 49
-0.03937007874
 49
0.03937007874
 49
-0.03937007874
  0
LTYPE
  2
ACANSTGL
 70
     0
  3
_ _ _ _ _
 72
    65
 73
     2
 40
0.11811023622
 49
0.07874015748
 49
-0.03937007874
  0
ENDTAB
  0
TABLE
  2
LAYER
 70
     5
  0
LAYER
  2
0
 70
     0
 62
     7
  6
CONTINUOUS
  0
LAYER
  2
AM_0
 70
     0
 62
     7
  6
CONTINUOUS
  0
LAYER
  2
AM_5
 70
     0
 62
     2
  6
CONTINUOUS
  0
LAYER
  2
DEFPOINTS
 70
     0
 62
     7
  6
CONTINUOUS
  0
LAYER
  2
ﾁｭｳｼﾝｾﾝ1
 70
     0
 62
     1
  6
GEN7A
  0
ENDTAB
  0
TABLE
  2
STYLE
 70
     9
  0
STYLE
  2
STANDARD
 70
     0
 40
0.0
 41
0.8299999999999999
 50
0.0
 71
     0
 42
2.5
  3
txt.shx
  4
bigfont.shx
  0
STYLE
  2
ANNOTATIVE
 70
     0
 40
0.0
 41
1.0
 50
0.0
 71
     0
 42
0.2
  3
txt
  4

  0
STYLE
  2

 70
     1
 40
0.0
 41
1.0
 50
0.0
 71
     0
 42
2.5
  3
ltypeshp.shx
  4

  0
STYLE
  2
ACISOTS
 70
     0
 40
1.0
 41
1.0
 50
0.0
 71
     0
 42
2.5
  3
isocp.shx
  4
extfont.shx
  0
STYLE
  2
ACISOGDT
 70
     0
 40
0.0
 41
1.0
 50
0.0
 71
     0
 42
2.5
  3
amgdt.shx
  4

  0
STYLE
  2
ACANSTS
 70
     0
 40
1.0
 41
1.0
 50
0.0
 71
     0
 42
2.5
  3
romans.shx
  4
bigfont.shx
  0
STYLE
  2
ACANSGDT
 70
     0
 40
0.0
 41
1.0
 50
0.0
 71
     0
 42
2.5
  3
amgdt.shx
  4

  0
STYLE
  2
ACJISTS
 70
     0
 40
1.0
 41
1.0
 50
0.0
 71
     0
 42
2.5
  3
isocp.shx
  4
bigfont.shx
  0
STYLE
  2
ACJISGDT
 70
     0
 40
0.0
 41
1.0
 50
0.0
 71
     0
 42
2.5
  3
amgdt.shx
  4

  0
ENDTAB
  0
TABLE
  2
VIEW
 70
     6
  0
VIEW
  2
AM_VIEW1
 70
     0
 40
462.5
 10
416.07965009208078
 20
693.75
 41
832.15930018416213
 11
0.0
 21
0.0
 31
1.0
 12
0.0
 22
0.0
 32
0.0
 42
50.0
 43
0.0
 44
0.0
 50
0.0
 71
     0
  0
VIEW
  2
AM_VIEW2
 70
     0
 40
462.5
 10
1006.420349907918
 20
693.75
 41
832.15930018416213
 11
0.0
 21
0.0
 31
1.0
 12
0.0
 22
0.0
 32
0.0
 42
50.0
 43
0.0
 44
0.0
 50
0.0
 71
     0
  0
VIEW
  2
AM_VIEW3
 70
     0
 40
462.5
 10
416.07965009208078
 20
231.25
 41
832.15930018416213
 11
0.0
 21
0.0
 31
1.0
 12
0.0
 22
0.0
 32
0.0
 42
50.0
 43
0.0
 44
0.0
 50
0.0
 71
     0
  0
VIEW
  2
AM_VIEW4
 70
     0
 40
462.5
 10
1006.420349907918
 20
231.25
 41
832.15930018416213
 11
0.0
 21
0.0
 31
1.0
 12
0.0
 22
0.0
 32
0.0
 42
50.0
 43
0.0
 44
0.0
 50
0.0
 71
     0
  0
VIEW
  2
AM_VIEW5
 70
     0
 40
462.5
 10
711.24999999999966
 20
462.5
 41
832.15930018416179
 11
0.0
 21
0.0
 31
1.0
 12
0.0
 22
0.0
 32
0.0
 42
50.0
 43
0.0
 44
0.0
 50
0.0
 71
     0
  0
VIEW
  2
AM_VIEW6
 70
     0
 40
924.99075000000005
 10
711.24999999999966
 20
462.5
 41
1664.3019571823199
 11
0.0
 21
0.0
 31
1.0
 12
0.0
 22
0.0
 32
0.0
 42
50.0
 43
0.0
 44
0.0
 50
0.0
 71
     0
  0
ENDTAB
  0
TABLE
  2
UCS
 70
     0
  0
ENDTAB
  0
TABLE
  2
APPID
 70
    95
  0
APPID
  2
ACAD
 70
     0
  0
APPID
  2
ACADANNOTATIVE
 70
     0
  0
APPID
  2
MCAD_NO_VIS
 70
     0
  0
APPID
  2
ACAD_TEMP_GRAPHIC
 70
     0
  0
APPID
  2
ACATTRIBSERVICES
 70
     0
  0
APPID
  2
GENIUS_GENREC_14
 70
     0
  0
APPID
  2
GENIUS_GENOBJ-N-REC_13
 70
     0
  0
APPID
  2
GENIUS_GENODEF_13
 70
     0
  0
APPID
  2
GENIUS_GENOLIS_13
 70
     0
  0
APPID
  2
GENIUS_GENOBJ-N-TIT_13
 70
     0
  0
APPID
  2
GENIUS_GENOENT_13
 70
     0
  0
APPID
  2
GENIUS_GENTITLE_13
 70
     0
  0
APPID
  2
GENIUS_GENOREF_13
 70
     0
  0
APPID
  2
GENIUS_GENSCREG_15
 70
     0
  0
APPID
  2
GENIUS_GENOBJ-N-SDF_13
 70
     0
  0
APPID
  2
GENIUS_GENFIL_13
 70
     0
  0
APPID
  2
GENIUS_GENOBJ-N-CHA_13
 70
     0
  0
APPID
  2
GENIUS_GENDTOL_13
 70
     0
  0
APPID
  2
GENIUS_GENOBJ-N-FIL_13
 70
     0
  0
APPID
  2
AD_DRAW
 70
     0
  0
APPID
  2
DESIGNERASSEMBLIES
 70
     0
  0
APPID
  2
ASURF_PCURVE_APPNAME
 70
     0
  0
APPID
  2
GENIUS_GE3SECT_13
 70
     0
  0
APPID
  2
GENIUS_GENCFG_13
 70
     0
  0
APPID
  2
GENIUS_GE3CFG0_13
 70
     0
  0
APPID
  2
GENIUS_GENCFG0_13
 70
     0
  0
APPID
  2
GENIUS_GENCFG1_13
 70
     0
  0
APPID
  2
GENIUS_GENCFG2_13
 70
     0
  0
APPID
  2
GENIUS_GENCFG3_13
 70
     0
  0
APPID
  2
GENIUS_GENCFG4_13
 70
     0
  0
APPID
  2
GENIUS_GEVCFG0_13
 70
     0
  0
APPID
  2
GENIUS_GENHINW_13
 70
     0
  0
APPID
  2
GENIUS_FIRSTVISTXT_14
 70
     0
  0
APPID
  2
GENIUS_GENOBJ-N-LEADER_13
 70
     0
  0
APPID
  2
GEV_VCCNULL_SWITCH_OFF
 70
     0
  0
APPID
  2
GENIUS_GEFCFG0_13
 70
     0
  0
APPID
  2
GENIUS_GENZVEED_13
 70
     0
  0
APPID
  2
GENIUS_GENSCREG_13
 70
     0
  0
APPID
  2
GENIUS_DUMCFG0_13
 70
     0
  0
APPID
  2
GEVID936201362
 70
     0
  0
APPID
  2
GEVDC
 70
     0
  0
APPID
  2
GEVCON
 70
     0
  0
APPID
  2
VCC
 70
     0
  0
APPID
  2
GEVPT
 70
     0
  0
APPID
  2
GEVIT
 70
     0
  0
APPID
  2
GENBH
 70
     0
  0
APPID
  2
GEVMK
 70
     0
  0
APPID
  2
GENIUS_GENBH_13
 70
     0
  0
APPID
  2
GENIUS_GENOBJ-NBEHI-BHF_13
 70
     0
  0
APPID
  2
GENIUS_GENOBJ-NBEHI-BHB_13
 70
     0
  0
APPID
  2
GENIUS_GENOBJ-F-DESC_13
 70
     0
  0
APPID
  2
GENIUS_GEFDESC_14
 70
     0
  0
APPID
  2
GENIUS_GENOBJ-F-PART_13
 70
     0
  0
APPID
  2
GENIUS_GEFSTDP_13
 70
     0
  0
APPID
  2
GENIUS_GEFPARTINS_13
 70
     0
  0
APPID
  2
GENIUS_GENTRA_14
 70
     0
  0
APPID
  2
GENIUS_GENINF13_13
 70
     0
  0
APPID
  2
GENIUS_GENOBJ-N-INFOPT_13
 70
     0
  0
APPID
  2
GENIUS_GENOBJ-N-RSSYM_13
 70
     0
  0
APPID
  2
GENIUS_GENSYMENT_13
 70
     0
  0
APPID
  2
GENIUS_GENSCSYM_13
 70
     0
  0
APPID
  2
GENIUS_GEFINFNAM_13
 70
     0
  0
APPID
  2
GENIUS_GENOBJ-N-CEN_13
 70
     0
  0
APPID
  2
GENIUS_GENOBJ-N-CRS_13
 70
     0
  0
APPID
  2
GENIUS_GENOBJ-N-CRC_13
 70
     0
  0
APPID
  2
GENIUS_GENCRC_14
 70
     0
  0
APPID
  2
GEVID942827039
 70
     0
  0
APPID
  2
GEVID942827040
 70
     0
  0
APPID
  2
GEVID942827041
 70
     0
  0
APPID
  2
GENIUS_GENOBJ-F-SCPASSM_13
 70
     0
  0
APPID
  2
GENIUS_GENDIMSH_14
 70
     0
  0
APPID
  2
GEVID942827042
 70
     0
  0
APPID
  2
GEVID946020473
 70
     0
  0
APPID
  2
GEVID946020474
 70
     0
  0
APPID
  2
GEVID946020475
 70
     0
  0
APPID
  2
GENIUS_GENOBJ-N-HTC_13
 70
     0
  0
APPID
  2
GENIUS_GENHATCH_13
 70
     0
  0
APPID
  2
GEVID948854295
 70
     0
  0
APPID
  2
GEVID939402019
 70
     0
  0
APPID
  2
GEVID952919491
 70
     0
  0
APPID
  2
GEVID952919492
 70
     0
  0
APPID
  2
GENIUS_GEFWELD_13
 70
     0
  0
APPID
  2
GENIUS_GENOBJ-F-WELS_13
 70
     0
  0
APPID
  2
GEVID952919493
 70
     0
  0
APPID
  2
GENIUS_GENOBJ-N-RSBK_13
 70
     0
  0
APPID
  2
GENIUS_GENOBJ-N-LIB_13
 70
     0
  0
APPID
  2
GENIUS_GENSCALE_13
 70
     0
  0
APPID
  2
GEVID986376691
 70
     0
  0
APPID
  2
DCO15
 70
     0
  0
APPID
  2
ACAD_DSTYLE_DIMBREAK
 70
     0
  0
APPID
  2
ACAD_DSTYLE_DIMJAG
 70
     0
  0
APPID
  2
ACAD_NAV_VCDISPLAY
 70
     0
  0
APPID
  2
ACADANNOPO
 70
     0
  0
APPID
  2
ACAD_EXEMPT_FROM_CAD_STANDARDS
 70
     0
  0
APPID
  2
ACAD_MLEADERVER
 70
     0
  0
ENDTAB
  0
TABLE
  2
DIMSTYLE
 70
    22
  0
DIMSTYLE
  2
STANDARD
 70
     0
  3

  4

  5

  6

  7

 40
1.0
 41
0.18
 42
0.0625
 43
0.38
 44
0.18
 45
0.0
 46
0.0
 47
0.0
 48
0.0
140
0.18
141
0.09
142
0.0
143
25.399999999999999
144
1.0
145
0.0
146
1.0
147
0.09
 71
     0
 72
     0
 73
     1
 74
     1
 75
     0
 76
     0
 77
     0
 78
     0
170
     0
171
     2
172
     0
173
     0
174
     0
175
     0
176
     0
177
     0
178
     0
  0
DIMSTYLE
  2
ANNOTATIVE
 70
     0
  3

  4

  5

  6

  7

 40
1.0
 41
0.18
 42
0.0625
 43
0.38
 44
0.18
 45
0.0
 46
0.0
 47
0.0
 48
0.0
140
0.18
141
0.09
142
0.0
143
25.399999999999999
144
1.0
145
0.0
146
1.0
147
0.09
 71
     0
 72
     0
 73
     1
 74
     1
 75
     0
 76
     0
 77
     0
 78
     0
170
     0
171
     2
172
     0
173
     0
174
     0
175
     0
176
     0
177
     0
178
     0
  0
DIMSTYLE
  2
AM_ISO
 70
     0
  3

  4
"
  5

  6

  7

 40
1.0
 41
2.5
 42
1.0
 43
8.0
 44
0.6
 45
0.0
 46
0.0
 47
0.1
 48
0.1
140
2.5
141
0.0
142
0.0
143
0.0393701
144
1.0
145
0.0
146
0.71
147
0.8
 71
     0
 72
     0
 73
     0
 74
     0
 75
     0
 76
     0
 77
     1
 78
     8
170
     0
171
     2
172
     1
173
     0
174
     0
175
     0
176
   256
177
   256
178
     4
  0
DIMSTYLE
  2
AM_ISO$3
 70
     0
  3

  4
"
  5

  6

  7

 40
1.0
 41
2.5
 42
1.0
 43
8.0
 44
0.6
 45
0.0
 46
0.0
 47
0.1
 48
0.1
140
2.5
141
0.0
142
0.0
143
0.0393701
144
1.0
145
0.0
146
0.71
147
0.8
 71
     0
 72
     0
 73
     0
 74
     1
 75
     0
 76
     0
 77
     1
 78
     8
170
     0
171
     2
172
     0
173
     0
174
     0
175
     0
176
   256
177
   256
178
     4
  0
DIMSTYLE
  2
AM_ISO$4
 70
     0
  3

  4
"
  5

  6

  7

 40
1.0
 41
2.5
 42
1.0
 43
8.0
 44
0.6
 45
0.0
 46
0.0
 47
0.1
 48
0.1
140
2.5
141
0.0
142
0.0
143
0.0393701
144
1.0
145
0.0
146
0.71
147
0.8
 71
     0
 72
     0
 73
     0
 74
     1
 75
     0
 76
     0
 77
     1
 78
     8
170
     0
171
     2
172
     0
173
     0
174
     0
175
     0
176
   256
177
   256
178
     4
  0
DIMSTYLE
  2
AM_ISO$6
 70
     0
  3

  4
"
  5

  6

  7

 40
1.0
 41
2.5
 42
1.0
 43
8.0
 44
0.6
 45
0.0
 46
0.0
 47
0.1
 48
0.1
140
2.5
141
0.0
142
0.0
143
0.0393701
144
1.0
145
0.0
146
0.71
147
0.8
 71
     0
 72
     0
 73
     0
 74
     0
 75
     0
 76
     0
 77
     0
 78
     8
170
     0
171
     2
172
     1
173
     0
174
     0
175
     0
176
   256
177
   256
178
     4
  0
DIMSTYLE
  2
AM_ISO$7
 70
     0
  3

  4
"
  5

  6

  7

 40
1.0
 41
2.5
 42
1.0
 43
8.0
 44
0.6
 45
0.0
 46
0.0
 47
0.1
 48
0.1
140
2.5
141
0.0
142
0.0
143
0.0393701
144
1.0
145
0.0
146
0.71
147
0.8
 71
     0
 72
     0
 73
     0
 74
     0
 75
     0
 76
     0
 77
     1
 78
     8
170
     0
171
     2
172
     1
173
     0
174
     0
175
     0
176
   256
177
   256
178
     4
  0
DIMSTYLE
  2
AM_ISO$SF
 70
     0
  3

  4
"
  5

  6

  7

 40
1.0
 41
2.5
 42
1.0
 43
10.0
 44
1.0
 45
0.0
 46
0.0
 47
0.1
 48
0.1
140
3.5
141
0.0
142
0.0
143
0.0393701
144
1.0
145
0.0
146
0.71
147
1.5
 71
     0
 72
     0
 73
     0
 74
     0
 75
     1
 76
     1
 77
     1
 78
     8
170
     0
171
     2
172
     1
173
     0
174
     0
175
     0
176
   256
177
   256
178
     2
  0
DIMSTYLE
  2
AM_ISO$SH
 70
     0
  3

  4
"
  5

  6

  7

 40
1.0
 41
2.5
 42
1.0
 43
10.0
 44
1.0
 45
0.0
 46
0.0
 47
0.1
 48
0.1
140
3.5
141
0.0
142
0.0
143
0.0393701
144
2.0
145
0.0
146
0.71
147
1.5
 71
     0
 72
     0
 73
     0
 74
     0
 75
     1
 76
     1
 77
     1
 78
     8
170
     0
171
     2
172
     1
173
     1
174
     0
175
     0
176
   256
177
   256
178
     2
  0
DIMSTYLE
  2
AM_JIS
 70
     0
  3

  4
"
  5

  6

  7

 40
1.0
 41
2.5
 42
1.0
 43
7.0
 44
1.0
 45
0.0
 46
0.0
 47
0.1
 48
0.1000000001
140
2.5
141
0.0
142
0.0
143
0.0393701
144
1.0
145
0.0
146
0.71
147
1.0
 71
     0
 72
     0
 73
     0
 74
     0
 75
     0
 76
     0
 77
     3
 78
     8
170
     0
171
     2
172
     1
173
     0
174
     0
175
     0
176
   256
177
   256
178
     4
  0
DIMSTYLE
  2
AM_JIS$3
 70
     0
  3

  4
"
  5

  6

  7

 40
1.0
 41
2.5
 42
1.0
 43
7.0
 44
1.0
 45
0.0
 46
0.0
 47
0.1
 48
0.1000000001
140
2.5
141
0.0
142
0.0
143
0.0393701
144
1.0
145
0.0
146
0.71
147
1.0
 71
     0
 72
     0
 73
     0
 74
     1
 75
     0
 76
     0
 77
     3
 78
     8
170
     0
171
     2
172
     0
173
     0
174
     0
175
     0
176
   256
177
   256
178
     4
  0
DIMSTYLE
  2
AM_JIS$4
 70
     0
  3

  4
"
  5

  6

  7

 40
1.0
 41
2.5
 42
1.0
 43
7.0
 44
1.0
 45
0.0
 46
0.0
 47
0.1
 48
0.1000000001
140
2.5
141
0.0
142
0.0
143
0.0393701
144
1.0
145
0.0
146
0.71
147
1.0
 71
     0
 72
     0
 73
     0
 74
     0
 75
     0
 76
     0
 77
     3
 78
     8
170
     0
171
     2
172
     0
173
     0
174
     0
175
     0
176
   256
177
   256
178
     4
  0
DIMSTYLE
  2
AM_JIS$6
 70
     0
  3

  4
"
  5

  6

  7

 40
1.0
 41
2.5
 42
1.0
 43
7.0
 44
1.0
 45
0.0
 46
0.0
 47
0.1
 48
0.1000000001
140
2.5
141
0.0
142
0.0
143
0.0393701
144
1.0
145
0.0
146
0.71
147
1.0
 71
     0
 72
     0
 73
     0
 74
     0
 75
     0
 76
     0
 77
     0
 78
     8
170
     0
171
     2
172
     1
173
     0
174
     0
175
     0
176
   256
177
   256
178
     4
  0
DIMSTYLE
  2
AM_JIS$7
 70
     0
  3

  4
"
  5

  6

  7

 40
1.0
 41
2.5
 42
1.0
 43
7.0
 44
1.0
 45
0.0
 46
0.0
 47
0.1
 48
0.1000000001
140
2.5
141
0.0
142
0.0
143
0.0393701
144
1.0
145
0.0
146
0.71
147
1.0
 71
     0
 72
     0
 73
     0
 74
     0
 75
     0
 76
     0
 77
     3
 78
     8
170
     0
171
     2
172
     1
173
     0
174
     0
175
     0
176
   256
177
   256
178
     4
  0
DIMSTYLE
  2
AM_JIS$SF
 70
     0
  3

  4
"
  5

  6

  7

 40
1.0
 41
2.5
 42
1.0
 43
10.0
 44
1.0
 45
0.0
 46
0.0
 47
0.1
 48
0.1
140
3.5
141
0.0
142
0.0
143
0.0393701
144
1.0
145
0.0
146
0.71
147
1.5
 71
     0
 72
     0
 73
     0
 74
     0
 75
     1
 76
     1
 77
     3
 78
     8
170
     0
171
     2
172
     1
173
     0
174
     0
175
     0
176
   256
177
   256
178
     4
  0
DIMSTYLE
  2
AM_JIS$SH
 70
     0
  3

  4
"
  5

  6

  7

 40
1.0
 41
2.5
 42
1.0
 43
10.0
 44
1.0
 45
0.0
 46
0.0
 47
0.1
 48
0.1
140
3.5
141
0.0
142
0.0
143
0.0393701
144
1.0
145
0.0
146
0.71
147
1.5
 71
     0
 72
     0
 73
     0
 74
     0
 75
     1
 76
     0
 77
     3
 78
     8
170
     0
171
     2
172
     1
173
     1
174
     0
175
     0
176
   256
177
   256
178
     4
  0
DIMSTYLE
  2
AM_ANSI
 70
     0
  3

  4
mm
  5

  6

  7

 40
1.0
 41
0.1
 42
0.05
 43
0.5
 44
0.1
 45
0.0
 46
0.0
 47
0.1
 48
0.1
140
0.12
141
0.0
142
0.0
143
25.399999999999999
144
1.0
145
0.0
146
0.71
147
0.06
 71
     0
 72
     0
 73
     1
 74
     1
 75
     0
 76
     0
 77
     0
 78
     7
170
     0
171
     2
172
     0
173
     0
174
     0
175
     0
176
   256
177
   256
178
     2
  0
DIMSTYLE
  2
AM_ANSI$3
 70
     0
  3

  4
mm
  5

  6

  7

 40
1.0
 41
0.1
 42
0.05
 43
0.5
 44
0.1
 45
0.0
 46
0.0
 47
0.1
 48
0.1
140
0.12
141
0.0
142
0.0
143
25.399999999999999
144
1.0
145
0.0
146
0.71
147
0.06
 71
     0
 72
     0
 73
     1
 74
     1
 75
     0
 76
     0
 77
     0
 78
     7
170
     0
171
     2
172
     0
173
     0
174
     0
175
     0
176
   256
177
   256
178
     2
  0
DIMSTYLE
  2
AM_ANSI$4
 70
     0
  3

  4
mm
  5

  6

  7

 40
1.0
 41
0.1
 42
0.05
 43
0.5
 44
0.1
 45
0.0
 46
0.0
 47
0.1
 48
0.1
140
0.12
141
0.0
142
0.0
143
25.399999999999999
144
1.0
145
0.0
146
0.71
147
0.06
 71
     0
 72
     0
 73
     1
 74
     1
 75
     0
 76
     0
 77
     0
 78
     7
170
     0
171
     2
172
     0
173
     0
174
     0
175
     0
176
   256
177
   256
178
     2
  0
DIMSTYLE
  2
AM_ANSI$7
 70
     0
  3

  4
mm
  5

  6

  7

 40
1.0
 41
0.1
 42
0.05
 43
0.5
 44
0.1
 45
0.0
 46
0.0
 47
0.1
 48
0.1
140
0.24
141
0.0
142
0.0
143
25.399999999999999
144
1.0
145
0.0
146
0.71
147
0.06
 71
     0
 72
     0
 73
     1
 74
     1
 75
     0
 76
     0
 77
     0
 78
     7
170
     0
171
     2
172
     0
173
     0
174
     0
175
     0
176
   256
177
   256
178
     2
  0
DIMSTYLE
  2
AM_ANSI$SF
 70
     0
  3

  4
mm
  5

  6

  7

 40
1.0
 41
0.1
 42
0.05
 43
0.5
 44
0.1
 45
0.0
 46
0.0
 47
0.1
 48
0.1
140
0.12
141
0.0
142
0.0
143
25.399999999999999
144
1.0
145
0.0
146
0.71
147
0.06
 71
     0
 72
     0
 73
     1
 74
     1
 75
     1
 76
     1
 77
     0
 78
     7
170
     0
171
     2
172
     0
173
     0
174
     0
175
     0
176
   256
177
   256
178
     2
  0
DIMSTYLE
  2
AM_ANSI$SH
 70
     0
  3

  4
mm
  5

  6

  7

 40
1.0
 41
0.1
 42
0.05
 43
0.5
 44
0.1
 45
0.0
 46
0.0
 47
0.1
 48
0.1
140
0.12
141
0.0
142
0.0
143
25.399999999999999
144
1.0
145
0.0
146
0.71
147
0.06
 71
     0
 72
     0
 73
     1
 74
     1
 75
     1
 76
     1
 77
     0
 78
     7
170
     0
171
     2
172
     0
173
     1
174
     0
175
     0
176
   256
177
   256
178
     2
  0
ENDTAB
  0
ENDSEC
  0
SECTION
  2
BLOCKS
  0
BLOCK
  8
0
  2
$MODEL_SPACE
 70
     0
 10
0.0
 20
0.0
 30
0.0
  3
$MODEL_SPACE
  1

  0
ENDBLK
  5
3222
  8
0
  0
BLOCK
 67
     1
  8
0
  2
$PAPER_SPACE
 70
     0
 10
0.0
 20
0.0
 30
0.0
  3
$PAPER_SPACE
  1

  0
ENDBLK
  5
321E
 67
     1
  8
0
  0
BLOCK
  8
0
  2
GENAXEH
 70
     0
 10
0.0
 20
0.0
 30
0.0
  3
GENAXEH
  1

  0
LINE
  5
2F9C
  8
0
 10
-1.0
 20
0.0
 30
0.0
 11
1.0
 21
0.0
 31
0.0
  0
ENDBLK
  5
2F9D
  8
0
  0
BLOCK
  8
0
  2
_OPEN30
 70
     0
 10
0.0
 20
0.0
 30
0.0
  3
_OPEN30
  1

  0
LINE
  5
2FA0
  8
0
 62
     0
 10
-1.0
 20
0.26794919
 30
0.0
 11
0.0
 21
0.0
 31
0.0
  0
LINE
  5
2FA1
  8
0
 62
     0
 10
0.0
 20
0.0
 30
0.0
 11
-1.0
 21
-0.26794919
 31
0.0
  0
LINE
  5
2FA2
  8
0
 62
     0
 10
0.0
 20
0.0
 30
0.0
 11
-1.0
 21
0.0
 31
0.0
  0
ENDBLK
  5
2FA3
  8
0
  0
BLOCK
  8
0
  2
_NONE
 70
     0
 10
0.0
 20
0.0
 30
0.0
  3
_NONE
  1

  0
ENDBLK
  5
2FA6
  8
0
  0
BLOCK
  8
0
  2
*U5
 70
     1
 10
0.0
 20
0.0
 30
0.0
  3
*U5
  1

  0
TEXT
  5
2FA9
  8
AM_0
 62
     4
 10
352.81134842679552
 20
336.41468066666681
 30
0.0
 40
12.5
  1
\U+2205
 50
90.0
 41
0.8299999999999999
  0
TEXT
  5
2FAA
  8
AM_0
 62
     4
 10
352.81134842679552
 20
346.78968066666681
 30
0.0
 40
12.5
  1
160
 50
90.0
 41
0.8299999999999999
  0
ENDBLK
  5
2FAB
  8
0
  0
BLOCK
  8
0
  2
*U6
 70
     1
 10
0.0
 20
0.0
 30
0.0
  3
*U6
  1

  0
TEXT
  5
2FAE
  8
AM_0
 62
     4
 10
381.95648680557707
 20
329.49801400000018
 30
0.0
 40
12.5
  1
\U+2205
 50
90.0
 41
0.8299999999999999
  0
TEXT
  5
2FAF
  8
AM_0
 62
     4
 10
381.95648680557707
 20
339.8730140000003
 30
0.0
 40
12.5
  1
110
 50
90.0
 41
0.8299999999999999
  0
TEXT
  5
2FB0
  8
AM_0
 62
     4
 10
381.95648680557707
 20
362.35218066666681
 30
0.0
 40
10.0
  1
G7
 50
90.0
 41
0.8299999999999999
  0
ENDBLK
  5
2FB1
  8
0
  0
BLOCK
  8
0
  2
*U7
 70
     1
 10
0.0
 20
0.0
 30
0.0
  3
*U7
  1

  0
TEXT
  5
2FB4
  8
AM_0
 62
     4
 10
892.27011377300755
 20
400.24961666666661
 30
0.0
 40
12.5
  1
\U+2205
 50
90.0
 41
0.8299999999999999
  0
TEXT
  5
2FB5
  8
AM_0
 62
     4
 10
892.27011377300755
 20
410.6246166666669
 30
0.0
 40
12.5
  1
240
 50
90.0
 41
0.8299999999999999
  0
TEXT
  5
2FB6
  8
AM_0
 62
     4
 10
892.27011377300755
 20
440.0204500000001
 30
0.0
 40
10.0
  1
h7
 50
90.0
 41
0.8299999999999999
  0
ENDBLK
  5
2FB7
  8
0
  0
BLOCK
  8
0
  2
*U8
 70
     1
 10
0.0
 20
0.0
 30
0.0
  3
*U8
  1

  0
TEXT
  5
2FBA
  8
AM_0
 62
     4
 10
1102.7142258390841
 20
626.29064353693673
 30
0.0
 40
12.5
  1
o
 41
0.8299999999999999
  0
TEXT
  5
2FBB
  8
AM_0
 62
     4
 10
1115.065416315274
 20
626.29064353693673
 30
0.0
 40
12.5
  1
 285
 41
0.8299999999999999
  0
ENDBLK
  5
2FBC
  8
0
  0
BLOCK
  8
0
  2
*U9
 70
     1
 10
0.0
 20
0.0
 30
0.0
  3
*U9
  1

  0
TEXT
  5
2FBF
  8
AM_0
 62
     4
 10
785.86788174339586
 20
399.28020344831862
 30
0.0
 40
12.5
  1
\U+2205
 50
90.0
 41
0.8299999999999999
  0
TEXT
  5
2FC0
  8
AM_0
 62
     4
 10
785.86788174339586
 20
409.65520344831862
 30
0.0
 40
12.5
  1
240
 50
90.0
 41
0.8299999999999999
  0
TEXT
  5
2FC1
  8
AM_0
 62
     4
 10
785.86788174339586
 20
439.05103678165199
 30
0.0
 40
10.0
  1
h7
 50
90.0
 41
0.8299999999999999
  0
ENDBLK
  5
2FC2
  8
0
  0
BLOCK
  8
0
  2
*U10
 70
     1
 10
0.0
 20
0.0
 30
0.0
  3
*U10
  1

  0
TEXT
  5
2FC5
  8
AM_0
 62
     4
 10
996.31199380947271
 20
625.32123031858873
 30
0.0
 40
12.5
  1
o
 41
0.8299999999999999
  0
TEXT
  5
2FC6
  8
AM_0
 62
     4
 10
1008.663184285663
 20
625.32123031858873
 30
0.0
 40
12.5
  1
 285
 41
0.8299999999999999
  0
ENDBLK
  5
2FC7
  8
0
  0
BLOCK
  8
0
  2
*U11
 70
     1
 10
0.0
 20
0.0
 30
0.0
  3
*U11
  1

  0
TEXT
  5
2FCA
  8
AM_0
 62
     4
 10
275.55425477596521
 20
328.52860078165202
 30
0.0
 40
12.5
  1
\U+2205
 50
90.0
 41
0.8299999999999999
  0
TEXT
  5
2FCB
  8
AM_0
 62
     4
 10
275.55425477596521
 20
338.90360078165202
 30
0.0
 40
12.5
  1
110
 50
90.0
 41
0.8299999999999999
  0
TEXT
  5
2FCC
  8
AM_0
 62
     4
 10
275.55425477596521
 20
361.3827674483187
 30
0.0
 40
10.0
  1
G7
 50
90.0
 41
0.8299999999999999
  0
ENDBLK
  5
2FCD
  8
0
  0
BLOCK
  8
0
  2
*U12
 70
     1
 10
0.0
 20
0.0
 30
0.0
  3
*U12
  1

  0
TEXT
  5
2FD0
  8
AM_0
 62
     4
 10
246.4091163971836
 20
335.44526744831882
 30
0.0
 40
12.5
  1
\U+2205
 50
90.0
 41
0.8299999999999999
  0
TEXT
  5
2FD1
  8
AM_0
 62
     4
 10
246.4091163971836
 20
345.8202674483187
 30
0.0
 40
12.5
  1
160
 50
90.0
 41
0.8299999999999999
  0
ENDBLK
  5
2FD2
  8
0
  0
BLOCK
  8
0
  2
_ACMFILLEDHALF
 70
     0
 10
0.0
 20
0.0
 30
0.0
  3
_ACMFILLEDHALF
  1

  0
TRACE
  5
3326
  8
AM_0
 62
     0
 10
-0.8
 20
0.0
 30
0.0
 11
-1.0
 21
0.166666666
 31
0.0
 12
0.0
 22
0.0
 32
0.0
 13
0.0
 23
0.0
 33
0.0
  0
LINE
  5
3327
  8
AM_0
 62
     0
 10
-1.0
 20
0.0
 30
0.0
 11
-0.8
 21
0.0
 31
0.0
  0
ENDBLK
  5
3325
  8
0
  0
ENDSEC
  0
SECTION
  2
ENTITIES
  0
LINE
  5
2FD4
  8
AM_0
 10
657.97716549003985
 20
796.13017171415754
 30
0.0
 11
713.97713549003981
 21
796.13017171415754
 31
0.0
  0
LINE
  5
2FD5
  8
AM_0
 10
657.97716549003985
 20
808.13017171415765
 30
0.0
 11
713.97713549003981
 21
808.13017171415765
 31
0.0
  0
LINE
  5
2FD6
  8
AM_0
 10
643.97716549003985
 20
781.13023171415773
 30
0.0
 11
713.97713549003981
 21
781.13023171415773
 31
0.0
  0
LINE
  5
2FD7
  8
AM_0
 10
643.97716549003985
 20
823.13023171415784
 30
0.0
 11
713.97713549003981
 21
823.13023171415784
 31
0.0
  0
LINE
  5
2FD8
  8
ﾁｭｳｼﾝｾﾝ1
 10
304.53218846852423
 20
802.13023171415773
 30
0.0
 11
725.49110549003967
 21
802.13023171415773
 31
0.0
  0
LINE
  5
2FD9
  8
AM_0
 10
375.47716549003991
 20
844.98881171415769
 30
0.0
 11
437.87071549003991
 21
844.98881171415769
 31
0.0
  0
LINE
  5
2FDA
  8
AM_0
 10
375.47716549003991
 20
759.80748171415792
 30
0.0
 11
437.6641754900399
 21
759.80748171415792
 31
0.0
  0
LINE
  5
2FDB
  8
AM_0
 10
360.47716549003991
 20
750.62987171415773
 30
0.0
 11
441.55174549003982
 21
750.62987171415773
 31
0.0
  0
LINE
  5
2FDC
  8
AM_0
 10
360.47716549003991
 20
853.63023171415773
 30
0.0
 11
441.5515054900398
 21
853.63023171415773
 31
0.0
  0
LINE
  5
2FDD
  8
AM_0
 10
447.58183549004002
 20
784.61229171415755
 30
0.0
 11
378.37248549003999
 21
787.02916171415791
 31
0.0
  0
LINE
  5
2FDE
  8
AM_0
 10
447.58183549004002
 20
819.64818171415789
 30
0.0
 11
378.37242549003992
 21
817.23131171415775
 31
0.0
  0
LINE
  5
2FDF
  8
AM_0
 10
447.58189549003993
 20
869.1719817141576
 30
0.0
 11
360.47722549003993
 21
866.13023171415773
 31
0.0
  0
LINE
  5
2FE0
  8
AM_0
 10
447.58183549004002
 20
735.08848171415775
 30
0.0
 11
360.47716549003991
 21
738.13023171415773
 31
0.0
  0
ARC
  5
2FE1
  8
AM_0
 10
378.47716549003991
 20
790.02727171415791
 30
0.0
 40
3.0
 50
180.00001000000091
 51
267.99999999999631
  0
LINE
  5
2FE2
  8
AM_0
 10
375.47716549003991
 20
759.80748171415792
 30
0.0
 11
375.47716549003991
 21
844.98881171415769
 31
0.0
  0
LINE
  5
2FE3
  8
AM_0
 10
360.47716549003991
 20
738.13023171415773
 30
0.0
 11
360.47716549003991
 21
866.13023171415773
 31
0.0
  0
LINE
  5
2FE4
  8
AM_0
 10
360.47716549003991
 20
764.07530171415772
 30
0.0
 11
375.47716549003991
 21
764.07530171415772
 31
0.0
  0
ARC
  5
2FE5
  8
AM_0
 10
378.47716549003991
 20
814.23314171415745
 30
0.0
 40
3.0
 50
91.999998000000545
 51
180.00001000000091
  0
LINE
  5
2FE6
  8
AM_0
 10
360.47716549003991
 20
840.98949171415791
 30
0.0
 11
375.47716549003991
 21
840.98949171415791
 31
0.0
  0
POLYLINE
  5
2FE7
  8
AM_0
 66
     1
 10
0.0
 20
0.0
 30
0.0
  0
VERTEX
  5
2FE8
  8
AM_0
 10
598.84136549003995
 20
853.69472171415794
 30
0.0
 42
0.030646501
  0
VERTEX
  5
2FE9
  8
AM_0
 10
594.43181549003998
 20
819.41132171415791
 30
0.0
 42
0.064801596
  0
VERTEX
  5
2FEA
  8
AM_0
 10
598.84136549003995
 20
750.56571171415771
 30
0.0
  0
SEQEND
  5
2FEB
  8
AM_0
  0
LINE
  5
2FEC
  8
AM_0
 10
641.9770954900398
 20
682.13023171415762
 30
0.0
 11
641.9770954900398
 21
922.13017171415743
 31
0.0
  0
LINE
  5
2FED
  8
AM_0
 10
627.97709549003957
 20
691.17290171415789
 30
0.0
 11
627.97709549003957
 21
913.0875117141577
 31
0.0
  0
LINE
  5
2FEE
  8
AM_0
 10
637.9770954900398
 20
659.63023171415762
 30
0.0
 11
637.9770954900398
 21
944.63017171415765
 31
0.0
  0
LINE
  5
2FEF
  8
AM_0
 10
619.97716549003985
 20
663.13921171415791
 30
0.0
 11
619.97716549003985
 21
941.10460171415752
 31
0.0
  0
LINE
  5
2FF0
  8
AM_0
 10
643.97716549003985
 20
779.63023171415773
 30
0.0
 11
643.97716549003985
 21
824.63023171415773
 31
0.0
  0
LINE
  5
2FF1
  8
AM_0
 10
450.47716549003991
 20
731.87645171415772
 30
0.0
 11
450.47716549003991
 21
872.38396171415752
 31
0.0
  0
LINE
  5
2FF2
  8
AM_0
 10
460.4770354900399
 20
728.63017171415777
 30
0.0
 11
460.4770354900399
 21
875.63023171415762
 31
0.0
  0
LINE
  5
2FF3
  8
AM_0
 10
521.97716549003985
 20
662.39220171415786
 30
0.0
 11
521.97716549003985
 21
798.13017171415754
 31
0.0
  0
LINE
  5
2FF4
  8
AM_0
 10
508.9770354900399
 20
665.92039171415797
 30
0.0
 11
508.9770354900399
 21
792.59080171415792
 31
0.0
  0
LINE
  5
2FF5
  8
AM_0
 10
494.97716549003968
 20
688.02220171415775
 30
0.0
 11
494.97716549003968
 21
798.13017171415754
 31
0.0
  0
LINE
  5
2FF6
  8
AM_0
 10
521.97716549003985
 20
750.56566171415773
 30
0.0
 11
619.97716549003985
 21
750.56566171415773
 31
0.0
  0
LINE
  5
2FF7
  8
AM_0
 10
521.97716549003985
 20
724.56444171415774
 30
0.0
 11
573.77287549003995
 21
724.56444171415774
 31
0.0
  0
LINE
  5
2FF8
  8
AM_0
 10
521.9770954900398
 20
662.3922617141576
 30
0.0
 11
622.91069549003976
 21
660.15660171415766
 31
0.0
  0
LINE
  5
2FF9
  8
AM_0
 10
521.97716549003985
 20
672.99986171415765
 30
0.0
 11
619.97716549003985
 21
669.57762171415766
 31
0.0
  0
LINE
  5
2FFA
  8
AM_0
 10
460.47709549003991
 20
728.63017171415777
 30
0.0
 11
490.1516654900397
 21
727.59392171415755
 31
0.0
  0
LINE
  5
2FFB
  8
AM_0
 10
460.47716549003991
 20
762.65550171415759
 30
0.0
 11
494.97716549003968
 21
762.65550171415759
 31
0.0
  0
LINE
  5
2FFC
  8
AM_0
 10
460.47716549003991
 20
740.55156171415774
 30
0.0
 11
494.97716549003968
 21
740.55156171415774
 31
0.0
  0
POLYLINE
  5
2FFD
  8
AM_0
 66
     1
 10
0.0
 20
0.0
 30
0.0
  0
VERTEX
  5
2FFE
  8
AM_0
 10
450.47716549003991
 20
734.13023171415773
 30
0.0
  0
VERTEX
  5
2FFF
  8
AM_0
 10
430.74073549003998
 20
785.20022171415792
 30
0.0
 42
-1.0
  0
SEQEND
  5
3000
  8
AM_0
  0
ARC
  5
3001
  8
AM_0
 10
447.47716549003991
 20
732.0902517141576
 30
0.0
 40
3.0
 50
0.0
 51
87.999999999996248
  0
LINE
  5
3002
  8
AM_0
 10
460.47716549003991
 20
740.55156171415774
 30
0.0
 11
450.47716549003991
 21
740.55156171415774
 31
0.0
  0
LINE
  5
3003
  8
AM_0
 10
460.47709549003991
 20
728.63017171415777
 30
0.0
 11
453.37248549003971
 21
728.87828171415754
 31
0.0
  0
ARC
  5
3004
  8
AM_0
 10
453.47716549003968
 20
731.87645171415772
 30
0.0
 40
3.0
 50
180.00001000000091
 51
267.99999999999631
  0
ARC
  5
3005
  8
AM_0
 10
447.47716549003991
 20
781.61406171415774
 30
0.0
 40
3.0
 50
0.0
 51
87.999999999996248
  0
LINE
  5
3006
  8
AM_0
 10
460.47716549003991
 20
762.65550171415759
 30
0.0
 11
450.47716549003991
 21
762.65550171415759
 31
0.0
  0
ARC
  5
3007
  8
AM_0
 10
489.97716549003991
 20
722.59697171415792
 30
0.0
 40
5.0
 50
0.0
 51
87.999999999996248
  0
ARC
  5
3008
  8
AM_0
 10
511.97703549003973
 20
665.92039171415797
 30
0.0
 40
3.0
 50
180.00001000000091
 51
266.99999000000008
  0
ARC
  5
3009
  8
AM_0
 10
505.97716549003991
 20
680.50249171415771
 30
0.0
 40
3.0
 50
0.0
 51
79.999998000001099
  0
ARC
  5
300A
  8
AM_0
 10
510.97716549003991
 20
675.3852417141577
 30
0.0
 40
2.0
 50
179.9999899999988
 51
268.00000999999861
  0
LINE
  5
300B
  8
AM_0
 10
497.45616549003989
 20
685.05119171415765
 30
0.0
 11
506.49809549003987
 21
683.4568317141576
 31
0.0
  0
ARC
  5
300C
  8
AM_0
 10
497.97716549003991
 20
688.00560171415759
 30
0.0
 40
3.0
 50
179.9999899999988
 51
260.00000000000119
  0
LINE
  5
300D
  8
AM_0
 10
521.97716549003985
 20
662.39220171415786
 30
0.0
 11
511.82005549003992
 21
662.92454171415795
 31
0.0
  0
LINE
  5
300E
  8
AM_0
 10
510.90733549004011
 20
673.38646171415769
 30
0.0
 11
521.97716549003985
 21
672.99986171415765
 31
0.0
  0
LINE
  5
300F
  8
AM_0
 10
508.9770354900399
 20
724.56444171415774
 30
0.0
 11
521.97716549003985
 21
724.56444171415774
 31
0.0
  0
LINE
  5
3010
  8
AM_0
 10
508.9770354900399
 20
750.56566171415773
 30
0.0
 11
521.97716549003985
 21
750.56566171415773
 31
0.0
  0
ARC
  5
3011
  8
AM_0
 10
622.9770954900398
 20
663.15581171415761
 30
0.0
 40
3.0
 50
179.9999899999988
 51
268.00000999999861
  0
LINE
  5
3012
  8
AM_0
 10
622.87242549003997
 20
660.15764171415765
 30
0.0
 11
637.9770954900398
 21
659.63017171415765
 31
0.0
  0
ARC
  5
3013
  8
AM_0
 10
573.77287549003995
 20
721.56444171415774
 30
0.0
 40
3.0
 50
59.11902300000196
 51
90.00000299999769
  0
ARC
  5
3014
  8
AM_0
 10
577.66466549003985
 20
726.22813171415771
 30
0.0
 40
3.0
 50
90.00000299999769
 51
239.11901999999981
  0
LINE
  5
3015
  8
AM_0
 10
617.82976549004002
 20
705.12657171415776
 30
0.0
 11
585.32695549003995
 21
724.56444171415774
 31
0.0
  0
LINE
  5
3016
  8
AM_0
 10
609.84575549003989
 20
729.22813171415771
 30
0.0
 11
619.97716549003985
 21
721.67003171415774
 31
0.0
  0
LINE
  5
3017
  8
AM_0
 10
617.54338549004001
 20
698.88359171415755
 30
0.0
 11
576.12486549003995
 21
723.65343171415759
 31
0.0
  0
POLYLINE
  5
3018
  8
AM_0
 66
     1
 10
0.0
 20
0.0
 30
0.0
  0
VERTEX
  5
3019
  8
AM_0
 10
612.31826549003995
 20
702.00825171415795
 30
0.0
 42
0.0052467293
  0
VERTEX
  5
301A
  8
AM_0
 10
614.73848549003992
 20
695.59842171415789
 30
0.0
 42
0.0052066122
  0
VERTEX
  5
301B
  8
AM_0
 10
617.29215549003993
 20
689.24059171415774
 30
0.0
 42
0.0051740405
  0
VERTEX
  5
301C
  8
AM_0
 10
619.97716549003985
 20
682.93736171415787
 30
0.0
  0
SEQEND
  5
301D
  8
AM_0
  0
ARC
  5
301E
  8
AM_0
 10
622.9770954900398
 20
691.17290171415789
 30
0.0
 40
5.0
 50
267.99999999999631
 51
0.0
  0
ARC
  5
301F
  8
AM_0
 10
614.97716549003985
 20
694.59239171415788
 30
0.0
 40
5.0
 50
0.0
 51
59.11901699999779
  0
LINE
  5
3020
  8
AM_0
 10
577.66466549003985
 20
729.22813171415771
 30
0.0
 11
619.97716549003985
 21
729.22813171415771
 31
0.0
  0
ARC
  5
3021
  8
AM_0
 10
624.97716549003985
 20
735.99577171415774
 30
0.0
 40
5.0
 50
90.00000299999769
 51
180.00001000000091
  0
LINE
  5
3022
  8
AM_0
 10
637.9770954900398
 20
682.13023171415762
 30
0.0
 11
641.9770954900398
 21
682.13023171415762
 31
0.0
  0
LINE
  5
3023
  8
AM_0
 10
641.9770954900398
 20
779.63023171415773
 30
0.0
 11
643.97716549003985
 21
779.63023171415773
 31
0.0
  0
LINE
  5
3024
  8
AM_0
 10
521.97716549003985
 20
853.69475171415775
 30
0.0
 11
619.97716549003985
 21
853.69475171415775
 31
0.0
  0
LINE
  5
3025
  8
AM_0
 10
521.97716549003985
 20
931.26060171415816
 30
0.0
 11
619.97716549003985
 21
934.68278171415761
 31
0.0
  0
LINE
  5
3026
  8
AM_0
 10
521.9770954900398
 20
941.86815171415753
 30
0.0
 11
622.91069549003976
 21
944.10387171415755
 31
0.0
  0
LINE
  5
3027
  8
AM_0
 10
521.97716549003985
 20
879.69597171415774
 30
0.0
 11
573.77287549003995
 21
879.69597171415774
 31
0.0
  0
ARC
  5
3028
  8
AM_0
 10
497.97716549003991
 20
916.25474171415806
 30
0.0
 40
3.0
 50
99.999999999998593
 51
180.00001000000091
  0
LINE
  5
3029
  8
AM_0
 10
508.9770354900399
 20
811.66960171415792
 30
0.0
 11
508.9770354900399
 21
938.33995171415813
 31
0.0
  0
LINE
  5
302A
  8
AM_0
 10
521.97716549003985
 20
806.13017171415777
 30
0.0
 11
521.97716549003985
 21
941.86815171415753
 31
0.0
  0
LINE
  5
302B
  8
AM_0
 10
460.47716549003991
 20
875.63023171415762
 30
0.0
 11
490.15159549003982
 21
876.66649171415793
 31
0.0
  0
LINE
  5
302C
  8
AM_0
 10
460.47716549003991
 20
841.60484171415783
 30
0.0
 11
494.97716549003968
 21
841.60484171415783
 31
0.0
  0
LINE
  5
302D
  8
AM_0
 10
460.47716549003991
 20
863.70885171415773
 30
0.0
 11
494.97716549003968
 21
863.70885171415773
 31
0.0
  0
POLYLINE
  5
302E
  8
AM_0
 66
     1
 10
0.0
 20
0.0
 30
0.0
  0
VERTEX
  5
302F
  8
AM_0
 10
430.74069549003991
 20
819.05996171415791
 30
0.0
 42
-0.037107926
  0
VERTEX
  5
3030
  8
AM_0
 10
435.01889549003982
 20
836.90617171415761
 30
0.0
 42
-0.032389855
  0
VERTEX
  5
3031
  8
AM_0
 10
441.72137549003997
 20
853.99469171415774
 30
0.0
 42
-0.029578605
  0
VERTEX
  5
3032
  8
AM_0
 10
450.47716549003991
 20
870.13023171415773
 30
0.0
  0
SEQEND
  5
3033
  8
AM_0
  0
ARC
  5
3034
  8
AM_0
 10
447.47716549003991
 20
822.64635171415784
 30
0.0
 40
3.0
 50
272.00000000000369
 51
0.0
  0
LINE
  5
3035
  8
AM_0
 10
460.47716549003991
 20
841.60484171415783
 30
0.0
 11
450.47716549003991
 21
841.60484171415783
 31
0.0
  0
ARC
  5
3036
  8
AM_0
 10
447.47716549003991
 20
872.17015171415756
 30
0.0
 40
3.0
 50
272.00000000000369
 51
0.0
  0
LINE
  5
3037
  8
AM_0
 10
460.47716549003991
 20
863.70885171415773
 30
0.0
 11
450.47716549003991
 21
863.70885171415773
 31
0.0
  0
LINE
  5
3038
  8
AM_0
 10
460.47709549003991
 20
875.63023171415762
 30
0.0
 11
453.37248549003971
 21
875.38213171415794
 31
0.0
  0
ARC
  5
3039
  8
AM_0
 10
453.47716549003968
 20
872.38396171415752
 30
0.0
 40
3.0
 50
91.999998000000545
 51
180.00001000000091
  0
LINE
  5
303A
  8
AM_0
 10
494.97716549003968
 20
806.13017171415777
 30
0.0
 11
494.97716549003968
 21
916.2713517141575
 31
0.0
  0
ARC
  5
303B
  8
AM_0
 10
505.97716549003991
 20
802.13023171415773
 30
0.0
 40
10.0
 50
203.5782699999985
 51
336.4217200000013
  0
ARC
  5
303C
  8
AM_0
 10
505.97716549003991
 20
802.13023171415773
 30
0.0
 40
10.0
 50
23.57803699999776
 51
156.42196000000081
  0
LINE
  5
303D
  8
AM_0
 10
489.47716549003991
 20
806.13017171415777
 30
0.0
 11
522.47716549003985
 21
806.13017171415777
 31
0.0
  0
LINE
  5
303E
  8
AM_0
 10
489.47716549003991
 20
798.13017171415754
 30
0.0
 11
522.47716549003985
 21
798.13017171415754
 31
0.0
  0
ARC
  5
303F
  8
AM_0
 10
489.47716549003991
 20
802.13017171415754
 30
0.0
 40
3.9999962
 50
90.00000299999769
 51
270.0
  0
ARC
  5
3040
  8
AM_0
 10
522.47716549003985
 20
802.13017171415754
 30
0.0
 40
3.9999962
 50
270.0
 51
90.00000299999769
  0
LINE
  5
3041
  8
AM_0
 10
508.9770354900399
 20
853.69475171415775
 30
0.0
 11
521.97716549003985
 21
853.69475171415775
 31
0.0
  0
ARC
  5
3042
  8
AM_0
 10
489.97716549003991
 20
881.66344171415756
 30
0.0
 40
5.0
 50
272.00000000000369
 51
0.0
  0
LINE
  5
3043
  8
AM_0
 10
508.9770354900399
 20
879.69597171415774
 30
0.0
 11
521.97716549003985
 21
879.69597171415774
 31
0.0
  0
ARC
  5
3044
  8
AM_0
 10
511.97703549003973
 20
938.33995171415813
 30
0.0
 40
3.0
 50
92.999999000001679
 51
180.00001000000091
  0
ARC
  5
3045
  8
AM_0
 10
505.97716549003991
 20
923.75792171415765
 30
0.0
 40
3.0
 50
280.00001000000128
 51
0.0
  0
ARC
  5
3046
  8
AM_0
 10
510.97716549003991
 20
928.87517171415789
 30
0.0
 40
2.0
 50
91.999998000000545
 51
180.00001000000091
  0
LINE
  5
3047
  8
AM_0
 10
497.45622549004003
 20
919.20921171415773
 30
0.0
 11
506.49809549003987
 21
920.80357171415756
 31
0.0
  0
LINE
  5
3048
  8
AM_0
 10
510.90739549004002
 20
930.8740117141574
 30
0.0
 11
521.97716549003985
 21
931.26060171415816
 31
0.0
  0
LINE
  5
3049
  8
AM_0
 10
521.9770954900398
 20
941.86815171415753
 30
0.0
 11
511.82005549003992
 21
941.33586171415789
 31
0.0
  0
POLYLINE
  5
304A
  8
AM_0
 66
     1
 10
0.0
 20
0.0
 30
0.0
  0
VERTEX
  5
304B
  8
AM_0
 10
619.97716549003985
 20
921.32304171415751
 30
0.0
  0
VERTEX
  5
304C
  8
AM_0
 10
612.31833549003977
 20
902.25235171415773
 30
0.0
 42
-1.0
  0
SEQEND
  5
304D
  8
AM_0
  0
ARC
  5
304E
  8
AM_0
 10
622.9770954900398
 20
913.0875117141577
 30
0.0
 40
5.0
 50
0.0
 51
91.999998000000545
  0
LINE
  5
304F
  8
AM_0
 10
617.82976549004002
 20
899.13383171415774
 30
0.0
 11
585.32695549003995
 21
879.69603171415793
 31
0.0
  0
LINE
  5
3050
  8
AM_0
 10
617.54338549004001
 20
905.37682171415804
 30
0.0
 11
576.12486549003995
 21
880.60698171415777
 31
0.0
  0
LINE
  5
3051
  8
AM_0
 10
577.66466549003985
 20
875.03227171415779
 30
0.0
 11
619.97716549003985
 21
875.03227171415779
 31
0.0
  0
ARC
  5
3052
  8
AM_0
 10
573.77287549003995
 20
882.69597171415762
 30
0.0
 40
3.0
 50
270.0
 51
300.88098000000002
  0
ARC
  5
3053
  8
AM_0
 10
577.66466549003985
 20
878.0322717141579
 30
0.0
 40
3.0
 50
120.8809700000043
 51
270.0
  0
LINE
  5
3054
  8
AM_0
 10
609.84575549003989
 20
875.03233171415752
 30
0.0
 11
619.97709549003957
 21
882.59038171415773
 31
0.0
  0
ARC
  5
3055
  8
AM_0
 10
624.97716549003985
 20
868.26463171415753
 30
0.0
 40
5.0
 50
179.9999899999988
 51
270.0
  0
ARC
  5
3056
  8
AM_0
 10
614.97716549003985
 20
909.66801171415818
 30
0.0
 40
5.0
 50
300.88098000000002
 51
0.0
  0
ARC
  5
3057
  8
AM_0
 10
657.97716549003985
 20
802.13017171415754
 30
0.0
 40
6.0000037999999991
 50
90.00000299999769
 51
270.0
  0
LINE
  5
3058
  8
AM_0
 10
657.97716549003985
 20
808.13017171415765
 30
0.0
 11
657.97716549003985
 21
796.13017171415754
 31
0.0
  0
LINE
  5
3059
  8
AM_0
 10
641.9770954900398
 20
824.63023171415773
 30
0.0
 11
643.97716549003985
 21
824.63023171415773
 31
0.0
  0
LINE
  5
305A
  8
AM_0
 10
622.87236549004001
 20
944.10277171415805
 30
0.0
 11
637.9770954900398
 21
944.63023171415784
 31
0.0
  0
ARC
  5
305B
  8
AM_0
 10
622.9770954900398
 20
941.10460171415752
 30
0.0
 40
3.0
 50
91.999998000000545
 51
180.00001000000091
  0
LINE
  5
305C
  8
AM_0
 10
637.9770954900398
 20
922.13017171415743
 30
0.0
 11
641.9770954900398
 21
922.13017171415743
 31
0.0
  0
LINE
  5
305D
  8
AM_0
 10
713.97713549003981
 20
781.13023171415773
 30
0.0
 11
713.97713549003981
 21
823.13023171415784
 31
0.0
  0
LINE
  5
305E
  8
ﾁｭｳｼﾝｾﾝ1
 10
477.96483549003972
 20
426.0822917816518
 30
0.0
 11
721.92153549003967
 21
426.0822917816518
 31
0.0
  0
LINE
  5
305F
  8
AM_0
 10
618.84258549004005
 20
444.43522678165192
 30
0.0
 11
602.5896854900401
 21
493.57124178165202
 31
0.0
  0
LINE
  5
3060
  8
AM_0
 10
508.97713549003981
 20
280.82182178165198
 30
0.0
 11
623.80058549004013
 21
280.82182178165198
 31
0.0
  0
LINE
  5
3061
  8
AM_0
 10
549.97718549003991
 20
305.27802678165187
 30
0.0
 11
619.97718549003991
 21
305.27802678165187
 31
0.0
  0
LINE
  5
3062
  8
AM_0
 10
581.70568549004008
 20
256.51823178165182
 30
0.0
 11
627.97713549003993
 21
283.23307678165202
 31
0.0
  0
LINE
  5
3063
  8
AM_0
 10
508.97713549003981
 20
378.10130178165178
 30
0.0
 11
627.97713549003993
 21
378.10130178165178
 31
0.0
  0
LINE
  5
3064
  8
AM_0
 10
508.97713549003981
 20
398.06330678165187
 30
0.0
 11
627.97713549003993
 21
398.06330678165187
 31
0.0
  0
LINE
  5
3065
  8
AM_0
 10
549.97718549003991
 20
324.72032178165182
 30
0.0
 11
619.97718549003991
 21
324.72032178165182
 31
0.0
  0
LINE
  5
3066
  8
AM_0
 10
595.27003549003962
 20
521.37508678165204
 30
0.0
 11
618.51268549003964
 21
544.61783678165204
 31
0.0
  0
LINE
  5
3067
  8
AM_0
 10
603.91988549003997
 20
494.56355178165188
 30
0.0
 11
619.97713549003981
 21
506.54238678165189
 31
0.0
  0
LINE
  5
3068
  8
AM_0
 10
617.54338549004012
 20
529.32893678165215
 30
0.0
 11
580.48448549004013
 21
507.16633678165192
 31
0.0
  0
LINE
  5
3069
  8
AM_0
 10
617.82978549003985
 20
523.08593678165198
 30
0.0
 11
576.07173549003937
 21
498.11311178165192
 31
0.0
  0
LINE
  5
306A
  8
AM_0
 10
494.97718549003991
 20
273.95777678165177
 30
0.0
 11
494.97718549003991
 21
516.0822867816521
 31
0.0
  0
LINE
  5
306B
  8
AM_0
 10
508.97713549003981
 20
260.46763178165202
 30
0.0
 11
508.97713549003981
 21
515.69698678165207
 31
0.0
  0
LINE
  5
306C
  8
AM_0
 10
521.97713549003981
 20
258.08228678165187
 30
0.0
 11
521.97713549003981
 21
518.08228678165199
 31
0.0
  0
LINE
  5
306D
  8
AM_0
 10
460.47713549003981
 20
314.08231678165208
 30
0.0
 11
460.47713549003981
 21
462.08232178165201
 31
0.0
  0
ARC
  5
306E
  8
AM_0
 10
454.35963549003992
 20
457.86622678165202
 30
0.0
 40
4.000000049999997
 50
91.999998000000545
 51
170.16761999999991
  0
LINE
  5
306F
  8
AM_0
 10
380.30258549003969
 20
433.25080678165199
 30
0.0
 11
427.78398549003992
 21
434.90888678165197
 31
0.0
  0
LINE
  5
3070
  8
AM_0
 10
360.47708549003983
 20
403.37229678165198
 30
0.0
 11
440.21478549003962
 21
403.37229678165198
 31
0.0
  0
LINE
  5
3071
  8
AM_0
 10
360.47708549003983
 20
389.86860678165198
 30
0.0
 11
436.36793549003988
 21
389.86860678165198
 31
0.0
  0
LINE
  5
3072
  8
AM_0
 10
378.37243549003989
 20
452.85163678165202
 30
0.0
 11
446.61668549003991
 21
455.23478678165202
 31
0.0
  0
LINE
  5
3073
  8
ﾁｭｳｼﾝｾﾝ1
 10
491.56809954426342
 20
351.8722967816521
 30
0.0
 11
304.53218846852423
 21
351.87229678165193
 31
0.0
  0
ARC
  5
3074
  8
AM_0
 10
385.47708549003983
 20
315.83494178165188
 30
0.0
 40
5.0
 50
88.000000000002899
 51
180.00001000000091
  0
ARC
  5
3075
  8
AM_0
 10
383.90063549003992
 20
289.45173178165197
 30
0.0
 40
4.000000049999997
 50
107.3416099999999
 51
158.1166099999991
  0
ARC
  5
3076
  8
AM_0
 10
385.47708549003983
 20
353.87541178165202
 30
0.0
 40
5.0
 50
90.00000299999769
 51
180.00001000000091
  0
LINE
  5
3077
  8
AM_0
 10
380.47708549003983
 20
353.87541178165202
 30
0.0
 11
380.47708549003983
 21
292.43345178165202
 31
0.0
  0
LINE
  5
3078
  8
AM_0
 10
360.47708549003983
 20
287.87229678165198
 30
0.0
 11
360.47708549003983
 21
415.87229678165198
 31
0.0
  0
LINE
  5
3079
  8
0
 10
326.47709156971382
 20
429.87235078165207
 30
0.0
 11
326.47709156971382
 21
273.87235078165202
 31
0.0
  0
LINE
  5
307A
  8
0
 10
316.47709156971382
 20
431.87235078165202
 30
0.0
 11
316.47709156971382
 21
271.87235078165202
 31
0.0
  0
LINE
  5
307B
  8
0
  6
CONTINUOUS
 62
     7
 10
349.47708549004
 20
413.87235078165202
 30
0.0
 11
349.47708549004
 21
289.87235078165202
 31
0.0
  0
ARC
  5
307C
  8
0
 10
331.47709156971382
 20
288.87235078165202
 30
0.0
 40
5.0
 50
90.0
 51
180.0
1001
GENIUS_GENOBJ-N-FIL_13
1002
{
1000
OWNER
1000
GEN
1002
}
1001
GENIUS_GENODEF_13
1002
{
1000
HIER
1070
     0
1002
}
1002
{
1000
MANEDIT
1070
     0
1002
}
1002
{
1000
NOSEL
1070
     0
1002
}
1002
{
1000
BEHIND
1070
     0
1002
}
1002
{
1000
OTHER
1070
     0
1002
}
1002
{
1000
REACTOR
1002
}
  0
LINE
  5
307D
  8
0
 10
316.47709156971382
 20
271.87235078165202
 30
0.0
 11
324.47709156971382
 21
271.87235078165202
 31
0.0
  0
ARC
  5
307E
  8
0
 10
324.47709156971382
 20
273.87235078165202
 30
0.0
 40
2.0
 50
270.0
 51
0.0
1001
GENIUS_GENODEF_13
1002
{
1000
HIER
1070
     0
1002
}
1002
{
1000
MANEDIT
1070
     0
1002
}
1002
{
1000
NOSEL
1070
     0
1002
}
1002
{
1000
BEHIND
1070
     0
1002
}
1002
{
1000
OTHER
1070
     0
1002
}
1002
{
1000
REACTOR
1002
}
1001
GENIUS_GENOBJ-N-FIL_13
1002
{
1000
OWNER
1000
GEN
1002
}
  0
LINE
  5
307F
  8
AM_0
 10
360.47708549004
 20
300.37233478165189
 30
0.0
 11
349.47708549004
 21
300.37233478165189
 31
0.0
  0
LINE
  5
3080
  8
AM_0
 10
360.47708549004
 20
314.724415781652
 30
0.0
 11
349.47708549004
 21
314.724415781652
 31
0.0
  0
LINE
  5
3081
  8
0
 10
360.47708549004
 20
287.87235078165202
 30
0.0
 11
351.47708549004
 21
287.87235078165202
 31
0.0
  0
LINE
  5
3082
  8
0
 10
347.47708549004
 20
293.87235078165202
 30
0.0
 11
331.47709156971382
 21
293.87235078165202
 31
0.0
  0
ARC
  5
3083
  8
0
 10
351.47708549004
 20
289.87235078165202
 30
0.0
 40
2.0
 50
180.0
 51
270.0
1001
GENIUS_GENODEF_13
1002
{
1000
HIER
1070
     0
1002
}
1002
{
1000
MANEDIT
1070
     0
1002
}
1002
{
1000
NOSEL
1070
     0
1002
}
1002
{
1000
BEHIND
1070
     0
1002
}
1002
{
1000
OTHER
1070
     0
1002
}
1002
{
1000
REACTOR
1002
}
1001
GENIUS_GENOBJ-N-FIL_13
1002
{
1000
OWNER
1000
GEN
1002
}
  0
ARC
  5
3084
  8
0
 10
347.47708549004
 20
291.87235078165202
 30
0.0
 40
2.0
 50
0.0
 51
90.0
1001
GENIUS_GENODEF_13
1002
{
1000
HIER
1070
     0
1002
}
1002
{
1000
MANEDIT
1070
     0
1002
}
1002
{
1000
NOSEL
1070
     0
1002
}
1002
{
1000
BEHIND
1070
     0
1002
}
1002
{
1000
OTHER
1070
     0
1002
}
1002
{
1000
REACTOR
1002
}
1001
GENIUS_GENOBJ-N-FIL_13
1002
{
1000
OWNER
1000
GEN
1002
}
  0
LINE
  5
3085
  8
AM_0
 10
360.47708549003983
 20
287.87229678165198
 30
0.0
 11
376.61668549003991
 21
288.43589678165199
 31
0.0
  0
ARC
  5
3086
  8
AM_0
 10
376.47708549003983
 20
292.43345178165202
 30
0.0
 40
4.000000049999997
 50
271.99999999999687
 51
0.0
  0
LINE
  5
3087
  8
AM_0
 10
360.47708549003983
 20
313.87599178165198
 30
0.0
 11
380.47708549003983
 21
313.87599178165198
 31
0.0
  0
LINE
  5
3088
  8
AM_0
 10
360.47708549003983
 20
300.37229678165198
 30
0.0
 11
380.47708549003983
 21
300.37229678165198
 31
0.0
  0
LINE
  5
3089
  8
AM_0
 10
360.47708549004
 20
389.02027078165202
 30
0.0
 11
349.47708549004
 21
389.02027078165202
 31
0.0
  0
ARC
  5
308A
  8
0
 10
331.47709156971382
 20
414.87235078165179
 30
0.0
 40
5.0
 50
180.0
 51
270.0
1001
GENIUS_GENOBJ-N-FIL_13
1002
{
1000
OWNER
1000
GEN
1002
}
1001
GENIUS_GENODEF_13
1002
{
1000
HIER
1070
     0
1002
}
1002
{
1000
MANEDIT
1070
     0
1002
}
1002
{
1000
NOSEL
1070
     0
1002
}
1002
{
1000
BEHIND
1070
     0
1002
}
1002
{
1000
OTHER
1070
     0
1002
}
1002
{
1000
REACTOR
1002
}
  0
LINE
  5
308B
  8
0
 10
316.47709156971382
 20
431.87235078165202
 30
0.0
 11
324.47709156971382
 21
431.87235078165202
 31
0.0
  0
ARC
  5
308C
  8
0
 10
324.47709156971382
 20
429.87235078165207
 30
0.0
 40
2.0
 50
0.0
 51
90.0
1001
GENIUS_GENODEF_13
1002
{
1000
HIER
1070
     0
1002
}
1002
{
1000
MANEDIT
1070
     0
1002
}
1002
{
1000
NOSEL
1070
     0
1002
}
1002
{
1000
BEHIND
1070
     0
1002
}
1002
{
1000
OTHER
1070
     0
1002
}
1002
{
1000
REACTOR
1002
}
1001
GENIUS_GENOBJ-N-FIL_13
1002
{
1000
OWNER
1000
GEN
1002
}
  0
LINE
  5
308D
  8
AM_0
 10
375.47708549003988
 20
449.85350178165203
 30
0.0
 11
375.47708549003988
 21
406.37232678165168
 31
0.0
  0
LINE
  5
308E
  8
AM_0
 10
360.47708549004
 20
403.37236078165188
 30
0.0
 11
349.47708549004
 21
403.37236078165188
 31
0.0
  0
LINE
  5
308F
  8
0
 10
360.47708549004
 20
415.87235078165202
 30
0.0
 11
351.47708549004
 21
415.87235078165202
 31
0.0
  0
LINE
  5
3090
  8
0
 10
347.47708549004
 20
409.87235078165202
 30
0.0
 11
331.47709156971382
 21
409.87235078165202
 31
0.0
  0
ARC
  5
3091
  8
0
 10
351.47708549004
 20
413.87235078165202
 30
0.0
 40
2.0
 50
90.0
 51
180.0
1001
GENIUS_GENODEF_13
1002
{
1000
HIER
1070
     0
1002
}
1002
{
1000
MANEDIT
1070
     0
1002
}
1002
{
1000
NOSEL
1070
     0
1002
}
1002
{
1000
BEHIND
1070
     0
1002
}
1002
{
1000
OTHER
1070
     0
1002
}
1002
{
1000
REACTOR
1002
}
1001
GENIUS_GENOBJ-N-FIL_13
1002
{
1000
OWNER
1000
GEN
1002
}
  0
ARC
  5
3092
  8
0
 10
347.47708549004
 20
411.87235078165202
 30
0.0
 40
2.0
 50
270.0
 51
0.0
1001
GENIUS_GENODEF_13
1002
{
1000
HIER
1070
     0
1002
}
1002
{
1000
MANEDIT
1070
     0
1002
}
1002
{
1000
NOSEL
1070
     0
1002
}
1002
{
1000
BEHIND
1070
     0
1002
}
1002
{
1000
OTHER
1070
     0
1002
}
1002
{
1000
REACTOR
1002
}
1001
GENIUS_GENOBJ-N-FIL_13
1002
{
1000
OWNER
1000
GEN
1002
}
  0
ARC
  5
3093
  8
AM_0
 10
372.47718549003991
 20
406.37232678165168
 30
0.0
 40
3.0000000500000001
 50
270.0
 51
0.0
  0
LINE
  5
3094
  8
AM_0
 10
360.47708549003983
 20
415.87229678165198
 30
0.0
 11
370.65158549003991
 21
416.22758178165191
 31
0.0
  0
ARC
  5
3095
  8
AM_0
 10
370.47708549003983
 20
421.22453178165199
 30
0.0
 40
5.0
 50
271.99999999999687
 51
0.0
  0
ARC
  5
3096
  8
AM_0
 10
380.47708549003983
 20
428.25382678165181
 30
0.0
 40
5.0
 50
91.999998000000545
 51
180.00001000000091
  0
ARC
  5
3097
  8
AM_0
 10
378.47708549003983
 20
449.85350178165203
 30
0.0
 40
3.0000000500000001
 50
91.999998000000545
 51
180.00001000000091
  0
LINE
  5
3098
  8
AM_0
 10
549.97718549003991
 20
307.124676781652
 30
0.0
 11
549.97718549003991
 21
323.22468178165201
 31
0.0
  0
ARC
  5
3099
  8
AM_0
 10
549.97718549003991
 20
314.99918678165182
 30
0.0
 40
9.7211409999999994
 50
90.00000299999769
 51
270.0
  0
LINE
  5
309A
  8
AM_0
 10
465.47713549003981
 20
308.33128178165202
 30
0.0
 11
465.47713549003981
 21
325.08228678165182
 31
0.0
  0
ARC
  5
309B
  8
AM_0
 10
447.34258549003999
 20
314.67515178165189
 30
0.0
 40
4.000000049999997
 50
26.896937000000651
 51
88.000000000002899
  0
ARC
  5
309C
  8
AM_0
 10
491.97713549003959
 20
300.25239178165202
 30
0.0
 40
3.0000000500000001
 50
0.0
 51
84.999996999998572
  0
LINE
  5
309D
  8
AM_0
 10
382.70843549003962
 20
293.26988178165197
 30
0.0
 11
449.82648549004
 21
314.22831678165193
 31
0.0
  0
ARC
  5
309E
  8
AM_0
 10
468.47713549003981
 20
308.33128178165202
 30
0.0
 40
3.0000000500000001
 50
179.9999899999988
 51
265.00000000000028
  0
ARC
  5
309F
  8
AM_0
 10
462.47718549003991
 20
311.51063178165202
 30
0.0
 40
3.0000000500000001
 50
0.0
 51
88.000000000002899
  0
ARC
  5
30A0
  8
AM_0
 10
454.47713549003959
 20
318.29426178165198
 30
0.0
 40
4.000000049999997
 50
206.8969399999992
 51
268.0000000000029
  0
LINE
  5
30A1
  8
AM_0
 10
451.1583854900399
 20
314.40769678165202
 30
0.0
 11
460.47713549003981
 21
314.08228678165182
 31
0.0
  0
ARC
  5
30A2
  8
AM_0
 10
451.01873549004
 20
310.41013678165189
 30
0.0
 40
4.000000049999997
 50
88.000000000002899
 51
107.3416099999999
  0
LINE
  5
30A3
  8
AM_0
 10
460.47713549003981
 20
314.58228678165182
 30
0.0
 11
462.58183549003991
 21
314.508771781652
 31
0.0
  0
LINE
  5
30A4
  8
AM_0
 10
468.21558549003998
 20
305.342726781652
 30
0.0
 11
492.23853549003968
 21
303.24098178165201
 31
0.0
  0
LINE
  5
30A5
  8
AM_0
 10
508.97713549003981
 20
266.36500178165193
 30
0.0
 11
598.76078549003955
 21
266.36500178165193
 31
0.0
  0
LINE
  5
30A6
  8
AM_0
 10
521.97703549004007
 20
258.08228678165187
 30
0.0
 11
581.70568549004008
 21
256.51826178165192
 31
0.0
  0
LINE
  5
30A7
  8
AM_0
 10
510.90733549004011
 20
258.46885178165201
 30
0.0
 11
521.97713549003981
 21
258.08228678165187
 31
0.0
  0
ARC
  5
30A8
  8
AM_0
 10
510.97713549003981
 20
260.46763178165202
 30
0.0
 40
2.0000000500000001
 50
179.9999899999988
 51
268.00000999999861
  0
ARC
  5
30A9
  8
AM_0
 10
505.97713549003981
 20
266.45457178165202
 30
0.0
 40
3.0000000500000001
 50
0.0
 51
79.999998000001099
  0
LINE
  5
30AA
  8
AM_0
 10
497.4561854900399
 20
271.00333678165191
 30
0.0
 11
506.4980354900398
 21
269.40900678165201
 31
0.0
  0
ARC
  5
30AB
  8
AM_0
 10
497.97713549003981
 20
273.95777678165177
 30
0.0
 40
3.0000000500000001
 50
179.9999899999988
 51
260.00000000000119
  0
LINE
  5
30AC
  8
AM_0
 10
450.47713549003959
 20
349.26222178165182
 30
0.0
 11
494.97718549003991
 21
349.26222178165182
 31
0.0
  0
LINE
  5
30AD
  8
AM_0
 10
450.47713549003959
 20
325.08228678165182
 30
0.0
 11
494.97718549003991
 21
325.08228678165182
 31
0.0
  0
LINE
  5
30AE
  8
AM_0
 10
450.47713549003959
 20
451.0822917816518
 30
0.0
 11
494.97718549003991
 21
451.0822917816518
 31
0.0
  0
LINE
  5
30AF
  8
AM_0
 10
450.47713549003959
 20
426.90242178165198
 30
0.0
 11
494.97718549003991
 21
426.90242178165198
 31
0.0
  0
LINE
  5
30B0
  8
AM_0
 10
436.36798549003993
 20
389.86860678165198
 30
0.0
 11
450.47718549003991
 21
362.686476781652
 31
0.0
  0
LINE
  5
30B1
  8
AM_0
 10
450.47713549003959
 20
317.16001678165202
 30
0.0
 11
450.47713549003959
 21
458.82862678165202
 31
0.0
  0
LINE
  5
30B2
  8
AM_0
 10
385.47708549003983
 20
358.87541178165202
 30
0.0
 11
450.47713549003959
 21
358.87541178165202
 31
0.0
  0
LINE
  5
30B3
  8
AM_0
 10
385.65158549003991
 20
320.83192178165189
 30
0.0
 11
447.4821854900398
 21
318.67274178165201
 31
0.0
  0
LINE
  5
30B4
  8
AM_0
 10
436.36798549003993
 20
389.868576781652
 30
0.0
 11
443.04323549003999
 21
396.54386678165201
 31
0.0
  0
LINE
  5
30B5
  8
AM_0
 10
430.4728854900398
 20
436.07798678165187
 30
0.0
 11
449.30558549003962
 21
454.91066178165181
 31
0.0
  0
LINE
  5
30B6
  8
AM_0
 10
429.35868549003959
 20
434.96388178165188
 30
0.0
 11
429.35868549003959
 21
403.37229678165198
 31
0.0
  0
ARC
  5
30B7
  8
AM_0
 10
427.64438549003972
 20
438.90644678165199
 30
0.0
 40
4.000000049999997
 50
271.99999999999687
 51
315.0
  0
ARC
  5
30B8
  8
AM_0
 10
440.21478549003962
 20
399.37229678165193
 30
0.0
 40
4.000000049999997
 50
315.0
 51
90.00000299999769
  0
ARC
  5
30B9
  8
AM_0
 10
446.47713549003981
 20
459.23234678165198
 30
0.0
 40
4.000000049999997
 50
271.99999999999687
 51
350.16760999999991
  0
ARC
  5
30BA
  8
AM_0
 10
446.47713549003981
 20
457.7391517816518
 30
0.0
 40
4.000000049999997
 50
315.0
 51
0.0
  0
CIRCLE
  5
30BB
  8
AM_0
 10
505.97713549003981
 20
538.58228678165199
 30
0.0
 40
12.5
  0
ARC
  5
30BC
  8
AM_0
 10
505.97713549003981
 20
538.58228678165199
 30
0.0
 40
20.500000499999992
 50
304.61364000000401
 51
235.3863500000021
  0
ARC
  5
30BD
  8
AM_0
 10
489.97718549003991
 20
467.61552178165192
 30
0.0
 40
5.0
 50
271.99999999999687
 51
0.0
  0
LINE
  5
30BE
  8
AM_0
 10
460.47703549003961
 20
461.58232178165201
 30
0.0
 11
490.15153549003992
 21
462.618576781652
 31
0.0
  0
LINE
  5
30BF
  8
AM_0
 10
454.2199854900399
 20
461.86375178165179
 30
0.0
 11
460.47703549003961
 21
462.08226178165188
 31
0.0
  0
LINE
  5
30C0
  8
AM_0
 10
508.97713549003981
 20
495.34282178165199
 30
0.0
 11
571.03863549003995
 21
495.34282178165199
 31
0.0
  0
LINE
  5
30C1
  8
AM_0
 10
508.97713549003981
 20
509.79958678165201
 30
0.0
 11
584.88763549003954
 21
509.79958678165201
 31
0.0
  0
LINE
  5
30C2
  8
AM_0
 10
521.97713549003981
 20
518.08228678165199
 30
0.0
 11
591.86533549004014
 21
519.912386781652
 31
0.0
  0
LINE
  5
30C3
  8
AM_0
 10
510.90728549003961
 20
517.69573678165204
 30
0.0
 11
521.97703549004007
 21
518.08228678165199
 31
0.0
  0
LINE
  5
30C4
  8
AM_0
 10
519.97718549003991
 20
518.08233678165175
 30
0.0
 11
521.97713549003981
 21
518.08233678165175
 31
0.0
  0
ARC
  5
30C5
  8
AM_0
 10
510.97713549003981
 20
515.69698678165207
 30
0.0
 40
2.0000000500000001
 50
91.999998000000545
 51
180.00001000000091
  0
ARC
  5
30C6
  8
AM_0
 10
505.97713549003981
 20
509.71003678165192
 30
0.0
 40
3.0000000500000001
 50
279.99999999999852
 51
0.0
  0
LINE
  5
30C7
  8
AM_0
 10
497.4561854900399
 20
505.16118678165191
 30
0.0
 11
506.49808549003961
 21
506.75553678165193
 31
0.0
  0
ARC
  5
30C8
  8
AM_0
 10
497.97713549003981
 20
502.20688678165192
 30
0.0
 40
3.0000000500000001
 50
99.999999999998593
 51
180.00001000000091
  0
LINE
  5
30C9
  8
AM_0
 10
498.1599854900399
 20
524.58233678165197
 30
0.0
 11
513.79418549003992
 21
524.58233678165197
 31
0.0
  0
LINE
  5
30CA
  8
AM_0
 10
495.65423549003992
 20
517.5823367816522
 30
0.0
 11
510.3098354900402
 21
517.5823367816522
 31
0.0
  0
LINE
  5
30CB
  8
AM_0
 10
505.97713549003981
 20
526.08233678165175
 30
0.0
 11
513.48053549003976
 21
524.69698678165184
 31
0.0
  0
LINE
  5
30CC
  8
AM_0
 10
498.4737354900397
 20
524.69698678165184
 30
0.0
 11
505.9771854900398
 21
526.08228678165199
 31
0.0
  0
ARC
  5
30CD
  8
AM_0
 10
498.65528549003989
 20
523.71358678165211
 30
0.0
 40
1.0
 50
100.4607200000025
 51
164.99999000000179
  0
ARC
  5
30CE
  8
AM_0
 10
492.0601354900399
 20
518.41878678165165
 30
0.0
 40
4.000000049999997
 50
347.9293300000017
 51
55.386359000001512
  0
ARC
  5
30CF
  8
AM_0
 10
496.97713549003981
 20
516.0822867816521
 30
0.0
 40
2.0000000500000001
 50
131.4096200000032
 51
180.00001000000091
  0
LINE
  5
30D0
  8
AM_0
 10
495.97718549003991
 20
517.5822867816521
 30
0.0
 11
497.6893854900398
 21
523.97238678165195
 31
0.0
  0
LINE
  5
30D1
  8
AM_0
 10
515.89998549003985
 20
517.87013678165204
 30
0.0
 11
514.26483549004001
 21
523.97238678165195
 31
0.0
  0
ARC
  5
30D2
  8
AM_0
 10
519.89403549003998
 20
518.41878678165165
 30
0.0
 40
4.000000049999997
 50
124.6136499999977
 51
187.86824999999891
  0
ARC
  5
30D3
  8
AM_0
 10
513.29903549004007
 20
523.71358678165211
 30
0.0
 40
1.0
 50
15.000000000000741
 51
79.539281000002589
  0
LINE
  5
30D4
  8
AM_0
 10
519.97718549003991
 20
518.01248678165211
 30
0.0
 11
519.97718549003991
 21
518.08233678165175
 31
0.0
  0
ARC
  5
30D5
  8
AM_0
 10
552.17693549003957
 20
519.87738678165215
 30
0.0
 40
30.946884499999999
 50
307.55230999999719
 51
335.59612999999888
  0
LINE
  5
30D6
  8
AM_0
 10
573.47713549003993
 20
493.57121178165193
 30
0.0
 11
600.93013549003945
 21
493.57121178165193
 31
0.0
  0
ARC
  5
30D7
  8
AM_0
 10
573.47713549003993
 20
498.57121178165193
 30
0.0
 40
5.0
 50
229.76332999999909
 51
270.0
  0
ARC
  5
30D8
  8
AM_0
 10
600.93013549003945
 20
498.57121178165193
 30
0.0
 40
5.0
 50
270.0
 51
306.72320999999818
  0
ARC
  5
30D9
  8
AM_0
 10
591.73443549004003
 20
524.9106367816521
 30
0.0
 40
5.0
 50
271.50000000000261
 51
315.0
  0
LINE
  5
30DA
  8
AM_0
 10
595.18483549004031
 20
515.95758678165203
 30
0.0
 11
593.85938549003993
 21
519.96463678165185
 31
0.0
  0
LINE
  5
30DB
  8
AM_0
 10
619.97718549003991
 20
447.56913678165188
 30
0.0
 11
619.97718549003991
 21
565.05663678165195
 31
0.0
  0
LINE
  5
30DC
  8
AM_0
 10
627.97713549003993
 20
426.0822917816518
 30
0.0
 11
627.97713549003993
 21
537.03958678165202
 31
0.0
  0
LINE
  5
30DD
  8
AM_0
 10
637.97713549003993
 20
283.58228678165187
 30
0.0
 11
637.97713549003993
 21
568.58228678165187
 31
0.0
  0
LINE
  5
30DE
  8
AM_0
 10
641.97713549003959
 20
426.0822917816518
 30
0.0
 11
641.97713549003959
 21
546.0822867816521
 31
0.0
  0
LINE
  5
30DF
  8
AM_0
 10
1115.0823926046271
 20
476.0822917816518
 30
0.0
 11
1115.0823926046271
 21
426.0822917816518
 31
0.0
  0
LINE
  5
30E0
  8
AM_0
 10
830.08236260462752
 20
476.0822917816518
 30
0.0
 11
830.08236260462752
 21
426.0822917816518
 31
0.0
  0
LINE
  5
30E1
  8
ﾁｭｳｼﾝｾﾝ1
 10
972.58237760462782
 20
572.56706198191614
 30
0.0
 11
972.58237760462782
 21
254.34911871538981
 31
0.0
  0
CIRCLE
  5
30E2
  8
AM_0
 10
972.58237760462782
 20
426.0822917816518
 30
0.0
 40
41.000000499999992
  0
ARC
  5
30E3
  8
AM_0
 10
972.58237760462782
 20
388.08229178165192
 30
0.0
 40
122.0
 50
124.67318000000159
 51
157.4280199999998
  0
ARC
  5
30E4
  8
AM_0
 10
972.58237760462782
 20
388.08229178165192
 30
0.0
 40
122.0
 50
22.571981999999569
 51
55.326819999998243
  0
ARC
  5
30E5
  8
AM_0
 10
972.58237760462782
 20
426.0822917816518
 30
0.0
 40
61.999994999999998
 50
142.1149900000004
 51
180.00001000000091
  0
ARC
  5
30E6
  8
AM_0
 10
972.58237760462782
 20
426.0822917816518
 30
0.0
 40
61.999994999999998
 50
0.0
 51
36.416318000003159
  0
CIRCLE
  5
30E7
  8
AM_0
 10
972.58237760462782
 20
426.0822917816518
 30
0.0
 40
113.0
  0
CIRCLE
  5
30E8
  8
AM_0
 10
972.58237760462782
 20
426.0822917816518
 30
0.0
 40
120.0
  0
LINE
  5
30E9
  8
ﾁｭｳｼﾝｾﾝ1
 10
908.68857270598346
 20
351.87229678165193
 30
0.0
 11
1036.476182503271
 21
351.87229678165193
 31
0.0
  0
LINE
  5
30EA
  8
AM_0
 10
1022.582377604627
 20
283.58228678165187
 30
0.0
 11
972.58237760462782
 21
283.58228678165187
 31
0.0
  0
ARC
  5
30EB
  8
AM_0
 10
972.58237760462782
 20
388.08229178165192
 30
0.0
 40
130.0
 50
246.6310400000028
 51
293.36895999999689
  0
LINE
  5
30EC
  8
ﾁｭｳｼﾝｾﾝ1
 10
823.26531800492432
 20
426.0822917816518
 30
0.0
 11
1121.56188823704
 21
426.0822917816518
 31
0.0
  0
LINE
  5
30ED
  8
AM_0
 10
619.97718549003991
 20
286.06031678165198
 30
0.0
 11
619.97718549003991
 21
334.57545178165202
 31
0.0
  0
LINE
  5
30EE
  8
AM_0
 10
627.97713549003993
 20
426.0822917816518
 30
0.0
 11
627.97713549003993
 21
315.12498178165202
 31
0.0
  0
LINE
  5
30EF
  8
AM_0
 10
641.97713549003959
 20
426.0822917816518
 30
0.0
 11
641.97713549003959
 21
306.08228678165187
 31
0.0
  0
LINE
  5
30F0
  8
AM_0
 10
623.08178549003935
 20
283.06214678165202
 30
0.0
 11
637.97713549003993
 21
283.58228678165187
 31
0.0
  0
ARC
  5
30F1
  8
AM_0
 10
622.97713549003993
 20
286.06031678165198
 30
0.0
 40
3.0000000500000001
 50
179.9999899999988
 51
271.99999000000139
  0
ARC
  5
30F2
  8
AM_0
 10
622.97713549003993
 20
315.12498178165202
 30
0.0
 40
5.0
 50
268.0000000000029
 51
0.0
  0
LINE
  5
30F3
  8
AM_0
 10
637.97713549003993
 20
306.08228678165187
 30
0.0
 11
641.97713549003959
 21
306.08228678165187
 31
0.0
  0
ARC
  5
30F4
  8
AM_0
 10
624.97718549003991
 20
334.57545178165202
 30
0.0
 40
5.0
 50
90.00000299999769
 51
180.00001000000091
  0
LINE
  5
30F5
  8
AM_0
 10
657.9771354900397
 20
450.08229178165192
 30
0.0
 11
713.97713549003981
 21
450.08229178165192
 31
0.0
  0
LINE
  5
30F6
  8
AM_0
 10
643.97713549003993
 20
405.0822917816518
 30
0.0
 11
713.97713549003981
 21
405.0822917816518
 31
0.0
  0
LINE
  5
30F7
  8
AM_0
 10
643.97713549003993
 20
447.08232178165167
 30
0.0
 11
713.97713549003981
 21
447.08232178165167
 31
0.0
  0
LINE
  5
30F8
  8
AM_0
 10
643.97713549003993
 20
403.58229178165197
 30
0.0
 11
643.97713549003993
 21
448.58229178165192
 31
0.0
  0
LINE
  5
30F9
  8
AM_0
 10
641.97713549003959
 20
403.58229178165197
 30
0.0
 11
643.97713549003993
 21
403.58229178165197
 31
0.0
  0
ARC
  5
30FA
  8
AM_0
 10
623.5896854900401
 20
446.00544678165198
 30
0.0
 40
5.0
 50
198.30292000000031
 51
270.0
  0
LINE
  5
30FB
  8
AM_0
 10
623.5896854900401
 20
441.00544678165198
 30
0.0
 11
627.97713549003993
 21
441.00544678165198
 31
0.0
  0
LINE
  5
30FC
  8
AM_0
 10
641.97713549003959
 20
448.58229178165192
 30
0.0
 11
643.97713549003993
 21
448.58229178165192
 31
0.0
  0
LINE
  5
30FD
  8
AM_0
 10
657.9771354900397
 20
450.08229178165192
 30
0.0
 11
657.9771354900397
 21
447.08232178165167
 31
0.0
  0
LINE
  5
30FE
  8
AM_0
 10
713.97713549003981
 20
405.0822917816518
 30
0.0
 11
713.97713549003981
 21
450.08229178165192
 31
0.0
  0
ARC
  5
30FF
  8
ﾁｭｳｼﾝｾﾝ1
 10
972.58237760462384
 20
426.082291781648
 30
0.0
 40
170.00000499999459
 50
218.83636504934779
 51
231.01461
  0
LINE
  5
3100
  8
AM_0
 10
832.58526260462713
 20
304.41044178165203
 30
0.0
 11
830.08236260462752
 21
376.08228678165199
 31
0.0
  0
LINE
  5
3101
  8
AM_0
 10
850.91051260462734
 20
286.08512678165198
 30
0.0
 11
922.58237260462749
 21
283.58231678165203
 31
0.0
  0
ARC
  5
3102
  8
AM_0
 10
851.57361760462743
 20
305.0735617816519
 30
0.0
 40
19.000000499999999
 50
182.0000000000004
 51
268.0000000000029
  0
LINE
  5
3103
  8
ﾁｭｳｼﾝｾﾝ1
 10
841.0973478412692
 20
294.59720042526538
 30
0.0
 11
863.04389388602738
 21
316.543771907674
 31
0.0
  0
CIRCLE
  5
3104
  8
AM_0
 10
852.3742126046277
 20
305.87415678165189
 30
0.0
 40
9.5
  0
LINE
  5
3105
  8
AM_0
 10
922.58237260462749
 20
283.58228678165187
 30
0.0
 11
972.58237760462782
 21
283.58228678165187
 31
0.0
  0
LINE
  5
3106
  8
AM_0
 10
897.92313260462743
 20
272.910811781652
 30
0.0
 11
894.80380760462754
 21
284.55235178165202
 31
0.0
  0
LINE
  5
3107
  8
AM_0
 10
910.17060260462756
 20
265.83976678165192
 30
0.0
 11
921.01779760462739
 21
268.74625678165199
 31
0.0
  0
ARC
  5
3108
  8
AM_0
 10
907.58237260462749
 20
275.498976781652
 30
0.0
 40
10.0
 50
195.0000099999981
 51
285.00000000000148
  0
LINE
  5
3109
  8
AM_0
 10
867.05988260462743
 20
398.08229178165192
 30
0.0
 11
902.58237260462784
 21
398.08229178165192
 31
0.0
  0
LINE
  5
310A
  8
AM_0
 10
830.08236260462752
 20
376.08228678165199
 30
0.0
 11
830.08236260462752
 21
426.0822917816518
 31
0.0
  0
ARC
  5
310B
  8
AM_0
 10
867.05988260462743
 20
403.08229178165197
 30
0.0
 40
5.0
 50
192.29603999999881
 51
270.0
  0
LINE
  5
310C
  8
AM_0
 10
910.58237260462784
 20
426.0822917816518
 30
0.0
 11
910.58237260462784
 21
406.08229178165192
 31
0.0
  0
ARC
  5
310D
  8
AM_0
 10
902.58237260462784
 20
406.08229178165192
 30
0.0
 40
8.0
 50
270.0
 51
0.0
  0
ARC
  5
310E
  8
AM_0
 10
972.58237760462782
 20
426.0822917816518
 30
0.0
 40
20.9999985
 50
106.6015499999988
 51
73.398451999997818
  0
CIRCLE
  5
310F
  8
AM_0
 10
972.58237760462782
 20
426.0822917816518
 30
0.0
 40
3.5000000500000001
  0
CIRCLE
  5
3110
  8
AM_5
 10
972.58237760462782
 20
426.0822917816518
 30
0.0
 40
5.0
  0
LINE
  5
3111
  8
AM_0
 10
966.58237760462748
 20
442.08232178165179
 30
0.0
 11
978.5823776046276
 21
442.08232178165179
 31
0.0
  0
LINE
  5
3112
  8
AM_0
 10
966.58237760462748
 20
450.08229178165192
 30
0.0
 11
978.5823776046276
 21
450.08229178165192
 31
0.0
  0
LINE
  5
3113
  8
AM_0
 10
966.58237760462748
 20
450.08229178165192
 30
0.0
 11
966.58237760462748
 21
442.08232178165179
 31
0.0
  0
LINE
  5
3114
  8
AM_0
 10
978.5823776046276
 20
450.08229178165192
 30
0.0
 11
978.5823776046276
 21
442.08232178165179
 31
0.0
  0
LINE
  5
3115
  8
AM_0
 10
1112.579537604626
 20
304.41047178165189
 30
0.0
 11
1115.082377604627
 21
376.08228678165199
 31
0.0
  0
ARC
  5
3116
  8
AM_0
 10
1093.591137604627
 20
305.0735617816519
 30
0.0
 40
19.000000499999999
 50
271.99999999999687
 51
357.9999999999992
  0
LINE
  5
3117
  8
AM_0
 10
1094.254192604627
 20
286.08512678165198
 30
0.0
 11
1022.582377604627
 21
283.58228678165187
 31
0.0
  0
LINE
  5
3118
  8
AM_0
 10
1047.241647604628
 20
272.91077678165192
 30
0.0
 11
1050.360972604627
 21
284.55232178165198
 31
0.0
  0
LINE
  5
3119
  8
AM_0
 10
1034.994182604627
 20
265.83973178165201
 30
0.0
 11
1024.146952604628
 21
268.74622678165201
 31
0.0
  0
ARC
  5
311A
  8
AM_0
 10
1037.582377604627
 20
275.498976781652
 30
0.0
 40
10.0
 50
254.99999999999821
 51
344.99999999999909
  0
CIRCLE
  5
311B
  8
AM_0
 10
1092.7905376046281
 20
305.87415678165189
 30
0.0
 40
9.5
  0
LINE
  5
311C
  8
AM_0
 10
1078.104897604627
 20
398.08229178165192
 30
0.0
 11
1042.582377604627
 21
398.08229178165192
 31
0.0
  0
LINE
  5
311D
  8
AM_0
 10
1034.582377604627
 20
426.0822917816518
 30
0.0
 11
1034.582377604627
 21
406.08229178165192
 31
0.0
  0
ARC
  5
311E
  8
AM_0
 10
1042.582377604627
 20
406.08229178165192
 30
0.0
 40
8.0
 50
179.9999899999988
 51
270.0
  0
ARC
  5
311F
  8
AM_0
 10
1078.104897604627
 20
403.08229178165197
 30
0.0
 40
5.0
 50
270.0
 51
347.70395000000082
  0
LINE
  5
3120
  8
AM_0
 10
1115.0823926046271
 20
376.08228678165199
 30
0.0
 11
1115.0823926046271
 21
426.0822917816518
 31
0.0
  0
LINE
  5
3121
  8
AM_0
 10
1022.582377604627
 20
568.58228678165187
 30
0.0
 11
972.58237760462782
 21
568.58228678165187
 31
0.0
  0
ARC
  5
3122
  8
AM_0
 10
972.58237760462782
 20
388.08229178165192
 30
0.0
 40
122.0
 50
60.143060000003558
 51
86.162371999997163
  0
ARC
  5
3123
  8
AM_0
 10
972.58237760462782
 20
426.0822917816518
 30
0.0
 40
61.999994999999998
 50
53.583681000000588
 51
126.41631999999819
  0
ARC
  5
3124
  8
AM_0
 10
614.97718549003991
 20
533.62008678165205
 30
0.0
 40
5.0
 50
300.88098000000002
 51
0.0
  0
LINE
  5
3125
  8
AM_0
 10
622.87243549003995
 20
568.05483678165217
 30
0.0
 11
637.97713549003993
 21
568.58228678165187
 31
0.0
  0
ARC
  5
3126
  8
AM_0
 10
614.97718549003991
 20
548.15333678165211
 30
0.0
 40
5.0
 50
315.0
 51
0.0
  0
ARC
  5
3127
  8
AM_0
 10
622.97713549003993
 20
537.03958678165202
 30
0.0
 40
5.0
 50
0.0
 51
91.999998000000545
  0
ARC
  5
3128
  8
AM_0
 10
622.97713549003993
 20
565.05663678165195
 30
0.0
 40
3.0000000500000001
 50
91.999998000000545
 51
180.00001000000091
  0
LINE
  5
3129
  8
AM_0
 10
637.97713549003993
 20
546.0822867816521
 30
0.0
 11
641.97713549003959
 21
546.0822867816521
 31
0.0
  0
LINE
  5
312A
  8
AM_0
 10
850.91056260462744
 20
566.07948678165201
 30
0.0
 11
922.58240760462763
 21
568.58228678165187
 31
0.0
  0
ARC
  5
312B
  8
AM_0
 10
889.47183760462735
 20
495.05067678165187
 30
0.0
 40
5.0
 50
45.00000100000149
 51
140.31278000000091
  0
LINE
  5
312C
  8
AM_0
 10
832.58516260462784
 20
547.75408678165195
 30
0.0
 11
830.08236260462752
 21
476.08226178165188
 31
0.0
  0
ARC
  5
312D
  8
AM_0
 10
851.57361760462743
 20
547.09103678165206
 30
0.0
 40
19.000000499999999
 50
91.999998000000545
 51
177.9999999999994
  0
CIRCLE
  5
312E
  8
AM_0
 10
852.3742126046277
 20
546.29043678165203
 30
0.0
 40
9.5
  0
ARC
  5
312F
  8
AM_0
 10
981.08237760462748
 20
533.74728678165195
 30
0.0
 40
5.0
 50
85.485944000000941
 51
180.00001000000091
  0
ARC
  5
3130
  8
AM_0
 10
964.08237760462748
 20
533.74728678165195
 30
0.0
 40
5.0
 50
0.0
 51
94.514061000000083
  0
LINE
  5
3131
  8
AM_0
 10
900.07846760462769
 20
505.65728678165198
 30
0.0
 11
929.27243760462716
 21
476.46333178165168
 31
0.0
  0
LINE
  5
3132
  8
AM_0
 10
893.0073926046274
 20
498.58622678165199
 30
0.0
 11
922.20136260462743
 21
469.39225678165201
 31
0.0
  0
ARC
  5
3133
  8
AM_0
 10
932.80796260462751
 20
479.99888678165189
 30
0.0
 40
5.0
 50
225.0
 51
306.41631999999822
  0
ARC
  5
3134
  8
AM_0
 10
918.66584260462707
 20
465.85673678165199
 30
0.0
 40
5.0
 50
323.58368000000172
 51
45.00000100000149
  0
ARC
  5
3135
  8
AM_0
 10
903.61399260462724
 20
509.19283678165192
 30
0.0
 40
5.0
 50
129.6872200000015
 51
225.0
  0
LINE
  5
3136
  8
AM_0
 10
969.08237760462737
 20
533.74728678165195
 30
0.0
 11
969.08237760462737
 21
514.79748678165186
 31
0.0
  0
ARC
  5
3137
  8
AM_0
 10
972.58237760462782
 20
388.08229178165192
 30
0.0
 40
122.0
 50
93.837626000003567
 51
119.8569400000037
  0
ARC
  5
3138
  8
AM_0
 10
964.08237760462748
 20
514.79748678165186
 30
0.0
 40
5.0
 50
273.83763000000209
 51
0.0
  0
LINE
  5
3139
  8
AM_0
 10
976.08237760462782
 20
533.74728678165195
 30
0.0
 11
976.08237760462782
 21
514.79748678165186
 31
0.0
  0
ARC
  5
313A
  8
AM_0
 10
981.08237760462748
 20
514.79748678165186
 30
0.0
 40
5.0
 50
179.9999899999988
 51
266.16236000000072
  0
LINE
  5
313B
  8
AM_0
 10
922.58237260462749
 20
568.58228678165187
 30
0.0
 11
972.58237760462782
 21
568.58228678165187
 31
0.0
  0
ARC
  5
313C
  8
AM_0
 10
1093.591137604627
 20
547.09103678165206
 30
0.0
 40
19.000000499999999
 50
2.0000000000004712
 51
88.000000000002899
  0
LINE
  5
313D
  8
AM_0
 10
1112.579537604626
 20
547.75408678165195
 30
0.0
 11
1115.082377604627
 21
476.08226178165188
 31
0.0
  0
ARC
  5
313E
  8
ﾁｭｳｼﾝｾﾝ1
 10
972.58237760462373
 20
426.08229178164851
 30
0.0
 40
170.0000050000053
 50
39.036100604447547
 51
51.014604000000709
  0
ARC
  5
313F
  8
AM_0
 10
1055.6929126046271
 20
495.05067678165187
 30
0.0
 40
5.0
 50
39.687223999999532
 51
135.0
  0
LINE
  5
3140
  8
AM_0
 10
1052.157387604627
 20
498.58622678165199
 30
0.0
 11
1022.963417604627
 21
469.3922267816518
 31
0.0
  0
LINE
  5
3141
  8
AM_0
 10
1045.086312604627
 20
505.65728678165198
 30
0.0
 11
1015.892342604626
 21
476.46330178165192
 31
0.0
  0
ARC
  5
3142
  8
AM_0
 10
1012.356792604627
 20
479.99888678165189
 30
0.0
 40
5.0
 50
233.58368000000161
 51
315.0
  0
ARC
  5
3143
  8
AM_0
 10
1026.498942604627
 20
465.85673678165199
 30
0.0
 40
5.0
 50
135.0
 51
216.41631999999831
  0
ARC
  5
3144
  8
AM_0
 10
1041.5507926046271
 20
509.19283678165192
 30
0.0
 40
5.0
 50
315.0
 51
50.312775000000542
  0
LINE
  5
3145
  8
AM_0
 10
1094.2542226046271
 20
566.07948678165201
 30
0.0
 11
1022.582377604627
 21
568.58228678165187
 31
0.0
  0
LINE
  5
3146
  8
ﾁｭｳｼﾝｾﾝ1
 10
1103.802293321982
 20
557.3021831751023
 30
0.0
 11
1081.173569370374
 21
534.67348420794019
 31
0.0
  0
CIRCLE
  5
3147
  8
AM_0
 10
1092.7905376046281
 20
546.29043678165203
 30
0.0
 40
9.5
  0
LINE
  5
3148
  8
0
  6
CONTINUOUS
 62
     7
 10
349.47716549004008
 20
864.13028571415816
 30
0.0
 11
349.47716549004008
 21
740.13028571415771
 31
0.0
  0
LINE
  5
3149
  8
0
 10
316.47717156971402
 20
882.13028571415805
 30
0.0
 11
316.47717156971402
 21
722.13028571415759
 31
0.0
  0
LINE
  5
314A
  8
0
 10
326.47717156971402
 20
880.13028571415771
 30
0.0
 11
326.47717156971402
 21
724.13028571415771
 31
0.0
  0
LINE
  5
314B
  8
0
 10
316.47717156971402
 20
722.13028571415759
 30
0.0
 11
324.47717156971402
 21
722.13028571415759
 31
0.0
  0
ARC
  5
314C
  8
0
 10
351.47716549004008
 20
740.13028571415771
 30
0.0
 40
2.0
 50
180.0
 51
270.0
1001
GENIUS_GENODEF_13
1002
{
1000
HIER
1070
     0
1002
}
1002
{
1000
MANEDIT
1070
     0
1002
}
1002
{
1000
NOSEL
1070
     0
1002
}
1002
{
1000
BEHIND
1070
     0
1002
}
1002
{
1000
OTHER
1070
     0
1002
}
1002
{
1000
REACTOR
1002
}
1001
GENIUS_GENOBJ-N-FIL_13
1002
{
1000
OWNER
1000
GEN
1002
}
  0
LINE
  5
314D
  8
AM_0
 10
360.47716549004008
 20
750.63026971415775
 30
0.0
 11
349.47716549004008
 21
750.63026971415775
 31
0.0
  0
ARC
  5
314E
  8
0
 10
324.47717156971402
 20
724.13028571415771
 30
0.0
 40
2.0
 50
270.0
 51
0.0
1001
GENIUS_GENODEF_13
1002
{
1000
HIER
1070
     0
1002
}
1002
{
1000
MANEDIT
1070
     0
1002
}
1002
{
1000
NOSEL
1070
     0
1002
}
1002
{
1000
BEHIND
1070
     0
1002
}
1002
{
1000
OTHER
1070
     0
1002
}
1002
{
1000
REACTOR
1002
}
1001
GENIUS_GENOBJ-N-FIL_13
1002
{
1000
OWNER
1000
GEN
1002
}
  0
LINE
  5
314F
  8
0
 10
347.47716549004008
 20
744.13028571415771
 30
0.0
 11
331.47717156971407
 21
744.13028571415771
 31
0.0
  0
ARC
  5
3150
  8
0
 10
331.47717156971407
 20
739.13028571415759
 30
0.0
 40
5.0
 50
90.0
 51
180.0
1001
GENIUS_GENOBJ-N-FIL_13
1002
{
1000
OWNER
1000
GEN
1002
}
1001
GENIUS_GENODEF_13
1002
{
1000
HIER
1070
     0
1002
}
1002
{
1000
MANEDIT
1070
     0
1002
}
1002
{
1000
NOSEL
1070
     0
1002
}
1002
{
1000
BEHIND
1070
     0
1002
}
1002
{
1000
OTHER
1070
     0
1002
}
1002
{
1000
REACTOR
1002
}
  0
ARC
  5
3151
  8
0
 10
347.47716549004008
 20
742.13028571415771
 30
0.0
 40
2.0
 50
0.0
 51
90.0
1001
GENIUS_GENODEF_13
1002
{
1000
HIER
1070
     0
1002
}
1002
{
1000
MANEDIT
1070
     0
1002
}
1002
{
1000
NOSEL
1070
     0
1002
}
1002
{
1000
BEHIND
1070
     0
1002
}
1002
{
1000
OTHER
1070
     0
1002
}
1002
{
1000
REACTOR
1002
}
1001
GENIUS_GENOBJ-N-FIL_13
1002
{
1000
OWNER
1000
GEN
1002
}
  0
LINE
  5
3152
  8
0
 10
360.47716549004008
 20
738.13028571415771
 30
0.0
 11
351.47716549004008
 21
738.13028571415771
 31
0.0
  0
LINE
  5
3153
  8
AM_0
 10
360.47716549004008
 20
764.98235071415775
 30
0.0
 11
349.47716549004008
 21
764.98235071415775
 31
0.0
  0
ARC
  5
3154
  8
0
 10
351.47716549004008
 20
864.13028571415816
 30
0.0
 40
2.0
 50
90.0
 51
180.0
1001
GENIUS_GENODEF_13
1002
{
1000
HIER
1070
     0
1002
}
1002
{
1000
MANEDIT
1070
     0
1002
}
1002
{
1000
NOSEL
1070
     0
1002
}
1002
{
1000
BEHIND
1070
     0
1002
}
1002
{
1000
OTHER
1070
     0
1002
}
1002
{
1000
REACTOR
1002
}
1001
GENIUS_GENOBJ-N-FIL_13
1002
{
1000
OWNER
1000
GEN
1002
}
  0
LINE
  5
3155
  8
AM_0
 10
360.47716549004008
 20
853.63029571415791
 30
0.0
 11
349.47716549004008
 21
853.63029571415791
 31
0.0
  0
LINE
  5
3156
  8
AM_0
 10
360.47716549004008
 20
839.27820571415771
 30
0.0
 11
349.47716549004008
 21
839.27820571415771
 31
0.0
  0
LINE
  5
3157
  8
0
 10
347.47716549004008
 20
860.13028571415771
 30
0.0
 11
331.47717156971407
 21
860.13028571415771
 31
0.0
  0
ARC
  5
3158
  8
0
 10
331.47717156971407
 20
865.13028571415805
 30
0.0
 40
5.0
 50
180.0
 51
270.0
1001
GENIUS_GENOBJ-N-FIL_13
1002
{
1000
OWNER
1000
GEN
1002
}
1001
GENIUS_GENODEF_13
1002
{
1000
HIER
1070
     0
1002
}
1002
{
1000
MANEDIT
1070
     0
1002
}
1002
{
1000
NOSEL
1070
     0
1002
}
1002
{
1000
BEHIND
1070
     0
1002
}
1002
{
1000
OTHER
1070
     0
1002
}
1002
{
1000
REACTOR
1002
}
  0
ARC
  5
3159
  8
0
 10
347.47716549004008
 20
862.13028571415794
 30
0.0
 40
2.0
 50
270.0
 51
0.0
1001
GENIUS_GENODEF_13
1002
{
1000
HIER
1070
     0
1002
}
1002
{
1000
MANEDIT
1070
     0
1002
}
1002
{
1000
NOSEL
1070
     0
1002
}
1002
{
1000
BEHIND
1070
     0
1002
}
1002
{
1000
OTHER
1070
     0
1002
}
1002
{
1000
REACTOR
1002
}
1001
GENIUS_GENOBJ-N-FIL_13
1002
{
1000
OWNER
1000
GEN
1002
}
  0
LINE
  5
315A
  8
0
 10
360.47716549004008
 20
866.13028571415759
 30
0.0
 11
351.47716549004008
 21
866.13028571415759
 31
0.0
  0
LINE
  5
315B
  8
0
 10
316.47717156971402
 20
882.13028571415805
 30
0.0
 11
324.47717156971402
 21
882.13028571415805
 31
0.0
  0
ARC
  5
315C
  8
0
 10
324.47717156971402
 20
880.13028571415771
 30
0.0
 40
2.0
 50
0.0
 51
90.0
1001
GENIUS_GENODEF_13
1002
{
1000
HIER
1070
     0
1002
}
1002
{
1000
MANEDIT
1070
     0
1002
}
1002
{
1000
NOSEL
1070
     0
1002
}
1002
{
1000
BEHIND
1070
     0
1002
}
1002
{
1000
OTHER
1070
     0
1002
}
1002
{
1000
REACTOR
1002
}
1001
GENIUS_GENOBJ-N-FIL_13
1002
{
1000
OWNER
1000
GEN
1002
}
  0
LINE
  5
315D
  8
ﾁｭｳｼﾝｾﾝ1
 10
841.36246188727182
 20
557.3021831751023
 30
0.0
 11
863.99118583888014
 21
534.67348420794019
 31
0.0
  0
ARC
  5
315E
  8
ﾁｭｳｼﾝｾﾝ1
 10
972.58237760463112
 20
426.08229178164851
 30
0.0
 40
170.0000050000053
 50
128.98539599999921
 51
140.9638993955524
  0
LINE
  5
315F
  8
ﾁｭｳｼﾝｾﾝ1
 10
1104.067407367985
 20
294.59720042526538
 30
0.0
 11
1082.120861323227
 21
316.543771907674
 31
0.0
  0
ARC
  5
3160
  8
ﾁｭｳｼﾝｾﾝ1
 10
972.58237760463089
 20
426.082291781648
 30
0.0
 40
170.00000499999459
 50
308.98539
 51
321.16363495065218
  0
TEXT
  5
334B
  8
AM_0
 10
829.5787788828643
 20
847.36022635772622
 30
0.0
 40
15.0
  1
VX04-240AF~VX04-600AF
  0
ENDSEC
  0
EOF
