  0
SECTION
  2
HEADER
  9
$ACADVER
  1
AC1009
  9
$INSBASE
 10
0.0
 20
0.0
 30
0.0
  9
$EXTMIN
 10
240.34641625050699
 20
233.82640184288539
 30
-0.0000000000112498
  9
$EXTMAX
 10
1201.688655093531
 20
1054.4237968667519
 30
0.0000000000002956
  9
$LIMMIN
 10
0.0
 20
0.0
  9
$LIMMAX
 10
1422.5
 20
925.0
  9
$ORTHOMODE
 70
     0
  9
$REGENMODE
 70
     1
  9
$FILLMODE
 70
     1
  9
$QTEXTMODE
 70
     0
  9
$MIRRTEXT
 70
     1
  9
$DRAGMODE
 70
     2
  9
$LTSCALE
 40
5.0
  9
$OSMODE
 70
   551
  9
$ATTMODE
 70
     1
  9
$TEXTSIZE
 40
2.5
  9
$TRACEWID
 40
1.0
  9
$TEXTSTYLE
  7
STANDARD
  9
$CLAYER
  8
AM_0
  9
$CELTYPE
  6
BYLAYER
  9
$CECOLOR
 62
   256
  9
$DIMSCALE
 40
1.0
  9
$DIMASZ
 40
2.5
  9
$DIMEXO
 40
1.0
  9
$DIMDLI
 40
8.0
  9
$DIMRND
 40
0.0
  9
$DIMDLE
 40
0.0
  9
$DIMEXE
 40
0.6
  9
$DIMTP
 40
0.1
  9
$DIMTM
 40
0.1
  9
$DIMTXT
 40
2.5
  9
$DIMCEN
 40
0.0
  9
$DIMTSZ
 40
0.0
  9
$DIMTOL
 70
     0
  9
$DIMLIM
 70
     0
  9
$DIMTIH
 70
     0
  9
$DIMTOH
 70
     0
  9
$DIMSE1
 70
     0
  9
$DIMSE2
 70
     0
  9
$DIMTAD
 70
     1
  9
$DIMZIN
 70
     8
  9
$DIMBLK
  1

  9
$DIMASO
 70
     1
  9
$DIMSHO
 70
     1
  9
$DIMPOST
  1

  9
$DIMAPOST
  1
"
  9
$DIMALT
 70
     0
  9
$DIMALTD
 70
     2
  9
$DIMALTF
 40
0.0393701
  9
$DIMLFAC
 40
1.0
  9
$DIMTOFL
 70
     1
  9
$DIMTVP
 40
0.0
  9
$DIMTIX
 70
     0
  9
$DIMSOXD
 70
     0
  9
$DIMSAH
 70
     0
  9
$DIMBLK1
  1

  9
$DIMBLK2
  1

  9
$DIMSTYLE
  2
AM_ISO
  9
$DIMCLRD
 70
   256
  9
$DIMCLRE
 70
   256
  9
$DIMCLRT
 70
     4
  9
$DIMTFAC
 40
0.71
  9
$DIMGAP
 40
0.8
  9
$LUNITS
 70
     2
  9
$LUPREC
 70
     2
  9
$SKETCHINC
 40
1.0
  9
$FILLETRAD
 40
25.0
  9
$AUNITS
 70
     0
  9
$AUPREC
 70
     0
  9
$MENU
  1
.
  9
$ELEVATION
 40
0.0
  9
$PELEVATION
 40
0.0
  9
$THICKNESS
 40
0.0
  9
$LIMCHECK
 70
     0
  9
$BLIPMODE
 70
     0
  9
$CHAMFERA
 40
10.0
  9
$CHAMFERB
 40
5.0
  9
$SKPOLY
 70
     0
  9
$TDCREATE
 40
2452066.4260472679
  9
$TDUPDATE
 40
2458541.543703692
  9
$TDINDWG
 40
0.1995321181
  9
$TDUSRTIMER
 40
0.1995319097
  9
$USRTIMER
 70
     1
  9
$ANGBASE
 50
0.0
  9
$ANGDIR
 70
     0
  9
$PDMODE
 70
     0
  9
$PDSIZE
 40
0.0
  9
$PLINEWID
 40
0.0
  9
$COORDS
 70
     1
  9
$SPLFRAME
 70
     0
  9
$SPLINETYPE
 70
     6
  9
$SPLINESEGS
 70
     8
  9
$ATTDIA
 70
     1
  9
$ATTREQ
 70
     1
  9
$HANDLING
 70
     1
  9
$HANDSEED
  5
33FE
  9
$SURFTAB1
 70
     6
  9
$SURFTAB2
 70
     6
  9
$SURFTYPE
 70
     6
  9
$SURFU
 70
     6
  9
$SURFV
 70
     6
  9
$UCSNAME
  2

  9
$UCSORG
 10
0.0
 20
0.0
 30
0.0
  9
$UCSXDIR
 10
1.0
 20
0.0
 30
0.0
  9
$UCSYDIR
 10
0.0
 20
1.0
 30
0.0
  9
$PUCSNAME
  2

  9
$PUCSORG
 10
0.0
 20
0.0
 30
0.0
  9
$PUCSXDIR
 10
1.0
 20
0.0
 30
0.0
  9
$PUCSYDIR
 10
0.0
 20
1.0
 30
0.0
  9
$USERI1
 70
     0
  9
$USERI2
 70
     0
  9
$USERI3
 70
     0
  9
$USERI4
 70
     0
  9
$USERI5
 70
     0
  9
$USERR1
 40
0.0
  9
$USERR2
 40
0.0
  9
$USERR3
 40
0.0
  9
$USERR4
 40
0.0
  9
$USERR5
 40
0.0
  9
$WORLDVIEW
 70
     1
  9
$SHADEDGE
 70
     3
  9
$SHADEDIF
 70
    70
  9
$TILEMODE
 70
     1
  9
$MAXACTVP
 70
    64
  9
$PLIMCHECK
 70
     0
  9
$PEXTMIN
 10
1.0000000000000000E+020
 20
1.0000000000000000E+020
 30
1.0000000000000000E+020
  9
$PEXTMAX
 10
-1.0000000000000000E+020
 20
-1.0000000000000000E+020
 30
-1.0000000000000000E+020
  9
$PLIMMIN
 10
0.0
 20
0.0
  9
$PLIMMAX
 10
420.0
 20
297.0
  9
$UNITMODE
 70
     0
  9
$VISRETAIN
 70
     1
  9
$PLINEGEN
 70
     0
  9
$PSLTSCALE
 70
     1
  0
ENDSEC
  0
SECTION
  2
TABLES
  0
TABLE
  2
VPORT
 70
     1
  0
VPORT
  2
*ACTIVE
 70
     0
 10
0.0
 20
0.0
 11
1.0
 21
1.0
 12
721.01753567201911
 22
644.12509935481853
 13
0.0
 23
0.0
 14
12.5
 24
12.5
 15
50.0
 25
50.0
 16
0.0
 26
0.0
 36
1.0
 17
0.0
 27
0.0
 37
0.0
 40
826.23078675171882
 41
1.7571592210767459
 42
50.0
 43
0.0
 44
0.0
 50
0.0
 51
0.0
 71
     0
 72
   100
 73
     1
 74
     3
 75
     0
 76
     0
 77
     0
 78
     0
  0
ENDTAB
  0
TABLE
  2
LTYPE
 70
    26
  0
LTYPE
  2
CONTINUOUS
 70
     0
  3
Solid line
 72
    65
 73
     0
 40
0.0
  0
LTYPE
  2
AM_ISO02W050
 70
     0
  3
__ __ __ __ __ __ __ __ __ __ __ __ __ __ __
 72
    65
 73
     2
 40
7.5
 49
6.0
 49
-1.5
  0
LTYPE
  2
AM_ISO08W050
 70
     0
  3
____ . ____ . ____ . ____ . ____ . ____ . ____
 72
    65
 73
     4
 40
18.0
 49
12.0
 49
-1.5
 49
3.0
 49
-1.5
  0
LTYPE
  2
AM_ISO09W050
 70
     0
  3
_____ . . _____ . . _____ . . ____ .. ____
 72
    65
 73
     6
 40
22.5
 49
12.0
 49
-1.5
 49
3.0
 49
-1.5
 49
3.0
 49
-1.5
  0
LTYPE
  2
AMCONSTR
 70
     0
  3
_______________________
 72
    65
 73
     2
 40
9999.0
 49
9999.0
 49
0.0
  0
LTYPE
  2
AM_ISO08W050X2
 70
     0
  3
__ . __ . __ . __ . __ . __
 72
    65
 73
     4
 40
9.0
 49
6.0
 49
-0.75
 49
1.5
 49
-0.75
  0
LTYPE
  2
AM_ISO02W050X2
 70
     0
  3
 _ _ _ _ _ _ _ _ _ _ _ _
 72
    65
 73
     2
 40
3.75
 49
3.0
 49
-0.75
  0
LTYPE
  2
AMZIGZAG
 70
     0
  3
/\/-/\/-/\/-/\/-/\/-/\/
 72
    65
 73
     2
 40
11.000099999999991
 49
0.0001
 49
-11.0
  0
LTYPE
  2
ACISOWELD
 70
     0
  3
_ _ _ _ _
 72
    65
 73
     2
 40
2.0
 49
2.0
 49
-1.0
  0
LTYPE
  2
ACISOTGB
 70
     0
  3
__ . . __ . .
 72
    65
 73
     6
 40
9.0
 49
4.0
 49
-1.0
 49
1.0
 49
-1.0
 49
1.0
 49
-1.0
  0
LTYPE
  2
ACISOTGL
 70
     0
  3
_ _ _ _ _
 72
    65
 73
     2
 40
3.0
 49
2.0
 49
-1.0
  0
LTYPE
  2
CENTER
 70
     0
  3
__ . __
 72
    65
 73
     4
 40
7.0
 49
4.0
 49
-1.0
 49
1.0
 49
-1.0
  0
LTYPE
  2
PHANTOM2
 70
     0
  3
Phantom (.5x) ___ _ _ ___ _ _ ___ _ _ ___ _ _
 72
    65
 73
     6
 40
31.75
 49
15.875
 49
-3.174999999999998
 49
3.174999999999998
 49
-3.174999999999998
 49
3.174999999999998
 49
-3.174999999999998
  0
LTYPE
  2
ACANSTGBM
 70
     0
  3
__ . . __ . .
 72
    65
 73
     6
 40
9.0
 49
4.0
 49
-1.0
 49
1.0
 49
-1.0
 49
1.0
 49
-1.0
  0
LTYPE
  2
ACANSTGLM
 70
     0
  3
_ _ _ _ _
 72
    65
 73
     2
 40
3.0
 49
2.0
 49
-1.0
  0
LTYPE
  2
GEN7
 70
     0
  3
____ . ____ . ____ . ____ . ____ . ____ . ____
 72
    65
 73
     4
 40
14.25
 49
9.75
 49
-1.5
 49
1.5
 49
-1.5
  0
LTYPE
  2
GEN7A
 70
     0
  3
__ . __ . __
 72
    65
 73
     4
 40
7.375
 49
4.75
 49
-0.875
 49
0.875
 49
-0.875
  0
LTYPE
  2
ACJISTGB
 70
     0
  3
__ . . __ . .
 72
    65
 73
     6
 40
9.0
 49
4.0
 49
-1.0
 49
1.0
 49
-1.0
 49
1.0
 49
-1.0
  0
LTYPE
  2
ACJISTGL
 70
     0
  3
_ _ _ _ _
 72
    65
 73
     2
 40
3.0
 49
2.0
 49
-1.0
  0
LTYPE
  2
HIDDEN
 70
     0
  3
Hidden __ __ __ __ __ __ __ __ __ __ __ __ __ _
 72
    65
 73
     2
 40
0.375
 49
0.25
 49
-0.125
  0
LTYPE
  2
CENTER2
 70
     0
  3
Center (.5x) ___ _ ___ _ ___ _ ___ _ ___ _ ___
 72
    65
 73
     4
 40
1.125
 49
0.75
 49
-0.125
 49
0.125
 49
-0.125
  0
LTYPE
  2
HIDDEN2
 70
     0
  3
Hidden (.5x) _ _ _ _ _ _ _ _ _ _ _ _ _ _ _ _ _
 72
    65
 73
     2
 40
0.1875
 49
0.125
 49
-0.0625
  0
LTYPE
  2
AMZIGZAG2
 70
     0
  3
/\/-/\/-/\/-/\/-/\/-/\/
 72
    65
 73
     2
 40
0.4401
 49
0.0001
 49
-0.4400000000000002
  0
LTYPE
  2
ACANSTGB
 70
     0
  3
__ . . __ . .
 72
    65
 73
     6
 40
0.35433070866
 49
0.15748031496
 49
-0.03937007874
 49
0.03937007874
 49
-0.03937007874
 49
0.03937007874
 49
-0.03937007874
  0
LTYPE
  2
ACANSTGL
 70
     0
  3
_ _ _ _ _
 72
    65
 73
     2
 40
0.11811023622
 49
0.07874015748
 49
-0.03937007874
  0
ENDTAB
  0
TABLE
  2
LAYER
 70
     6
  0
LAYER
  2
0
 70
     0
 62
     7
  6
CONTINUOUS
  0
LAYER
  2
AM_0
 70
     0
 62
     7
  6
CONTINUOUS
  0
LAYER
  2
AM_5
 70
     0
 62
     2
  6
CONTINUOUS
  0
LAYER
  2
DEFPOINTS
 70
     0
 62
     7
  6
CONTINUOUS
  0
LAYER
  2
ﾁｭｳｼﾝｾﾝ
 70
     0
 62
     1
  6
GEN7
  0
LAYER
  2
ﾁｭｳｼﾝｾﾝ1
 70
     0
 62
     1
  6
GEN7A
  0
ENDTAB
  0
TABLE
  2
STYLE
 70
     9
  0
STYLE
  2
STANDARD
 70
     0
 40
0.0
 41
0.8299999999999999
 50
0.0
 71
     0
 42
2.5
  3
txt.shx
  4
bigfont.shx
  0
STYLE
  2
ANNOTATIVE
 70
     0
 40
0.0
 41
1.0
 50
0.0
 71
     0
 42
0.2
  3
txt
  4

  0
STYLE
  2

 70
     1
 40
0.0
 41
1.0
 50
0.0
 71
     0
 42
2.5
  3
ltypeshp.shx
  4

  0
STYLE
  2
ACISOTS
 70
     0
 40
1.0
 41
1.0
 50
0.0
 71
     0
 42
2.5
  3
isocp.shx
  4
extfont.shx
  0
STYLE
  2
ACISOGDT
 70
     0
 40
0.0
 41
1.0
 50
0.0
 71
     0
 42
2.5
  3
amgdt.shx
  4

  0
STYLE
  2
ACANSTS
 70
     0
 40
1.0
 41
1.0
 50
0.0
 71
     0
 42
2.5
  3
romans.shx
  4
bigfont.shx
  0
STYLE
  2
ACANSGDT
 70
     0
 40
0.0
 41
1.0
 50
0.0
 71
     0
 42
2.5
  3
amgdt.shx
  4

  0
STYLE
  2
ACJISTS
 70
     0
 40
1.0
 41
1.0
 50
0.0
 71
     0
 42
2.5
  3
isocp.shx
  4
bigfont.shx
  0
STYLE
  2
ACJISGDT
 70
     0
 40
0.0
 41
1.0
 50
0.0
 71
     0
 42
2.5
  3
amgdt.shx
  4

  0
ENDTAB
  0
TABLE
  2
VIEW
 70
     6
  0
VIEW
  2
AM_VIEW1
 70
     0
 40
462.5
 10
416.07965009208078
 20
693.75
 41
832.15930018416213
 11
0.0
 21
0.0
 31
1.0
 12
0.0
 22
0.0
 32
0.0
 42
50.0
 43
0.0
 44
0.0
 50
0.0
 71
     0
  0
VIEW
  2
AM_VIEW2
 70
     0
 40
462.5
 10
1006.420349907918
 20
693.75
 41
832.15930018416213
 11
0.0
 21
0.0
 31
1.0
 12
0.0
 22
0.0
 32
0.0
 42
50.0
 43
0.0
 44
0.0
 50
0.0
 71
     0
  0
VIEW
  2
AM_VIEW3
 70
     0
 40
462.5
 10
416.07965009208078
 20
231.25
 41
832.15930018416213
 11
0.0
 21
0.0
 31
1.0
 12
0.0
 22
0.0
 32
0.0
 42
50.0
 43
0.0
 44
0.0
 50
0.0
 71
     0
  0
VIEW
  2
AM_VIEW4
 70
     0
 40
462.5
 10
1006.420349907918
 20
231.25
 41
832.15930018416213
 11
0.0
 21
0.0
 31
1.0
 12
0.0
 22
0.0
 32
0.0
 42
50.0
 43
0.0
 44
0.0
 50
0.0
 71
     0
  0
VIEW
  2
AM_VIEW5
 70
     0
 40
462.5
 10
711.24999999999966
 20
462.5
 41
832.15930018416179
 11
0.0
 21
0.0
 31
1.0
 12
0.0
 22
0.0
 32
0.0
 42
50.0
 43
0.0
 44
0.0
 50
0.0
 71
     0
  0
VIEW
  2
AM_VIEW6
 70
     0
 40
924.99075000000005
 10
711.24999999999966
 20
462.5
 41
1664.3019571823199
 11
0.0
 21
0.0
 31
1.0
 12
0.0
 22
0.0
 32
0.0
 42
50.0
 43
0.0
 44
0.0
 50
0.0
 71
     0
  0
ENDTAB
  0
TABLE
  2
UCS
 70
     0
  0
ENDTAB
  0
TABLE
  2
APPID
 70
    95
  0
APPID
  2
ACAD
 70
     0
  0
APPID
  2
ACADANNOTATIVE
 70
     0
  0
APPID
  2
MCAD_NO_VIS
 70
     0
  0
APPID
  2
ACAD_TEMP_GRAPHIC
 70
     0
  0
APPID
  2
ACATTRIBSERVICES
 70
     0
  0
APPID
  2
GENIUS_GENREC_14
 70
     0
  0
APPID
  2
GENIUS_GENOBJ-N-REC_13
 70
     0
  0
APPID
  2
GENIUS_GENODEF_13
 70
     0
  0
APPID
  2
GENIUS_GENOLIS_13
 70
     0
  0
APPID
  2
GENIUS_GENOBJ-N-TIT_13
 70
     0
  0
APPID
  2
GENIUS_GENOENT_13
 70
     0
  0
APPID
  2
GENIUS_GENTITLE_13
 70
     0
  0
APPID
  2
GENIUS_GENOREF_13
 70
     0
  0
APPID
  2
GENIUS_GENSCREG_15
 70
     0
  0
APPID
  2
GENIUS_GENOBJ-N-SDF_13
 70
     0
  0
APPID
  2
GENIUS_GENFIL_13
 70
     0
  0
APPID
  2
GENIUS_GENOBJ-N-CHA_13
 70
     0
  0
APPID
  2
GENIUS_GENDTOL_13
 70
     0
  0
APPID
  2
GENIUS_GENOBJ-N-FIL_13
 70
     0
  0
APPID
  2
AD_DRAW
 70
     0
  0
APPID
  2
DESIGNERASSEMBLIES
 70
     0
  0
APPID
  2
ASURF_PCURVE_APPNAME
 70
     0
  0
APPID
  2
GENIUS_GE3SECT_13
 70
     0
  0
APPID
  2
GENIUS_GENCFG_13
 70
     0
  0
APPID
  2
GENIUS_GE3CFG0_13
 70
     0
  0
APPID
  2
GENIUS_GENCFG0_13
 70
     0
  0
APPID
  2
GENIUS_GENCFG1_13
 70
     0
  0
APPID
  2
GENIUS_GENCFG2_13
 70
     0
  0
APPID
  2
GENIUS_GENCFG3_13
 70
     0
  0
APPID
  2
GENIUS_GENCFG4_13
 70
     0
  0
APPID
  2
GENIUS_GEVCFG0_13
 70
     0
  0
APPID
  2
GENIUS_GENHINW_13
 70
     0
  0
APPID
  2
GENIUS_FIRSTVISTXT_14
 70
     0
  0
APPID
  2
GENIUS_GENOBJ-N-LEADER_13
 70
     0
  0
APPID
  2
GEV_VCCNULL_SWITCH_OFF
 70
     0
  0
APPID
  2
GENIUS_GEFCFG0_13
 70
     0
  0
APPID
  2
GENIUS_GENZVEED_13
 70
     0
  0
APPID
  2
GENIUS_GENSCREG_13
 70
     0
  0
APPID
  2
GENIUS_DUMCFG0_13
 70
     0
  0
APPID
  2
GEVID936201362
 70
     0
  0
APPID
  2
GEVDC
 70
     0
  0
APPID
  2
GEVCON
 70
     0
  0
APPID
  2
VCC
 70
     0
  0
APPID
  2
GEVPT
 70
     0
  0
APPID
  2
GEVIT
 70
     0
  0
APPID
  2
GENBH
 70
     0
  0
APPID
  2
GEVMK
 70
     0
  0
APPID
  2
GENIUS_GENBH_13
 70
     0
  0
APPID
  2
GENIUS_GENOBJ-NBEHI-BHF_13
 70
     0
  0
APPID
  2
GENIUS_GENOBJ-NBEHI-BHB_13
 70
     0
  0
APPID
  2
GENIUS_GENOBJ-F-DESC_13
 70
     0
  0
APPID
  2
GENIUS_GEFDESC_14
 70
     0
  0
APPID
  2
GENIUS_GENOBJ-F-PART_13
 70
     0
  0
APPID
  2
GENIUS_GEFSTDP_13
 70
     0
  0
APPID
  2
GENIUS_GEFPARTINS_13
 70
     0
  0
APPID
  2
GENIUS_GENTRA_14
 70
     0
  0
APPID
  2
GENIUS_GENINF13_13
 70
     0
  0
APPID
  2
GENIUS_GENOBJ-N-INFOPT_13
 70
     0
  0
APPID
  2
GENIUS_GENOBJ-N-RSSYM_13
 70
     0
  0
APPID
  2
GENIUS_GENSYMENT_13
 70
     0
  0
APPID
  2
GENIUS_GENSCSYM_13
 70
     0
  0
APPID
  2
GENIUS_GEFINFNAM_13
 70
     0
  0
APPID
  2
GENIUS_GENOBJ-N-CEN_13
 70
     0
  0
APPID
  2
GENIUS_GENOBJ-N-CRS_13
 70
     0
  0
APPID
  2
GENIUS_GENOBJ-N-CRC_13
 70
     0
  0
APPID
  2
GENIUS_GENCRC_14
 70
     0
  0
APPID
  2
GEVID942827039
 70
     0
  0
APPID
  2
GEVID942827040
 70
     0
  0
APPID
  2
GEVID942827041
 70
     0
  0
APPID
  2
GENIUS_GENOBJ-F-SCPASSM_13
 70
     0
  0
APPID
  2
GENIUS_GENDIMSH_14
 70
     0
  0
APPID
  2
GEVID942827042
 70
     0
  0
APPID
  2
GEVID946020473
 70
     0
  0
APPID
  2
GEVID946020474
 70
     0
  0
APPID
  2
GEVID946020475
 70
     0
  0
APPID
  2
GENIUS_GENOBJ-N-HTC_13
 70
     0
  0
APPID
  2
GENIUS_GENHATCH_13
 70
     0
  0
APPID
  2
GEVID948854295
 70
     0
  0
APPID
  2
GEVID939402019
 70
     0
  0
APPID
  2
GEVID952919491
 70
     0
  0
APPID
  2
GEVID952919492
 70
     0
  0
APPID
  2
GENIUS_GEFWELD_13
 70
     0
  0
APPID
  2
GENIUS_GENOBJ-F-WELS_13
 70
     0
  0
APPID
  2
GEVID952919493
 70
     0
  0
APPID
  2
GENIUS_GENOBJ-N-RSBK_13
 70
     0
  0
APPID
  2
GENIUS_GENOBJ-N-LIB_13
 70
     0
  0
APPID
  2
GENIUS_GENSCALE_13
 70
     0
  0
APPID
  2
GEVID986376691
 70
     0
  0
APPID
  2
DCO15
 70
     0
  0
APPID
  2
ACAD_DSTYLE_DIMBREAK
 70
     0
  0
APPID
  2
ACAD_DSTYLE_DIMJAG
 70
     0
  0
APPID
  2
ACAD_NAV_VCDISPLAY
 70
     0
  0
APPID
  2
ACADANNOPO
 70
     0
  0
APPID
  2
ACAD_EXEMPT_FROM_CAD_STANDARDS
 70
     0
  0
APPID
  2
ACAD_MLEADERVER
 70
     0
  0
ENDTAB
  0
TABLE
  2
DIMSTYLE
 70
    22
  0
DIMSTYLE
  2
STANDARD
 70
     0
  3

  4

  5

  6

  7

 40
1.0
 41
0.18
 42
0.0625
 43
0.38
 44
0.18
 45
0.0
 46
0.0
 47
0.0
 48
0.0
140
0.18
141
0.09
142
0.0
143
25.399999999999999
144
1.0
145
0.0
146
1.0
147
0.09
 71
     0
 72
     0
 73
     1
 74
     1
 75
     0
 76
     0
 77
     0
 78
     0
170
     0
171
     2
172
     0
173
     0
174
     0
175
     0
176
     0
177
     0
178
     0
  0
DIMSTYLE
  2
ANNOTATIVE
 70
     0
  3

  4

  5

  6

  7

 40
1.0
 41
0.18
 42
0.0625
 43
0.38
 44
0.18
 45
0.0
 46
0.0
 47
0.0
 48
0.0
140
0.18
141
0.09
142
0.0
143
25.399999999999999
144
1.0
145
0.0
146
1.0
147
0.09
 71
     0
 72
     0
 73
     1
 74
     1
 75
     0
 76
     0
 77
     0
 78
     0
170
     0
171
     2
172
     0
173
     0
174
     0
175
     0
176
     0
177
     0
178
     0
  0
DIMSTYLE
  2
AM_ISO
 70
     0
  3

  4
"
  5

  6

  7

 40
1.0
 41
2.5
 42
1.0
 43
8.0
 44
0.6
 45
0.0
 46
0.0
 47
0.1
 48
0.1
140
2.5
141
0.0
142
0.0
143
0.0393701
144
1.0
145
0.0
146
0.71
147
0.8
 71
     0
 72
     0
 73
     0
 74
     0
 75
     0
 76
     0
 77
     1
 78
     8
170
     0
171
     2
172
     1
173
     0
174
     0
175
     0
176
   256
177
   256
178
     4
  0
DIMSTYLE
  2
AM_ISO$3
 70
     0
  3

  4
"
  5

  6

  7

 40
1.0
 41
2.5
 42
1.0
 43
8.0
 44
0.6
 45
0.0
 46
0.0
 47
0.1
 48
0.1
140
2.5
141
0.0
142
0.0
143
0.0393701
144
1.0
145
0.0
146
0.71
147
0.8
 71
     0
 72
     0
 73
     0
 74
     1
 75
     0
 76
     0
 77
     1
 78
     8
170
     0
171
     2
172
     0
173
     0
174
     0
175
     0
176
   256
177
   256
178
     4
  0
DIMSTYLE
  2
AM_ISO$4
 70
     0
  3

  4
"
  5

  6

  7

 40
1.0
 41
2.5
 42
1.0
 43
8.0
 44
0.6
 45
0.0
 46
0.0
 47
0.1
 48
0.1
140
2.5
141
0.0
142
0.0
143
0.0393701
144
1.0
145
0.0
146
0.71
147
0.8
 71
     0
 72
     0
 73
     0
 74
     1
 75
     0
 76
     0
 77
     1
 78
     8
170
     0
171
     2
172
     0
173
     0
174
     0
175
     0
176
   256
177
   256
178
     4
  0
DIMSTYLE
  2
AM_ISO$6
 70
     0
  3

  4
"
  5

  6

  7

 40
1.0
 41
2.5
 42
1.0
 43
8.0
 44
0.6
 45
0.0
 46
0.0
 47
0.1
 48
0.1
140
2.5
141
0.0
142
0.0
143
0.0393701
144
1.0
145
0.0
146
0.71
147
0.8
 71
     0
 72
     0
 73
     0
 74
     0
 75
     0
 76
     0
 77
     0
 78
     8
170
     0
171
     2
172
     1
173
     0
174
     0
175
     0
176
   256
177
   256
178
     4
  0
DIMSTYLE
  2
AM_ISO$7
 70
     0
  3

  4
"
  5

  6

  7

 40
1.0
 41
2.5
 42
1.0
 43
8.0
 44
0.6
 45
0.0
 46
0.0
 47
0.1
 48
0.1
140
2.5
141
0.0
142
0.0
143
0.0393701
144
1.0
145
0.0
146
0.71
147
0.8
 71
     0
 72
     0
 73
     0
 74
     0
 75
     0
 76
     0
 77
     1
 78
     8
170
     0
171
     2
172
     1
173
     0
174
     0
175
     0
176
   256
177
   256
178
     4
  0
DIMSTYLE
  2
AM_ISO$SF
 70
     0
  3

  4
"
  5

  6

  7

 40
1.0
 41
2.5
 42
1.0
 43
10.0
 44
1.0
 45
0.0
 46
0.0
 47
0.1
 48
0.1
140
3.5
141
0.0
142
0.0
143
0.0393701
144
1.0
145
0.0
146
0.71
147
1.5
 71
     0
 72
     0
 73
     0
 74
     0
 75
     1
 76
     1
 77
     1
 78
     8
170
     0
171
     2
172
     1
173
     0
174
     0
175
     0
176
   256
177
   256
178
     2
  0
DIMSTYLE
  2
AM_ISO$SH
 70
     0
  3

  4
"
  5

  6

  7

 40
1.0
 41
2.5
 42
1.0
 43
10.0
 44
1.0
 45
0.0
 46
0.0
 47
0.1
 48
0.1
140
3.5
141
0.0
142
0.0
143
0.0393701
144
2.0
145
0.0
146
0.71
147
1.5
 71
     0
 72
     0
 73
     0
 74
     0
 75
     1
 76
     1
 77
     1
 78
     8
170
     0
171
     2
172
     1
173
     1
174
     0
175
     0
176
   256
177
   256
178
     2
  0
DIMSTYLE
  2
AM_JIS
 70
     0
  3

  4
"
  5

  6

  7

 40
1.0
 41
2.5
 42
1.0
 43
7.0
 44
1.0
 45
0.0
 46
0.0
 47
0.1
 48
0.1000000001
140
2.5
141
0.0
142
0.0
143
0.0393701
144
1.0
145
0.0
146
0.71
147
1.0
 71
     0
 72
     0
 73
     0
 74
     0
 75
     0
 76
     0
 77
     3
 78
     8
170
     0
171
     2
172
     1
173
     0
174
     0
175
     0
176
   256
177
   256
178
     4
  0
DIMSTYLE
  2
AM_JIS$3
 70
     0
  3

  4
"
  5

  6

  7

 40
1.0
 41
2.5
 42
1.0
 43
7.0
 44
1.0
 45
0.0
 46
0.0
 47
0.1
 48
0.1000000001
140
2.5
141
0.0
142
0.0
143
0.0393701
144
1.0
145
0.0
146
0.71
147
1.0
 71
     0
 72
     0
 73
     0
 74
     1
 75
     0
 76
     0
 77
     3
 78
     8
170
     0
171
     2
172
     0
173
     0
174
     0
175
     0
176
   256
177
   256
178
     4
  0
DIMSTYLE
  2
AM_JIS$4
 70
     0
  3

  4
"
  5

  6

  7

 40
1.0
 41
2.5
 42
1.0
 43
7.0
 44
1.0
 45
0.0
 46
0.0
 47
0.1
 48
0.1000000001
140
2.5
141
0.0
142
0.0
143
0.0393701
144
1.0
145
0.0
146
0.71
147
1.0
 71
     0
 72
     0
 73
     0
 74
     0
 75
     0
 76
     0
 77
     3
 78
     8
170
     0
171
     2
172
     0
173
     0
174
     0
175
     0
176
   256
177
   256
178
     4
  0
DIMSTYLE
  2
AM_JIS$6
 70
     0
  3

  4
"
  5

  6

  7

 40
1.0
 41
2.5
 42
1.0
 43
7.0
 44
1.0
 45
0.0
 46
0.0
 47
0.1
 48
0.1000000001
140
2.5
141
0.0
142
0.0
143
0.0393701
144
1.0
145
0.0
146
0.71
147
1.0
 71
     0
 72
     0
 73
     0
 74
     0
 75
     0
 76
     0
 77
     0
 78
     8
170
     0
171
     2
172
     1
173
     0
174
     0
175
     0
176
   256
177
   256
178
     4
  0
DIMSTYLE
  2
AM_JIS$7
 70
     0
  3

  4
"
  5

  6

  7

 40
1.0
 41
2.5
 42
1.0
 43
7.0
 44
1.0
 45
0.0
 46
0.0
 47
0.1
 48
0.1000000001
140
2.5
141
0.0
142
0.0
143
0.0393701
144
1.0
145
0.0
146
0.71
147
1.0
 71
     0
 72
     0
 73
     0
 74
     0
 75
     0
 76
     0
 77
     3
 78
     8
170
     0
171
     2
172
     1
173
     0
174
     0
175
     0
176
   256
177
   256
178
     4
  0
DIMSTYLE
  2
AM_JIS$SF
 70
     0
  3

  4
"
  5

  6

  7

 40
1.0
 41
2.5
 42
1.0
 43
10.0
 44
1.0
 45
0.0
 46
0.0
 47
0.1
 48
0.1
140
3.5
141
0.0
142
0.0
143
0.0393701
144
1.0
145
0.0
146
0.71
147
1.5
 71
     0
 72
     0
 73
     0
 74
     0
 75
     1
 76
     1
 77
     3
 78
     8
170
     0
171
     2
172
     1
173
     0
174
     0
175
     0
176
   256
177
   256
178
     4
  0
DIMSTYLE
  2
AM_JIS$SH
 70
     0
  3

  4
"
  5

  6

  7

 40
1.0
 41
2.5
 42
1.0
 43
10.0
 44
1.0
 45
0.0
 46
0.0
 47
0.1
 48
0.1
140
3.5
141
0.0
142
0.0
143
0.0393701
144
1.0
145
0.0
146
0.71
147
1.5
 71
     0
 72
     0
 73
     0
 74
     0
 75
     1
 76
     0
 77
     3
 78
     8
170
     0
171
     2
172
     1
173
     1
174
     0
175
     0
176
   256
177
   256
178
     4
  0
DIMSTYLE
  2
AM_ANSI
 70
     0
  3

  4
mm
  5

  6

  7

 40
1.0
 41
0.1
 42
0.05
 43
0.5
 44
0.1
 45
0.0
 46
0.0
 47
0.1
 48
0.1
140
0.12
141
0.0
142
0.0
143
25.399999999999999
144
1.0
145
0.0
146
0.71
147
0.06
 71
     0
 72
     0
 73
     1
 74
     1
 75
     0
 76
     0
 77
     0
 78
     7
170
     0
171
     2
172
     0
173
     0
174
     0
175
     0
176
   256
177
   256
178
     2
  0
DIMSTYLE
  2
AM_ANSI$3
 70
     0
  3

  4
mm
  5

  6

  7

 40
1.0
 41
0.1
 42
0.05
 43
0.5
 44
0.1
 45
0.0
 46
0.0
 47
0.1
 48
0.1
140
0.12
141
0.0
142
0.0
143
25.399999999999999
144
1.0
145
0.0
146
0.71
147
0.06
 71
     0
 72
     0
 73
     1
 74
     1
 75
     0
 76
     0
 77
     0
 78
     7
170
     0
171
     2
172
     0
173
     0
174
     0
175
     0
176
   256
177
   256
178
     2
  0
DIMSTYLE
  2
AM_ANSI$4
 70
     0
  3

  4
mm
  5

  6

  7

 40
1.0
 41
0.1
 42
0.05
 43
0.5
 44
0.1
 45
0.0
 46
0.0
 47
0.1
 48
0.1
140
0.12
141
0.0
142
0.0
143
25.399999999999999
144
1.0
145
0.0
146
0.71
147
0.06
 71
     0
 72
     0
 73
     1
 74
     1
 75
     0
 76
     0
 77
     0
 78
     7
170
     0
171
     2
172
     0
173
     0
174
     0
175
     0
176
   256
177
   256
178
     2
  0
DIMSTYLE
  2
AM_ANSI$7
 70
     0
  3

  4
mm
  5

  6

  7

 40
1.0
 41
0.1
 42
0.05
 43
0.5
 44
0.1
 45
0.0
 46
0.0
 47
0.1
 48
0.1
140
0.24
141
0.0
142
0.0
143
25.399999999999999
144
1.0
145
0.0
146
0.71
147
0.06
 71
     0
 72
     0
 73
     1
 74
     1
 75
     0
 76
     0
 77
     0
 78
     7
170
     0
171
     2
172
     0
173
     0
174
     0
175
     0
176
   256
177
   256
178
     2
  0
DIMSTYLE
  2
AM_ANSI$SF
 70
     0
  3

  4
mm
  5

  6

  7

 40
1.0
 41
0.1
 42
0.05
 43
0.5
 44
0.1
 45
0.0
 46
0.0
 47
0.1
 48
0.1
140
0.12
141
0.0
142
0.0
143
25.399999999999999
144
1.0
145
0.0
146
0.71
147
0.06
 71
     0
 72
     0
 73
     1
 74
     1
 75
     1
 76
     1
 77
     0
 78
     7
170
     0
171
     2
172
     0
173
     0
174
     0
175
     0
176
   256
177
   256
178
     2
  0
DIMSTYLE
  2
AM_ANSI$SH
 70
     0
  3

  4
mm
  5

  6

  7

 40
1.0
 41
0.1
 42
0.05
 43
0.5
 44
0.1
 45
0.0
 46
0.0
 47
0.1
 48
0.1
140
0.12
141
0.0
142
0.0
143
25.399999999999999
144
1.0
145
0.0
146
0.71
147
0.06
 71
     0
 72
     0
 73
     1
 74
     1
 75
     1
 76
     1
 77
     0
 78
     7
170
     0
171
     2
172
     0
173
     1
174
     0
175
     0
176
   256
177
   256
178
     2
  0
ENDTAB
  0
ENDSEC
  0
SECTION
  2
BLOCKS
  0
BLOCK
  8
0
  2
$MODEL_SPACE
 70
     0
 10
0.0
 20
0.0
 30
0.0
  3
$MODEL_SPACE
  1

  0
ENDBLK
  5
3264
  8
0
  0
BLOCK
 67
     1
  8
0
  2
$PAPER_SPACE
 70
     0
 10
0.0
 20
0.0
 30
0.0
  3
$PAPER_SPACE
  1

  0
ENDBLK
  5
3260
 67
     1
  8
0
  0
BLOCK
  8
0
  2
GENAXEH
 70
     0
 10
0.0
 20
0.0
 30
0.0
  3
GENAXEH
  1

  0
LINE
  5
2FF0
  8
0
 10
-1.0
 20
0.0
 30
0.0
 11
1.0
 21
0.0
 31
0.0
  0
ENDBLK
  5
2FF1
  8
0
  0
BLOCK
  8
0
  2
_OPEN30
 70
     0
 10
0.0
 20
0.0
 30
0.0
  3
_OPEN30
  1

  0
LINE
  5
2FF4
  8
0
 62
     0
 10
-1.0
 20
0.26794919
 30
0.0
 11
0.0
 21
0.0
 31
0.0
  0
LINE
  5
2FF5
  8
0
 62
     0
 10
0.0
 20
0.0
 30
0.0
 11
-1.0
 21
-0.26794919
 31
0.0
  0
LINE
  5
2FF6
  8
0
 62
     0
 10
0.0
 20
0.0
 30
0.0
 11
-1.0
 21
0.0
 31
0.0
  0
ENDBLK
  5
2FF7
  8
0
  0
BLOCK
  8
0
  2
_NONE
 70
     0
 10
0.0
 20
0.0
 30
0.0
  3
_NONE
  1

  0
ENDBLK
  5
2FFA
  8
0
  0
BLOCK
  8
0
  2
*U5
 70
     1
 10
0.0
 20
0.0
 30
0.0
  3
*U5
  1

  0
TEXT
  5
2FFD
  8
AM_0
 62
     4
 10
320.03840043128019
 20
327.32441066666701
 30
0.0
 40
12.5
  1
\U+2205
 50
90.0
 41
0.8299999999999999
  0
TEXT
  5
2FFE
  8
AM_0
 62
     4
 10
320.03840043128019
 20
337.69941066666689
 30
0.0
 40
12.5
  1
160
 50
90.0
 41
0.8299999999999999
  0
ENDBLK
  5
2FFF
  8
0
  0
BLOCK
  8
0
  2
*U6
 70
     1
 10
0.0
 20
0.0
 30
0.0
  3
*U6
  1

  0
TEXT
  5
3002
  8
AM_0
 62
     4
 10
349.18353881006198
 20
320.40774400000032
 30
0.0
 40
12.5
  1
\U+2205
 50
90.0
 41
0.8299999999999999
  0
TEXT
  5
3003
  8
AM_0
 62
     4
 10
349.18353881006198
 20
330.78274400000032
 30
0.0
 40
12.5
  1
110
 50
90.0
 41
0.8299999999999999
  0
TEXT
  5
3004
  8
AM_0
 62
     4
 10
349.18353881006198
 20
353.26191066666678
 30
0.0
 40
10.0
  1
G7
 50
90.0
 41
0.8299999999999999
  0
ENDBLK
  5
3005
  8
0
  0
BLOCK
  8
0
  2
*U7
 70
     1
 10
0.0
 20
0.0
 30
0.0
  3
*U7
  1

  0
TEXT
  5
3008
  8
AM_0
 62
     4
 10
808.56919816668619
 20
315.61153257262629
 30
0.0
 40
12.5
  1
\U+2205
 50
90.0
 41
0.8299999999999999
  0
TEXT
  5
3009
  8
AM_0
 62
     4
 10
808.56919816668619
 20
325.9865325726264
 30
0.0
 40
12.5
  1
280
 50
90.0
 41
0.8299999999999999
  0
TEXT
  5
300A
  8
AM_0
 62
     4
 10
808.56919816668619
 20
355.38236590595972
 30
0.0
 40
10.0
  1
h7
 50
90.0
 41
0.8299999999999999
  0
ENDBLK
  5
300B
  8
0
  0
BLOCK
  8
0
  2
*U8
 70
     1
 10
0.0
 20
0.0
 30
0.0
  3
*U8
  1

  0
TEXT
  5
300E
  8
AM_0
 62
     4
 10
1065.4814472484491
 20
658.04265445443355
 30
0.0
 40
12.5
  1
o
 41
0.8299999999999999
  0
TEXT
  5
300F
  8
AM_0
 62
     4
 10
1077.8326377246401
 20
658.04265445443355
 30
0.0
 40
12.5
  1
 330
 41
0.8299999999999999
  0
ENDBLK
  5
3010
  8
0
  0
BLOCK
  8
0
  2
*U9
 70
     1
 10
0.0
 20
0.0
 30
0.0
  3
*U9
  1

  0
TEXT
  5
3013
  8
AM_0
 62
     4
 10
215.24317257752821
 20
336.35086516161982
 30
0.0
 40
12.5
  1
\U+2205
 50
90.0
 41
0.8299999999999999
  0
TEXT
  5
3014
  8
AM_0
 62
     4
 10
215.24317257752821
 20
346.72586516161982
 30
0.0
 40
12.5
  1
110
 50
90.0
 41
0.8299999999999999
  0
TEXT
  5
3015
  8
AM_0
 62
     4
 10
215.24317257752821
 20
369.20503182828651
 30
0.0
 40
10.0
  1
G7
 50
90.0
 41
0.8299999999999999
  0
ENDBLK
  5
3016
  8
0
  0
BLOCK
  8
0
  2
*U10
 70
     1
 10
0.0
 20
0.0
 30
0.0
  3
*U10
  1

  0
TEXT
  5
3019
  8
AM_0
 62
     4
 10
186.0980341987464
 20
343.26753182828662
 30
0.0
 40
12.5
  1
\U+2205
 50
90.0
 41
0.8299999999999999
  0
TEXT
  5
301A
  8
AM_0
 62
     4
 10
186.0980341987464
 20
353.64253182828651
 30
0.0
 40
12.5
  1
160
 50
90.0
 41
0.8299999999999999
  0
ENDBLK
  5
301B
  8
0
  0
BLOCK
  8
0
  2
*U11
 70
     1
 10
0.0
 20
0.0
 30
0.0
  3
*U11
  1

  0
TEXT
  5
301E
  8
AM_0
 62
     4
 10
674.6288319341528
 20
331.55465373424579
 30
0.0
 40
12.5
  1
\U+2205
 50
90.0
 41
0.8299999999999999
  0
TEXT
  5
301F
  8
AM_0
 62
     4
 10
674.6288319341528
 20
341.9296537342459
 30
0.0
 40
12.5
  1
280
 50
90.0
 41
0.8299999999999999
  0
TEXT
  5
3020
  8
AM_0
 62
     4
 10
674.6288319341528
 20
371.32548706757922
 30
0.0
 40
10.0
  1
h7
 50
90.0
 41
0.8299999999999999
  0
ENDBLK
  5
3021
  8
0
  0
BLOCK
  8
0
  2
*U12
 70
     1
 10
0.0
 20
0.0
 30
0.0
  3
*U12
  1

  0
TEXT
  5
3024
  8
AM_0
 62
     4
 10
931.54108101591635
 20
673.98577561605327
 30
0.0
 40
12.5
  1
o
 41
0.8299999999999999
  0
TEXT
  5
3025
  8
AM_0
 62
     4
 10
943.89227149210694
 20
673.98577561605327
 30
0.0
 40
12.5
  1
 330
 41
0.8299999999999999
  0
ENDBLK
  5
3026
  8
0
  0
BLOCK
  8
0
  2
_ACMFILLEDHALF
 70
     0
 10
0.0
 20
0.0
 30
0.0
  3
_ACMFILLEDHALF
  1

  0
TRACE
  5
336A
  8
AM_0
 62
     0
 10
-0.8
 20
0.0
 30
0.0
 11
-1.0
 21
0.166666666
 31
0.0
 12
0.0
 22
0.0
 32
0.0
 13
0.0
 23
0.0
 33
0.0
  0
LINE
  5
336B
  8
AM_0
 62
     0
 10
-1.0
 20
0.0
 30
0.0
 11
-0.8
 21
0.0
 31
0.0
  0
ENDBLK
  5
3369
  8
0
  0
ENDSEC
  0
SECTION
  2
ENTITIES
  0
LINE
  5
3028
  8
AM_0
 10
617.16595329160282
 20
916.85456603580405
 30
0.0
 11
699.16595329160282
 21
916.85456603580405
 31
0.0
  0
LINE
  5
3029
  8
AM_0
 10
617.16595329160282
 20
861.85456603580394
 30
0.0
 11
699.16595329160282
 21
861.85456603580394
 31
0.0
  0
LINE
  5
302A
  8
AM_0
 10
637.16601329160244
 20
881.35450603580409
 30
0.0
 11
699.16595329160282
 21
881.35450603580409
 31
0.0
  0
LINE
  5
302B
  8
AM_0
 10
637.16601329160244
 20
897.35456603580394
 30
0.0
 11
699.16595329160282
 21
897.35456603580394
 31
0.0
  0
LINE
  5
302C
  8
ﾁｭｳｼﾝｾﾝ
 10
240.4527321904323
 20
889.35456603580394
 30
0.0
 11
704.59480329160294
 21
889.35456603580394
 31
0.0
  0
LINE
  5
302D
  8
AM_0
 10
315.16607329160269
 20
932.21314603580424
 30
0.0
 11
377.5596832916026
 21
932.21314603580424
 31
0.0
  0
LINE
  5
302E
  8
AM_0
 10
315.16607329160269
 20
847.03180603580415
 30
0.0
 11
377.3530832916025
 21
847.03180603580415
 31
0.0
  0
LINE
  5
302F
  8
AM_0
 10
300.16607329160257
 20
837.85425603580416
 30
0.0
 11
381.24065329160283
 21
837.85425603580416
 31
0.0
  0
LINE
  5
3030
  8
AM_0
 10
300.16607329160257
 20
940.85456603580405
 30
0.0
 11
381.24047329160283
 21
940.85456603580405
 31
0.0
  0
LINE
  5
3031
  8
AM_0
 10
387.2707432916028
 20
822.312756035804
 30
0.0
 11
300.16607329160257
 21
825.35450603580409
 31
0.0
  0
LINE
  5
3032
  8
AM_0
 10
387.27080329160248
 20
956.3963060358044
 30
0.0
 11
300.16613329160248
 21
953.35456603580405
 31
0.0
  0
LINE
  5
3033
  8
AM_0
 10
387.2707432916028
 20
906.87250603580401
 30
0.0
 11
318.06139329160283
 21
904.45563603580422
 31
0.0
  0
LINE
  5
3034
  8
AM_0
 10
387.27080329160248
 20
871.83655603580371
 30
0.0
 11
318.06139329160283
 21
874.25342603580384
 31
0.0
  0
LINE
  5
3035
  8
AM_0
 10
315.16607329160269
 20
847.03180603580415
 30
0.0
 11
315.16607329160269
 21
932.21314603580424
 31
0.0
  0
LINE
  5
3036
  8
AM_0
 10
300.16607329160257
 20
825.35456603580394
 30
0.0
 11
300.16607329160257
 21
953.35456603580405
 31
0.0
  0
ARC
  5
3037
  8
AM_0
 10
318.16607329160257
 20
877.25159603580425
 30
0.0
 40
3.0
 50
180.00001000000091
 51
268.00000000000261
  0
LINE
  5
3038
  8
AM_0
 10
300.16607329160257
 20
851.29969603580435
 30
0.0
 11
315.16607329160269
 21
851.29969603580435
 31
0.0
  0
ARC
  5
3039
  8
AM_0
 10
318.16607329160257
 20
901.45746603580392
 30
0.0
 40
3.0
 50
91.999998000000545
 51
180.00001000000091
  0
LINE
  5
303A
  8
AM_0
 10
300.16607329160257
 20
928.21381603580414
 30
0.0
 11
315.16607329160269
 21
928.21381603580414
 31
0.0
  0
POLYLINE
  5
303B
  8
AM_0
 66
     1
 10
0.0
 20
0.0
 30
0.0
  0
VERTEX
  5
303C
  8
AM_0
 10
575.06884329160243
 20
975.74281603580425
 30
0.0
 42
0.01720808
  0
VERTEX
  5
303D
  8
AM_0
 10
570.65257329160283
 20
918.36762603580394
 30
0.0
 42
0.0088311605
  0
VERTEX
  5
303E
  8
AM_0
 10
569.9357232916027
 20
889.35456603580394
 30
0.0
 42
0.025919753
  0
VERTEX
  5
303F
  8
AM_0
 10
573.80455329160282
 20
803.39087603580413
 30
0.0
  0
SEQEND
  5
3040
  8
AM_0
  0
ARC
  5
3041
  8
AM_0
 10
446.16601329160272
 20
889.35456603580394
 30
0.0
 40
12.5
 50
203.5781799999973
 51
336.42183000000068
  0
ARC
  5
3042
  8
AM_0
 10
431.16601329160278
 20
876.12580603580409
 30
0.0
 40
5.0
 50
0.0
 51
41.409624000000257
  0
LINE
  5
3043
  8
AM_0
 10
596.16607329160274
 20
1013.703686035804
 30
0.0
 11
596.16607329160274
 21
765.00544603580443
 31
0.0
  0
LINE
  5
3044
  8
AM_0
 10
614.16601329160278
 20
1029.3545660358041
 30
0.0
 11
614.16601329160278
 21
749.35456603580417
 31
0.0
  0
LINE
  5
3045
  8
AM_0
 10
609.16601329160244
 20
1054.3545660358041
 30
0.0
 11
609.16601329160244
 21
724.35450603580409
 31
0.0
  0
LINE
  5
3046
  8
AM_0
 10
587.16601329160244
 20
1048.757826035803
 30
0.0
 11
587.16601329160244
 21
729.95130603580412
 31
0.0
  0
LINE
  5
3047
  8
AM_0
 10
617.16595329160282
 20
919.35456603580383
 30
0.0
 11
617.16595329160282
 21
859.35456603580417
 31
0.0
  0
LINE
  5
3048
  8
AM_0
 10
390.16607329160257
 20
819.10077603580442
 30
0.0
 11
390.16607329160257
 21
959.60828603580376
 31
0.0
  0
LINE
  5
3049
  8
AM_0
 10
464.16601329160278
 20
884.35456603580417
 30
0.0
 11
464.16601329160278
 21
756.35456603580394
 31
0.0
  0
LINE
  5
304A
  8
AM_0
 10
415.66595329160282
 20
782.89887603580416
 30
0.0
 11
415.66595329160282
 21
995.81025603580395
 31
0.0
  0
LINE
  5
304B
  8
AM_0
 10
400.16601329160272
 20
815.85456603580417
 30
0.0
 11
400.16601329160272
 21
962.85456603580394
 31
0.0
  0
LINE
  5
304C
  8
AM_0
 10
464.16601329160278
 20
756.35456603580394
 30
0.0
 11
580.32275329160279
 21
752.29822603580408
 31
0.0
  0
LINE
  5
304D
  8
AM_0
 10
431.34051329160258
 20
777.52301603580418
 30
0.0
 11
420.49145329160251
 21
777.90186603580412
 31
0.0
  0
ARC
  5
304E
  8
AM_0
 10
420.6659532916027
 20
782.89887603580416
 30
0.0
 40
5.0
 50
180.00001000000091
 51
268.00000000000261
  0
POLYLINE
  5
304F
  8
AM_0
 66
     1
 10
0.0
 20
0.0
 30
0.0
  0
VERTEX
  5
3050
  8
AM_0
 10
390.16607329160257
 20
821.35456603580405
 30
0.0
  0
VERTEX
  5
3051
  8
AM_0
 10
370.42970329160278
 20
872.42455603580402
 30
0.0
 42
-1.0
  0
SEQEND
  5
3052
  8
AM_0
  0
LINE
  5
3053
  8
AM_0
 10
400.16595329160248
 20
815.85450603580375
 30
0.0
 11
410.84051329160258
 21
815.48175603580376
 31
0.0
  0
LINE
  5
3054
  8
AM_0
 10
400.16601329160272
 20
827.77460603580403
 30
0.0
 11
415.66595329160282
 21
827.77460603580403
 31
0.0
  0
ARC
  5
3055
  8
AM_0
 10
393.16607329160257
 20
819.10077603580442
 30
0.0
 40
3.0
 50
180.00001000000091
 51
268.00000000000261
  0
ARC
  5
3056
  8
AM_0
 10
387.16607329160257
 20
819.31458603580415
 30
0.0
 40
3.0
 50
0.0
 51
88.000000000002785
  0
LINE
  5
3057
  8
AM_0
 10
400.16601329160272
 20
815.85450603580375
 30
0.0
 11
393.06139329160283
 21
816.10260603580411
 31
0.0
  0
LINE
  5
3058
  8
AM_0
 10
400.16607329160252
 20
827.77588603580409
 30
0.0
 11
390.16607329160257
 21
827.77588603580409
 31
0.0
  0
ARC
  5
3059
  8
AM_0
 10
410.6659532916027
 20
810.48481603580422
 30
0.0
 40
5.0
 50
0.0
 51
88.000000000002785
  0
LINE
  5
305A
  8
AM_0
 10
400.16601329160272
 20
849.87983603580415
 30
0.0
 11
415.66595329160282
 21
849.87983603580415
 31
0.0
  0
LINE
  5
305B
  8
AM_0
 10
400.16607329160252
 20
849.87989603580399
 30
0.0
 11
390.16607329160257
 21
849.87989603580399
 31
0.0
  0
ARC
  5
305C
  8
AM_0
 10
387.16607329160257
 20
868.83844603580417
 30
0.0
 40
3.0
 50
0.0
 51
88.000000000002785
  0
LINE
  5
305D
  8
AM_0
 10
436.16601329160278
 20
762.16077603580413
 30
0.0
 11
436.16601329160278
 21
876.12580603580409
 31
0.0
  0
LINE
  5
305E
  8
AM_0
 10
464.16601329160278
 20
756.35456603580394
 30
0.0
 11
440.9915132916027
 21
757.16382603580382
 31
0.0
  0
ARC
  5
305F
  8
AM_0
 10
441.16601329160272
 20
762.16077603580413
 30
0.0
 40
5.0
 50
180.00001000000091
 51
268.00000000000261
  0
ARC
  5
3060
  8
AM_0
 10
431.16601329160278
 20
772.52607603580384
 30
0.0
 40
5.0
 50
0.0
 51
88.000000000002785
  0
LINE
  5
3061
  8
AM_0
 10
591.99157329160266
 20
724.95423603580412
 30
0.0
 11
609.16607329160274
 21
724.35450603580409
 31
0.0
  0
ARC
  5
3062
  8
AM_0
 10
592.16601329160244
 20
729.95130603580412
 30
0.0
 40
5.0
 50
179.9999899999988
 51
268.00000999999861
  0
ARC
  5
3063
  8
AM_0
 10
588.16601329160244
 20
765.00544603580443
 30
0.0
 40
8.0
 50
270.0
 51
0.0
  0
ARC
  5
3064
  8
AM_0
 10
588.16601329160244
 20
823.01789603580426
 30
0.0
 40
8.0
 50
270.0
 51
0.0
  0
LINE
  5
3065
  8
AM_0
 10
549.09515329160274
 20
801.70411603580442
 30
0.0
 11
584.66424329160282
 21
780.17768603580384
 31
0.0
  0
LINE
  5
3066
  8
AM_0
 10
549.10442329160276
 20
803.48102603580412
 30
0.0
 11
572.85924329160287
 21
803.48102603580412
 31
0.0
  0
LINE
  5
3067
  8
AM_0
 10
546.5155632916028
 20
791.99048603580411
 30
0.0
 11
584.75481329160277
 21
768.84803603580417
 31
0.0
  0
ARC
  5
3068
  8
AM_0
 10
549.10442329160276
 20
796.2681360358041
 30
0.0
 40
5.0
 50
179.9999899999988
 51
238.81764999999689
  0
ARC
  5
3069
  8
AM_0
 10
549.10442329160276
 20
798.48102603580412
 30
0.0
 40
5.0
 50
90.00000299999769
 51
180.00001000000091
  0
LINE
  5
306A
  8
AM_0
 10
544.10442329160276
 20
796.2681360358041
 30
0.0
 11
544.10442329160276
 21
798.48102603580412
 31
0.0
  0
POLYLINE
  5
306B
  8
AM_0
 66
     1
 10
0.0
 20
0.0
 30
0.0
  0
VERTEX
  5
306C
  8
AM_0
 10
577.24955329160275
 20
773.39026603580385
 30
0.0
 42
0.0020909347
  0
VERTEX
  5
306D
  8
AM_0
 10
578.2154032916028
 20
766.34975603580415
 30
0.0
 42
0.0020881749
  0
VERTEX
  5
306E
  8
AM_0
 10
579.23998329160281
 20
759.31813603580383
 30
0.0
 42
0.0020849591
  0
VERTEX
  5
306F
  8
AM_0
 10
580.32275329160279
 20
752.29828603580415
 30
0.0
  0
SEQEND
  5
3070
  8
AM_0
  0
ARC
  5
3071
  8
AM_0
 10
582.16601329160278
 20
764.57044603580414
 30
0.0
 40
5.0
 50
0.0
 51
58.817640999998339
  0
LINE
  5
3072
  8
AM_0
 10
583.68383329160281
 20
750.8368060358041
 30
0.0
 11
587.16607329160274
 21
747.35462603580413
 31
0.0
  0
ARC
  5
3073
  8
AM_0
 10
580.14825329160283
 20
747.30133603580384
 30
0.0
 40
5.0
 50
45.000001000003799
 51
88.000000000002785
  0
ARC
  5
3074
  8
AM_0
 10
572.85924329160287
 20
798.48102603580412
 30
0.0
 40
5.0
 50
53.744453000003212
 51
90.00000299999769
  0
LINE
  5
3075
  8
AM_0
 10
575.81615329160275
 20
802.51288603580372
 30
0.0
 11
587.16601329160244
 21
794.18915603580399
 31
0.0
  0
LINE
  5
3076
  8
AM_0
 10
609.16601329160244
 20
749.35456603580417
 30
0.0
 11
614.16601329160278
 21
749.35456603580417
 31
0.0
  0
LINE
  5
3077
  8
AM_0
 10
614.16601329160278
 20
859.35456603580417
 30
0.0
 11
617.16595329160282
 21
859.35456603580417
 31
0.0
  0
LINE
  5
3078
  8
AM_0
 10
464.16601329160278
 20
1022.354566035803
 30
0.0
 11
580.32275329160279
 21
1026.4108360358041
 31
0.0
  0
ARC
  5
3079
  8
AM_0
 10
426.16601329160272
 20
889.35456603580394
 30
0.0
 40
5.0
 50
90.00000299999769
 51
270.0
  0
LINE
  5
307A
  8
AM_0
 10
431.34045329160273
 20
1001.186046035803
 30
0.0
 11
420.49145329160251
 21
1000.8071960358041
 31
0.0
  0
POLYLINE
  5
307B
  8
AM_0
 66
     1
 10
0.0
 20
0.0
 30
0.0
  0
VERTEX
  5
307C
  8
AM_0
 10
370.42965329160279
 20
906.28428603580403
 30
0.0
 42
-0.03710785
  0
VERTEX
  5
307D
  8
AM_0
 10
374.70783329160281
 20
924.13050603580393
 30
0.0
 42
-0.032389942
  0
VERTEX
  5
307E
  8
AM_0
 10
381.4102932916025
 20
941.21902603580395
 30
0.0
 42
-0.029578822
  0
VERTEX
  5
307F
  8
AM_0
 10
390.16607329160257
 20
957.35456603580394
 30
0.0
  0
SEQEND
  5
3080
  8
AM_0
  0
ARC
  5
3081
  8
AM_0
 10
387.16607329160257
 20
909.87067603580408
 30
0.0
 40
3.0
 50
271.9999999999971
 51
0.0
  0
LINE
  5
3082
  8
AM_0
 10
400.16601329160272
 20
928.829236035804
 30
0.0
 11
415.66595329160282
 21
928.829236035804
 31
0.0
  0
LINE
  5
3083
  8
AM_0
 10
400.16601329160272
 20
950.93457603580418
 30
0.0
 11
415.66595329160282
 21
950.93457603580418
 31
0.0
  0
LINE
  5
3084
  8
AM_0
 10
400.16607329160252
 20
928.829236035804
 30
0.0
 11
390.16607329160257
 21
928.829236035804
 31
0.0
  0
LINE
  5
3085
  8
AM_0
 10
400.16607329160252
 20
950.93317603580419
 30
0.0
 11
390.16607329160257
 21
950.93317603580419
 31
0.0
  0
LINE
  5
3086
  8
AM_0
 10
400.16595329160248
 20
962.85450603580409
 30
0.0
 11
410.84045329160273
 21
963.227246035804
 31
0.0
  0
ARC
  5
3087
  8
AM_0
 10
393.16607329160257
 20
959.60828603580376
 30
0.0
 40
3.0
 50
91.999998000000545
 51
180.00001000000091
  0
ARC
  5
3088
  8
AM_0
 10
387.16607329160257
 20
959.39447603580402
 30
0.0
 40
3.0
 50
271.9999999999971
 51
0.0
  0
LINE
  5
3089
  8
AM_0
 10
400.16601329160272
 20
962.85456603580394
 30
0.0
 11
393.06139329160283
 21
962.60645603580429
 31
0.0
  0
ARC
  5
308A
  8
AM_0
 10
410.6659532916027
 20
968.22425603580393
 30
0.0
 40
5.0
 50
271.9999999999971
 51
0.0
  0
ARC
  5
308B
  8
AM_0
 10
420.6659532916027
 20
995.81025603580395
 30
0.0
 40
5.0
 50
91.999998000000545
 51
180.00001000000091
  0
LINE
  5
308C
  8
AM_0
 10
436.16601329160278
 20
902.58332603580391
 30
0.0
 11
436.16601329160278
 21
1016.548286035803
 31
0.0
  0
LINE
  5
308D
  8
AM_0
 10
464.16601329160278
 20
1022.354566035803
 30
0.0
 11
464.16601329160278
 21
894.35456603580417
 31
0.0
  0
ARC
  5
308E
  8
AM_0
 10
466.16601329160272
 20
889.35456603580394
 30
0.0
 40
5.0
 50
270.0
 51
90.00000299999769
  0
LINE
  5
308F
  8
AM_0
 10
426.16601329160272
 20
894.35456603580417
 30
0.0
 11
466.16601329160272
 21
894.35456603580417
 31
0.0
  0
LINE
  5
3090
  8
AM_0
 10
426.16601329160272
 20
884.35456603580417
 30
0.0
 11
466.16601329160272
 21
884.35456603580417
 31
0.0
  0
ARC
  5
3091
  8
AM_0
 10
446.16601329160272
 20
889.35456603580394
 30
0.0
 40
12.5
 50
23.578179999997531
 51
156.42182000000241
  0
ARC
  5
3092
  8
AM_0
 10
446.16601329160272
 20
889.35456603580394
 30
0.0
 40
15.0
 50
138.590370000001
 51
160.52876999999901
  0
ARC
  5
3093
  8
AM_0
 10
446.16601329160272
 20
889.35456603580394
 30
0.0
 40
15.0
 50
199.4712300000005
 51
221.4096299999988
  0
ARC
  5
3094
  8
AM_0
 10
431.16601329160278
 20
902.58332603580391
 30
0.0
 40
5.0
 50
318.59037000000097
 51
0.0
  0
LINE
  5
3095
  8
AM_0
 10
464.1659532916027
 20
1022.354566035803
 30
0.0
 11
440.99145329160251
 21
1021.545296035804
 31
0.0
  0
ARC
  5
3096
  8
AM_0
 10
431.16601329160278
 20
1006.1829960358029
 30
0.0
 40
5.0
 50
271.9999999999971
 51
0.0
  0
ARC
  5
3097
  8
AM_0
 10
441.16601329160272
 20
1016.548286035803
 30
0.0
 40
5.0
 50
91.999998000000545
 51
180.00001000000091
  0
POLYLINE
  5
3098
  8
AM_0
 66
     1
 10
0.0
 20
0.0
 30
0.0
  0
VERTEX
  5
3099
  8
AM_0
 10
582.29113329160282
 20
1026.4795660358041
 30
0.0
  0
VERTEX
  5
309A
  8
AM_0
 10
579.06087329160277
 20
1006.415056035804
 30
0.0
 42
-1.0
  0
SEQEND
  5
309B
  8
AM_0
  0
ARC
  5
309C
  8
AM_0
 10
588.16601329160244
 20
1013.703686035804
 30
0.0
 40
8.0
 50
0.0
 51
90.00000299999769
  0
ARC
  5
309D
  8
AM_0
 10
588.16601329160244
 20
955.69117603580401
 30
0.0
 40
8.0
 50
0.0
 51
90.00000299999769
  0
LINE
  5
309E
  8
AM_0
 10
546.5155632916028
 20
986.71863603580425
 30
0.0
 11
584.75481329160277
 21
1009.861036035804
 31
0.0
  0
LINE
  5
309F
  8
AM_0
 10
549.10442329160276
 20
975.22809603580401
 30
0.0
 11
572.85924329160287
 21
975.22809603580401
 31
0.0
  0
LINE
  5
30A0
  8
AM_0
 10
549.09515329160274
 20
977.00495603580418
 30
0.0
 11
584.66424329160282
 21
998.53144603580404
 31
0.0
  0
ARC
  5
30A1
  8
AM_0
 10
549.10442329160276
 20
980.2280960358039
 30
0.0
 40
5.0
 50
179.9999899999988
 51
270.0
  0
ARC
  5
30A2
  8
AM_0
 10
549.10442329160276
 20
982.44092603580395
 30
0.0
 40
5.0
 50
121.18235999999619
 51
180.00001000000091
  0
LINE
  5
30A3
  8
AM_0
 10
544.10442329160276
 20
982.44092603580395
 30
0.0
 11
544.10442329160276
 21
980.2280960358039
 31
0.0
  0
ARC
  5
30A4
  8
AM_0
 10
572.85924329160287
 20
980.2280960358039
 30
0.0
 40
5.0
 50
270.0
 51
306.25554999999889
  0
LINE
  5
30A5
  8
AM_0
 10
575.81615329160275
 20
976.196176035804
 30
0.0
 11
587.16601329160244
 21
984.51996603580415
 31
0.0
  0
ARC
  5
30A6
  8
AM_0
 10
582.16601329160278
 20
1014.138616035804
 30
0.0
 40
5.0
 50
301.18235999999632
 51
0.0
  0
ARC
  5
30A7
  8
AM_0
 10
637.16601329160244
 20
889.35450603580409
 30
0.0
 40
8.0000113999999982
 50
90.00000299999769
 51
270.0
  0
LINE
  5
30A8
  8
AM_0
 10
637.1659532916027
 20
897.35456603580394
 30
0.0
 11
637.1659532916027
 21
881.35450603580409
 31
0.0
  0
LINE
  5
30A9
  8
AM_0
 10
614.16601329160278
 20
919.35456603580383
 30
0.0
 11
617.16595329160282
 21
919.35456603580383
 31
0.0
  0
LINE
  5
30AA
  8
AM_0
 10
591.99157329160266
 20
1053.754836035803
 30
0.0
 11
609.16607329160274
 21
1054.3545660358041
 31
0.0
  0
LINE
  5
30AB
  8
AM_0
 10
583.68383329160281
 20
1027.8722660358039
 30
0.0
 11
587.16607329160274
 21
1031.354506035804
 31
0.0
  0
ARC
  5
30AC
  8
AM_0
 10
580.14825329160283
 20
1031.4077860358029
 30
0.0
 40
5.0
 50
271.9999999999971
 51
315.0
  0
ARC
  5
30AD
  8
AM_0
 10
592.16601329160244
 20
1048.757826035803
 30
0.0
 40
5.0
 50
91.999998000000545
 51
180.00001000000091
  0
LINE
  5
30AE
  8
AM_0
 10
609.16601329160244
 20
1029.3545660358041
 30
0.0
 11
614.16601329160278
 21
1029.3545660358041
 31
0.0
  0
LINE
  5
30AF
  8
AM_0
 10
699.16595329160282
 20
916.85456603580405
 30
0.0
 11
699.16595329160282
 21
861.85456603580394
 31
0.0
  0
LINE
  5
30B0
  8
AM_0
 10
549.09505329160288
 20
528.55502116161983
 30
0.0
 11
584.66410329160306
 21
550.08142116161991
 31
0.0
  0
LINE
  5
30B1
  8
AM_0
 10
546.51545329160285
 20
538.26862116161965
 30
0.0
 11
584.75475329160315
 21
561.41107116161982
 31
0.0
  0
LINE
  5
30B2
  8
AM_0
 10
436.1659532916027
 20
347.57539116161968
 30
0.0
 11
587.1659532916027
 21
347.57539116161968
 31
0.0
  0
LINE
  5
30B3
  8
AM_0
 10
436.1659532916027
 20
449.37098616161973
 30
0.0
 11
581.76725329160286
 21
449.37098616161973
 31
0.0
  0
LINE
  5
30B4
  8
AM_0
 10
551.27110329160314
 20
247.09777116161959
 30
0.0
 11
601.16595329160282
 21
275.9045811616196
 31
0.0
  0
LINE
  5
30B5
  8
AM_0
 10
509.16595329160248
 20
296.50562616161972
 30
0.0
 11
587.1659532916027
 21
296.50562616161972
 31
0.0
  0
LINE
  5
30B6
  8
AM_0
 10
509.16595329160248
 20
321.15049116161981
 30
0.0
 11
587.1659532916027
 21
321.15049116161981
 31
0.0
  0
LINE
  5
30B7
  8
ﾁｭｳｼﾝｾﾝ
 10
441.36209012265567
 20
440.90458616161982
 30
0.0
 11
704.59480329160294
 21
440.90458616161982
 31
0.0
  0
LINE
  5
30B8
  8
AM_0
 10
586.49255329160303
 20
398.41645616161981
 30
0.0
 11
574.58880329160274
 21
526.77812116161965
 31
0.0
  0
LINE
  5
30B9
  8
AM_0
 10
575.8161032916031
 20
527.74622116161981
 30
0.0
 11
587.1659532916027
 21
536.07002116161971
 31
0.0
  0
LINE
  5
30BA
  8
AM_0
 10
572.756703291603
 20
568.49532116161993
 30
0.0
 11
587.1659532916027
 21
582.90457116161963
 31
0.0
  0
LINE
  5
30BB
  8
AM_0
 10
464.1659532916027
 20
562.90457116161974
 30
0.0
 11
464.1659532916027
 21
247.90458116161969
 31
0.0
  0
LINE
  5
30BC
  8
AM_0
 10
436.1659532916027
 20
560.00587116161955
 30
0.0
 11
436.1659532916027
 21
250.8137461616198
 31
0.0
  0
LINE
  5
30BD
  8
AM_0
 10
415.6659532916027
 20
500.57038616161981
 30
0.0
 11
415.6659532916027
 21
292.01035616161982
 31
0.0
  0
LINE
  5
30BE
  8
AM_0
 10
318.0612532916029
 20
460.67396116161967
 30
0.0
 11
386.30560329160278
 21
463.05711116161967
 31
0.0
  0
LINE
  5
30BF
  8
AM_0
 10
319.99145329160268
 20
441.0731311616197
 30
0.0
 11
367.47295329160278
 21
442.73121116161968
 31
0.0
  0
LINE
  5
30C0
  8
AM_0
 10
325.16600329160281
 20
366.69767116161972
 30
0.0
 11
390.16600329160281
 21
366.69767116161972
 31
0.0
  0
LINE
  5
30C1
  8
AM_0
 10
300.16600329160281
 20
397.69090116161982
 30
0.0
 11
376.05680329160282
 21
397.69090116161982
 31
0.0
  0
LINE
  5
30C2
  8
AM_0
 10
300.16600329160281
 20
411.19459116161983
 30
0.0
 11
379.90360329160251
 21
411.19459116161983
 31
0.0
  0
LINE
  5
30C3
  8
AM_0
 10
325.34045329160273
 20
328.65415616161982
 30
0.0
 11
387.1709532916027
 21
326.49500616161981
 31
0.0
  0
LINE
  5
30C4
  8
AM_0
 10
322.39720329160269
 20
301.09217116161972
 30
0.0
 11
389.51530329160278
 21
322.05064116161981
 31
0.0
  0
LINE
  5
30C5
  8
ﾁｭｳｼﾝｾﾝ
 10
470.64502551057183
 20
359.69456116161967
 30
0.0
 11
240.4527321904323
 21
359.69456116161967
 31
0.0
  0
LINE
  5
30C6
  8
AM_0
 10
300.16600329160281
 20
295.6945911616196
 30
0.0
 11
300.16600329160281
 21
423.69459116161983
 31
0.0
  0
LINE
  5
30C7
  8
AM_0
 10
320.16600329160281
 20
361.69767116161972
 30
0.0
 11
320.16600329160281
 21
300.25574616161981
 31
0.0
  0
LINE
  5
30C8
  8
0
 10
266.1660093712768
 20
437.69461516161982
 30
0.0
 11
266.1660093712768
 21
281.69461516161982
 31
0.0
  0
LINE
  5
30C9
  8
0
 10
256.1660093712768
 20
439.69461516161982
 30
0.0
 11
256.1660093712768
 21
279.69461516161982
 31
0.0
  0
LINE
  5
30CA
  8
0
  6
CONTINUOUS
 62
     7
 10
289.16600329160281
 20
421.69461516161971
 30
0.0
 11
289.16600329160281
 21
297.69461516161982
 31
0.0
  0
LINE
  5
30CB
  8
0
 10
300.16600329160292
 20
295.69461516161988
 30
0.0
 11
291.16600329160281
 21
295.69461516161988
 31
0.0
  0
LINE
  5
30CC
  8
AM_0
 10
300.16600329160292
 20
308.19459916161981
 30
0.0
 11
289.16600329160281
 21
308.19459916161981
 31
0.0
  0
LINE
  5
30CD
  8
AM_0
 10
300.16600329160292
 20
322.5466801616198
 30
0.0
 11
289.16600329160281
 21
322.5466801616198
 31
0.0
  0
ARC
  5
30CE
  8
0
 10
271.16600937127669
 20
296.69461516161982
 30
0.0
 40
5.0
 50
90.0
 51
180.0
1001
GENIUS_GENOBJ-N-FIL_13
1002
{
1000
OWNER
1000
GEN
1002
}
1001
GENIUS_GENODEF_13
1002
{
1000
HIER
1070
     0
1002
}
1002
{
1000
MANEDIT
1070
     0
1002
}
1002
{
1000
NOSEL
1070
     0
1002
}
1002
{
1000
BEHIND
1070
     0
1002
}
1002
{
1000
OTHER
1070
     0
1002
}
1002
{
1000
REACTOR
1002
}
  0
ARC
  5
30CF
  8
0
 10
264.1660093712768
 20
281.69461516161982
 30
0.0
 40
2.0
 50
270.0
 51
0.0
1001
GENIUS_GENODEF_13
1002
{
1000
HIER
1070
     0
1002
}
1002
{
1000
MANEDIT
1070
     0
1002
}
1002
{
1000
NOSEL
1070
     0
1002
}
1002
{
1000
BEHIND
1070
     0
1002
}
1002
{
1000
OTHER
1070
     0
1002
}
1002
{
1000
REACTOR
1002
}
1001
GENIUS_GENOBJ-N-FIL_13
1002
{
1000
OWNER
1000
GEN
1002
}
  0
LINE
  5
30D0
  8
0
 10
256.1660093712768
 20
279.69461516161982
 30
0.0
 11
264.1660093712768
 21
279.69461516161982
 31
0.0
  0
ARC
  5
30D1
  8
0
 10
291.16600329160281
 20
297.69461516161982
 30
0.0
 40
2.0
 50
180.0
 51
270.0
1001
GENIUS_GENODEF_13
1002
{
1000
HIER
1070
     0
1002
}
1002
{
1000
MANEDIT
1070
     0
1002
}
1002
{
1000
NOSEL
1070
     0
1002
}
1002
{
1000
BEHIND
1070
     0
1002
}
1002
{
1000
OTHER
1070
     0
1002
}
1002
{
1000
REACTOR
1002
}
1001
GENIUS_GENOBJ-N-FIL_13
1002
{
1000
OWNER
1000
GEN
1002
}
  0
LINE
  5
30D2
  8
0
 10
287.16600329160292
 20
301.69461516161988
 30
0.0
 11
271.16600937127669
 21
301.69461516161988
 31
0.0
  0
ARC
  5
30D3
  8
0
 10
287.16600329160292
 20
299.69461516161988
 30
0.0
 40
2.0
 50
0.0
 51
90.0
1001
GENIUS_GENODEF_13
1002
{
1000
HIER
1070
     0
1002
}
1002
{
1000
MANEDIT
1070
     0
1002
}
1002
{
1000
NOSEL
1070
     0
1002
}
1002
{
1000
BEHIND
1070
     0
1002
}
1002
{
1000
OTHER
1070
     0
1002
}
1002
{
1000
REACTOR
1002
}
1001
GENIUS_GENOBJ-N-FIL_13
1002
{
1000
OWNER
1000
GEN
1002
}
  0
ARC
  5
30D4
  8
AM_0
 10
316.16600329160281
 20
300.25574616161981
 30
0.0
 40
4.000000049999997
 50
271.99999999999687
 51
0.0
  0
LINE
  5
30D5
  8
AM_0
 10
300.16600329160281
 20
295.6945911616196
 30
0.0
 11
316.30555329160291
 21
296.25822116161982
 31
0.0
  0
LINE
  5
30D6
  8
AM_0
 10
300.16600329160281
 20
308.1945911616196
 30
0.0
 11
320.16600329160281
 21
308.1945911616196
 31
0.0
  0
ARC
  5
30D7
  8
AM_0
 10
323.58960329160283
 20
297.27399616161978
 30
0.0
 40
4.000000049999997
 50
107.3416099999999
 51
158.1166099999991
  0
LINE
  5
30D8
  8
AM_0
 10
300.16600329160281
 20
321.69828116161978
 30
0.0
 11
320.16600329160281
 21
321.69828116161978
 31
0.0
  0
ARC
  5
30D9
  8
AM_0
 10
325.16600329160281
 20
323.65723616161972
 30
0.0
 40
5.0
 50
88.000000000002899
 51
180.00001000000091
  0
LINE
  5
30DA
  8
AM_0
 10
300.16600329160292
 20
396.84253516161982
 30
0.0
 11
289.16600329160281
 21
396.84253516161982
 31
0.0
  0
ARC
  5
30DB
  8
AM_0
 10
325.16600329160281
 20
361.69767116161972
 30
0.0
 40
5.0
 50
90.00000299999769
 51
180.00001000000091
  0
LINE
  5
30DC
  8
AM_0
 10
300.16600329160292
 20
411.19462516161991
 30
0.0
 11
289.16600329160281
 21
411.19462516161991
 31
0.0
  0
LINE
  5
30DD
  8
0
 10
300.16600329160292
 20
423.69461516161988
 30
0.0
 11
291.16600329160281
 21
423.69461516161988
 31
0.0
  0
LINE
  5
30DE
  8
0
 10
287.16600329160292
 20
417.69461516161959
 30
0.0
 11
271.16600937127669
 21
417.69461516161959
 31
0.0
  0
ARC
  5
30DF
  8
0
 10
271.16600937127669
 20
422.69461516161982
 30
0.0
 40
5.0
 50
180.0
 51
270.0
1001
GENIUS_GENOBJ-N-FIL_13
1002
{
1000
OWNER
1000
GEN
1002
}
1001
GENIUS_GENODEF_13
1002
{
1000
HIER
1070
     0
1002
}
1002
{
1000
MANEDIT
1070
     0
1002
}
1002
{
1000
NOSEL
1070
     0
1002
}
1002
{
1000
BEHIND
1070
     0
1002
}
1002
{
1000
OTHER
1070
     0
1002
}
1002
{
1000
REACTOR
1002
}
  0
LINE
  5
30E0
  8
0
 10
256.1660093712768
 20
439.69461516161982
 30
0.0
 11
264.1660093712768
 21
439.69461516161982
 31
0.0
  0
ARC
  5
30E1
  8
0
 10
264.1660093712768
 20
437.69461516161982
 30
0.0
 40
2.0
 50
0.0
 51
90.0
1001
GENIUS_GENODEF_13
1002
{
1000
HIER
1070
     0
1002
}
1002
{
1000
MANEDIT
1070
     0
1002
}
1002
{
1000
NOSEL
1070
     0
1002
}
1002
{
1000
BEHIND
1070
     0
1002
}
1002
{
1000
OTHER
1070
     0
1002
}
1002
{
1000
REACTOR
1002
}
1001
GENIUS_GENOBJ-N-FIL_13
1002
{
1000
OWNER
1000
GEN
1002
}
  0
ARC
  5
30E2
  8
0
 10
287.16600329160292
 20
419.69461516161988
 30
0.0
 40
2.0
 50
270.0
 51
0.0
1001
GENIUS_GENODEF_13
1002
{
1000
HIER
1070
     0
1002
}
1002
{
1000
MANEDIT
1070
     0
1002
}
1002
{
1000
NOSEL
1070
     0
1002
}
1002
{
1000
BEHIND
1070
     0
1002
}
1002
{
1000
OTHER
1070
     0
1002
}
1002
{
1000
REACTOR
1002
}
1001
GENIUS_GENOBJ-N-FIL_13
1002
{
1000
OWNER
1000
GEN
1002
}
  0
ARC
  5
30E3
  8
0
 10
291.16600329160281
 20
421.69461516161971
 30
0.0
 40
2.0
 50
90.0
 51
180.0
1001
GENIUS_GENODEF_13
1002
{
1000
HIER
1070
     0
1002
}
1002
{
1000
MANEDIT
1070
     0
1002
}
1002
{
1000
NOSEL
1070
     0
1002
}
1002
{
1000
BEHIND
1070
     0
1002
}
1002
{
1000
OTHER
1070
     0
1002
}
1002
{
1000
REACTOR
1002
}
1001
GENIUS_GENOBJ-N-FIL_13
1002
{
1000
OWNER
1000
GEN
1002
}
  0
LINE
  5
30E4
  8
AM_0
 10
315.16600329160281
 20
457.67576116161968
 30
0.0
 11
315.16600329160281
 21
414.19459116161971
 31
0.0
  0
ARC
  5
30E5
  8
AM_0
 10
310.16600329160269
 20
429.04682616161961
 30
0.0
 40
5.0
 50
271.99999999999687
 51
0.0
  0
ARC
  5
30E6
  8
AM_0
 10
312.16600329160281
 20
414.19459116161971
 30
0.0
 40
3.0000000500000001
 50
270.0
 51
0.0
  0
LINE
  5
30E7
  8
AM_0
 10
300.16600329160281
 20
423.69462116161969
 30
0.0
 11
310.34055329160282
 21
424.04990616161967
 31
0.0
  0
ARC
  5
30E8
  8
AM_0
 10
320.16600329160281
 20
436.0761511616198
 30
0.0
 40
5.0
 50
91.999998000000545
 51
180.00001000000091
  0
ARC
  5
30E9
  8
AM_0
 10
318.16600329160281
 20
457.67576116161968
 30
0.0
 40
3.0000000500000001
 50
91.999998000000545
 51
180.00001000000091
  0
LINE
  5
30EA
  8
AM_0
 10
390.16600329160281
 20
324.98228116161982
 30
0.0
 11
390.16600329160281
 21
466.65095116161962
 31
0.0
  0
LINE
  5
30EB
  8
AM_0
 10
400.16600329160281
 20
321.90458116161972
 30
0.0
 11
400.16600329160281
 21
469.90458616161959
 31
0.0
  0
LINE
  5
30EC
  8
AM_0
 10
464.165903291603
 20
247.90459616161991
 30
0.0
 11
546.00930329160246
 21
245.76145116161959
 31
0.0
  0
ARC
  5
30ED
  8
AM_0
 10
431.1659532916027
 20
260.42791116161982
 30
0.0
 40
5.0
 50
0.0
 51
37.777243999998532
  0
LINE
  5
30EE
  8
AM_0
 10
438.09615329160272
 20
248.8149361616197
 30
0.0
 11
464.1659532916027
 21
247.90455116161971
 31
0.0
  0
ARC
  5
30EF
  8
AM_0
 10
438.16595329160248
 20
250.8137461616198
 30
0.0
 40
2.0000000500000001
 50
179.9999899999988
 51
268.00000999999861
  0
LINE
  5
30F0
  8
AM_0
 10
390.16600329160281
 20
332.90455116161968
 30
0.0
 11
415.6659532916027
 21
332.90455116161968
 31
0.0
  0
LINE
  5
30F1
  8
AM_0
 10
400.16595329160248
 20
322.40455116161968
 30
0.0
 11
410.84045329160273
 21
322.0318111616196
 31
0.0
  0
LINE
  5
30F2
  8
AM_0
 10
390.84715329160281
 20
322.22999116161981
 30
0.0
 11
400.16595329160248
 21
321.90455116161962
 31
0.0
  0
ARC
  5
30F3
  8
AM_0
 10
394.16595329160282
 20
326.11652616161967
 30
0.0
 40
4.000000049999997
 50
206.8969399999992
 51
268.0000000000029
  0
ARC
  5
30F4
  8
AM_0
 10
387.03135329160278
 20
322.49744616161968
 30
0.0
 40
4.000000049999997
 50
26.896937000000651
 51
88.000000000002899
  0
ARC
  5
30F5
  8
AM_0
 10
390.70760329160282
 20
318.23243116161979
 30
0.0
 40
4.000000049999997
 50
88.000000000002899
 51
107.3416099999999
  0
LINE
  5
30F6
  8
AM_0
 10
435.11790329160277
 20
263.49090116161972
 30
0.0
 11
417.76195329160271
 21
285.8844411616198
 31
0.0
  0
ARC
  5
30F7
  8
AM_0
 10
425.66595329160248
 20
292.01035616161982
 30
0.0
 40
10.0
 50
179.9999899999988
 51
217.7772300000029
  0
ARC
  5
30F8
  8
AM_0
 10
410.6659532916027
 20
317.0348611616198
 30
0.0
 40
5.0
 50
0.0
 51
88.000000000002899
  0
ARC
  5
30F9
  8
AM_0
 10
546.27110329160314
 20
255.75802116161981
 30
0.0
 40
10.0
 50
268.4999999999971
 51
300.00000000000051
  0
ARC
  5
30FA
  8
AM_0
 10
509.16595329160248
 20
301.50562616161972
 30
0.0
 40
5.0
 50
179.9999899999988
 51
270.0
  0
LINE
  5
30FB
  8
AM_0
 10
504.16595329160248
 20
316.15049116161981
 30
0.0
 11
504.16595329160248
 21
301.50562616161972
 31
0.0
  0
ARC
  5
30FC
  8
AM_0
 10
509.16595329160248
 20
316.15049116161981
 30
0.0
 40
5.0
 50
90.00000299999769
 51
180.00001000000091
  0
ARC
  5
30FD
  8
AM_0
 10
379.90360329160251
 20
407.19456116161967
 30
0.0
 40
4.000000049999997
 50
315.0
 51
90.00000299999769
  0
LINE
  5
30FE
  8
AM_0
 10
390.16600329160281
 20
357.08448616161979
 30
0.0
 11
415.6659532916027
 21
357.08448616161979
 31
0.0
  0
LINE
  5
30FF
  8
AM_0
 10
376.05675329160277
 20
397.69083616161993
 30
0.0
 11
390.1659532916027
 21
370.50871116161971
 31
0.0
  0
LINE
  5
3100
  8
AM_0
 10
376.05680329160282
 20
397.69083616161993
 30
0.0
 11
382.73210329160281
 21
404.36613116161971
 31
0.0
  0
LINE
  5
3101
  8
AM_0
 10
390.16600329160281
 20
458.90458616161987
 30
0.0
 11
415.6659532916027
 21
458.90458616161987
 31
0.0
  0
LINE
  5
3102
  8
AM_0
 10
390.16600329160281
 20
434.7246811616198
 30
0.0
 11
415.6659532916027
 21
434.7246811616198
 31
0.0
  0
LINE
  5
3103
  8
AM_0
 10
400.16600329160281
 20
469.40461616161969
 30
0.0
 11
410.84050329160289
 21
469.77735616161982
 31
0.0
  0
LINE
  5
3104
  8
AM_0
 10
369.04755329160281
 20
442.78614616161968
 30
0.0
 11
369.04755329160281
 21
411.19459116161983
 31
0.0
  0
LINE
  5
3105
  8
AM_0
 10
370.16170329160258
 20
443.90031116161981
 30
0.0
 11
388.99440329160279
 21
462.73301616161967
 31
0.0
  0
ARC
  5
3106
  8
AM_0
 10
367.333253291603
 20
446.72877116161982
 30
0.0
 40
4.000000049999997
 50
271.99999999999687
 51
315.0
  0
LINE
  5
3107
  8
AM_0
 10
393.9089532916027
 20
469.68607616161989
 30
0.0
 11
400.16600329160281
 21
469.90458616161959
 31
0.0
  0
ARC
  5
3108
  8
AM_0
 10
394.04845329160281
 20
465.6885211616198
 30
0.0
 40
4.000000049999997
 50
91.999998000000545
 51
170.16761999999991
  0
ARC
  5
3109
  8
AM_0
 10
386.1659532916027
 20
467.0546411616196
 30
0.0
 40
4.000000049999997
 50
271.99999999999687
 51
350.16760999999991
  0
ARC
  5
310A
  8
AM_0
 10
386.1659532916027
 20
465.56141616161972
 30
0.0
 40
4.000000049999997
 50
315.0
 51
0.0
  0
ARC
  5
310B
  8
AM_0
 10
410.6659532916027
 20
474.77430616161968
 30
0.0
 40
5.0
 50
271.99999999999687
 51
0.0
  0
LINE
  5
310C
  8
AM_0
 10
464.1659532916027
 20
562.90457116161974
 30
0.0
 11
565.94740329160311
 21
565.56977116161966
 31
0.0
  0
ARC
  5
310D
  8
AM_0
 10
446.16595329160248
 20
588.90457116161986
 30
0.0
 40
25.000000499999999
 50
306.46672000000012
 51
233.53329000000139
  0
LINE
  5
310E
  8
AM_0
 10
431.1659532916027
 20
560.90462116161984
 30
0.0
 11
431.1659532916027
 21
530.83727116161981
 31
0.0
  0
LINE
  5
310F
  8
AM_0
 10
417.06305329160273
 20
505.66844116161968
 30
0.0
 11
430.46740329160241
 21
528.28827116161983
 31
0.0
  0
ARC
  5
3110
  8
AM_0
 10
425.66595329160248
 20
500.57038616161981
 30
0.0
 40
10.0
 50
149.3493299999983
 51
180.00001000000091
  0
LINE
  5
3111
  8
AM_0
 10
430.46740329160241
 20
528.28827116161983
 30
0.0
 11
435.46740329160241
 21
536.72577116161983
 31
0.0
  0
ARC
  5
3112
  8
AM_0
 10
426.16595329160242
 20
530.83727116161981
 30
0.0
 40
5.0
 50
329.3493299999983
 51
0.0
  0
ARC
  5
3113
  8
AM_0
 10
431.1659532916027
 20
539.2747711616197
 30
0.0
 40
5.0
 50
329.3493299999983
 51
0.0
  0
CIRCLE
  5
3114
  8
AM_0
 10
446.16595329160248
 20
588.90457116161986
 30
0.0
 40
15.0
  0
LINE
  5
3115
  8
AM_0
 10
436.37190329160319
 20
571.90457116161963
 30
0.0
 11
455.95995329160291
 21
571.90457116161963
 31
0.0
  0
LINE
  5
3116
  8
AM_0
 10
438.09620329160288
 20
562.00472116161984
 30
0.0
 11
463.86600329160302
 21
562.90462116161984
 31
0.0
  0
LINE
  5
3117
  8
AM_0
 10
433.1659532916027
 20
562.90457116161974
 30
0.0
 11
464.1659532916027
 21
562.90457116161974
 31
0.0
  0
LINE
  5
3118
  8
AM_0
 10
436.68785329160272
 20
572.02557116161984
 30
0.0
 11
446.16595329160248
 21
573.90462116161984
 31
0.0
  0
ARC
  5
3119
  8
AM_0
 10
427.74090329160271
 20
563.97432116161963
 30
0.0
 40
6.0
 50
349.72994999999878
 51
53.533291000002919
  0
LINE
  5
311A
  8
AM_0
 10
433.66595329160248
 20
562.90462116161984
 30
0.0
 11
435.91645329160281
 21
571.30352116161976
 31
0.0
  0
ARC
  5
311B
  8
AM_0
 10
438.16595329160248
 20
560.00587116161955
 30
0.0
 40
2.0000000500000001
 50
91.999998000000545
 51
180.00001000000091
  0
ARC
  5
311C
  8
AM_0
 10
433.1659532916027
 20
560.90462116161984
 30
0.0
 40
2.0000000500000001
 50
90.00000299999769
 51
180.00001000000091
  0
ARC
  5
311D
  8
AM_0
 10
436.88240329160288
 20
571.04467116161982
 30
0.0
 40
1.0
 50
101.213289999998
 51
164.99999000000179
  0
ARC
  5
311E
  8
AM_0
 10
464.59095329160289
 20
563.97432116161963
 30
0.0
 40
6.0
 50
126.46669999999671
 51
190.27005999999909
  0
LINE
  5
311F
  8
AM_0
 10
458.66595329160248
 20
562.90462116161984
 30
0.0
 11
456.4154532916026
 21
571.30352116161976
 31
0.0
  0
LINE
  5
3120
  8
AM_0
 10
446.16595329160248
 20
573.90457116161986
 30
0.0
 11
455.6440032916027
 21
572.02557116161984
 31
0.0
  0
ARC
  5
3121
  8
AM_0
 10
455.44960329160313
 20
571.04467116161982
 30
0.0
 40
1.0
 50
15.000000000000741
 51
78.786710000001847
  0
LINE
  5
3122
  8
AM_0
 10
549.10435329160282
 20
526.77812116161965
 30
0.0
 11
572.85920329160285
 21
526.77812116161965
 31
0.0
  0
LINE
  5
3123
  8
AM_0
 10
544.10435329160282
 20
533.99097116161965
 30
0.0
 11
544.10435329160282
 21
531.77807116161966
 31
0.0
  0
ARC
  5
3124
  8
AM_0
 10
549.10435329160282
 20
531.77807116161966
 30
0.0
 40
5.0
 50
179.9999899999988
 51
270.0
  0
ARC
  5
3125
  8
AM_0
 10
549.10435329160282
 20
533.99097116161965
 30
0.0
 40
5.0
 50
121.182359999998
 51
180.00001000000091
  0
ARC
  5
3126
  8
AM_0
 10
572.85920329160285
 20
531.77807116161966
 30
0.0
 40
5.0
 50
270.0
 51
306.25555000000082
  0
ARC
  5
3127
  8
AM_0
 10
565.68560329160289
 20
575.56637116161983
 30
0.0
 40
10.0
 50
271.50000000000261
 51
315.0
  0
LINE
  5
3128
  8
AM_0
 10
571.96380329160252
 20
555.08392116161986
 30
0.0
 11
570.89295329160245
 21
566.63152116161984
 31
0.0
  0
ARC
  5
3129
  8
AM_0
 10
1009.884921058009
 20
440.90458616161982
 30
0.0
 40
75.0
 50
0.0
 51
37.096792999999472
  0
CIRCLE
  5
312A
  8
AM_0
 10
1009.884921058009
 20
440.90458616161982
 30
0.0
 40
140.0
  0
ARC
  5
312B
  8
AM_0
 10
1009.884921058009
 20
440.90458616161982
 30
0.0
 40
60.0
 50
270.0
 51
90.00000299999769
  0
ARC
  5
312C
  8
AM_0
 10
1009.884921058009
 20
440.90458616161982
 30
0.0
 40
60.0
 50
90.00000299999769
 51
270.0
  0
CIRCLE
  5
312D
  8
AM_0
 10
1009.884921058009
 20
440.90458616161982
 30
0.0
 40
132.0
  0
ARC
  5
312E
  8
AM_0
 10
1009.884921058009
 20
440.90458616161982
 30
0.0
 40
75.0
 50
142.9032099999981
 51
180.00001000000091
  0
LINE
  5
312F
  8
AM_0
 10
1174.8848960580101
 20
385.90458116161972
 30
0.0
 11
1174.8848960580101
 21
495.90458616161982
 31
0.0
  0
LINE
  5
3130
  8
AM_0
 10
844.88490105801009
 20
385.90458116161972
 30
0.0
 11
844.88490105801009
 21
495.90458616161982
 31
0.0
  0
LINE
  5
3131
  8
ﾁｭｳｼﾝｾﾝ
 10
1009.884921058009
 20
233.8794061616197
 30
0.0
 11
1009.884921058009
 21
620.35727116161956
 31
0.0
  0
LINE
  5
3132
  8
AM_0
 10
596.16595329160248
 20
565.25372116161975
 30
0.0
 11
596.16595329160248
 21
316.55546116161969
 31
0.0
  0
LINE
  5
3133
  8
AM_0
 10
614.16595329160282
 20
580.90462116161984
 30
0.0
 11
614.16595329160282
 21
300.90458116161972
 31
0.0
  0
LINE
  5
3134
  8
AM_0
 10
609.16595329160248
 20
605.90462116161984
 30
0.0
 11
609.16595329160248
 21
275.9045811616196
 31
0.0
  0
LINE
  5
3135
  8
AM_0
 10
587.1659532916027
 20
600.30787116161969
 30
0.0
 11
587.1659532916027
 21
406.64121616161981
 31
0.0
  0
LINE
  5
3136
  8
ﾁｭｳｼﾝｾﾝ
 10
833.90320105801027
 20
440.90458616161982
 30
0.0
 11
1187.311486058009
 21
440.90458616161982
 31
0.0
  0
ARC
  5
3137
  8
AM_0
 10
1071.7319060580101
 20
257.90458116161972
 30
0.0
 40
12.82
 50
270.0
 51
304.99999999999739
  0
LINE
  5
3138
  8
AM_0
 10
1064.8849210580099
 20
275.9045811616196
 30
0.0
 11
1151.4237260580101
 21
280.43989116161981
 31
0.0
  0
ARC
  5
3139
  8
AM_0
 10
869.39280105801015
 20
300.41245616161979
 30
0.0
 40
20.000000499999999
 50
183.00000999999961
 51
267.0000000000008
  0
LINE
  5
313A
  8
AM_0
 10
844.88490105801009
 20
385.90455116161968
 30
0.0
 11
849.42025105801042
 21
299.36576116161979
 31
0.0
  0
LINE
  5
313B
  8
AM_0
 10
587.1659532916027
 20
348.63068616161968
 30
0.0
 11
587.1659532916027
 21
280.90458116161972
 31
0.0
  0
LINE
  5
313C
  8
AM_0
 10
592.16595329160248
 20
275.9045811616196
 30
0.0
 11
609.16595329160248
 21
275.9045811616196
 31
0.0
  0
ARC
  5
313D
  8
AM_0
 10
592.16595329160248
 20
280.90458116161972
 30
0.0
 40
5.0
 50
179.9999899999988
 51
270.0
  0
ARC
  5
313E
  8
AM_0
 10
588.16595329160248
 20
316.55546116161969
 30
0.0
 40
8.0
 50
270.0
 51
0.0
  0
LINE
  5
313F
  8
AM_0
 10
609.16595329160248
 20
300.90458116161972
 30
0.0
 11
614.16595329160282
 21
300.90458116161972
 31
0.0
  0
LINE
  5
3140
  8
AM_0
 10
617.16595329160248
 20
468.40458616161987
 30
0.0
 11
699.16595329160282
 21
468.40458616161987
 31
0.0
  0
LINE
  5
3141
  8
AM_0
 10
617.16595329160248
 20
413.4045811616196
 30
0.0
 11
699.16595329160282
 21
413.4045811616196
 31
0.0
  0
LINE
  5
3142
  8
AM_0
 10
637.1659532916027
 20
472.40458616161982
 30
0.0
 11
699.16595329160282
 21
472.40458616161982
 31
0.0
  0
ARC
  5
3143
  8
AM_0
 10
588.16595329160248
 20
356.56794116161967
 30
0.0
 40
8.0
 50
270.0
 51
0.0
  0
ARC
  5
3144
  8
AM_0
 10
594.45835329160298
 20
399.15522616161968
 30
0.0
 40
8.0
 50
185.2982400000015
 51
270.0
  0
LINE
  5
3145
  8
AM_0
 10
617.16595329160248
 20
470.90458616161982
 30
0.0
 11
617.16595329160248
 21
410.90458116161989
 31
0.0
  0
LINE
  5
3146
  8
AM_0
 10
614.16595329160282
 20
410.90458116161989
 30
0.0
 11
617.16595329160248
 21
410.90458116161989
 31
0.0
  0
LINE
  5
3147
  8
AM_0
 10
614.16595329160282
 20
470.90458616161982
 30
0.0
 11
617.16595329160248
 21
470.90458616161982
 31
0.0
  0
LINE
  5
3148
  8
AM_0
 10
637.1659532916027
 20
472.40458616161982
 30
0.0
 11
637.1659532916027
 21
468.40458616161987
 31
0.0
  0
LINE
  5
3149
  8
AM_0
 10
699.16595329160282
 20
472.40458616161982
 30
0.0
 11
699.16595329160282
 21
413.4045811616196
 31
0.0
  0
LINE
  5
314A
  8
AM_0
 10
954.88492105800992
 20
275.9045811616196
 30
0.0
 11
1064.8848910580091
 21
275.9045811616196
 31
0.0
  0
LINE
  5
314B
  8
AM_0
 10
948.03787605801006
 20
245.0845911616197
 30
0.0
 11
1071.7319060580101
 21
245.0845911616197
 31
0.0
  0
LINE
  5
314C
  8
AM_0
 10
940.68463605801026
 20
247.4030561616197
 30
0.0
 11
917.90976105800985
 21
263.35020116161962
 31
0.0
  0
ARC
  5
314D
  8
AM_0
 10
948.03787605801006
 20
257.90458116161972
 30
0.0
 40
12.82
 50
235.0000000000025
 51
270.0
  0
LINE
  5
314E
  8
AM_0
 10
954.88489105800988
 20
275.9045811616196
 30
0.0
 11
868.34605105801018
 21
280.43989116161981
 31
0.0
  0
ARC
  5
314F
  8
AM_0
 10
976.88489105800954
 20
347.57539116161968
 30
0.0
 40
102.81999499999991
 50
222.01518000000081
 51
235.0000000000025
  0
ARC
  5
3150
  8
ﾁｭｳｼﾝｾﾝ1
 10
1009.884921058009
 20
440.90458616161982
 30
0.0
 40
195.0000049999999
 50
218.16532000000149
 51
232.1288600000004
  0
CIRCLE
  5
3151
  8
AM_0
 10
871.99908605800999
 20
303.0187761616196
 30
0.0
 40
9.5
  0
LINE
  5
3152
  8
ﾁｭｳｼﾝｾﾝ1
 10
885.38001718215958
 20
316.39971414410292
 30
0.0
 11
857.76835105801035
 21
288.78806616161972
 31
0.0
  0
LINE
  5
3153
  8
ﾁｭｳｼﾝｾﾝ
 10
936.50055980737477
 20
359.69456116161967
 30
0.0
 11
1083.269282308645
 21
359.69456116161967
 31
0.0
  0
LINE
  5
3154
  8
AM_0
 10
883.27923605800981
 20
425.9045811616196
 30
0.0
 11
929.88492105800992
 21
425.9045811616196
 31
0.0
  0
ARC
  5
3155
  8
AM_0
 10
883.27923605800981
 20
430.90458116161989
 30
0.0
 40
5.0
 50
184.5161599999995
 51
270.0
  0
ARC
  5
3156
  8
AM_0
 10
929.88492105800992
 20
430.90458116161989
 30
0.0
 40
5.0
 50
270.0
 51
0.0
  0
LINE
  5
3157
  8
AM_0
 10
934.88492105800981
 20
440.90458616161982
 30
0.0
 11
934.88492105800981
 21
430.90458116161989
 31
0.0
  0
ARC
  5
3158
  8
AM_0
 10
1009.884921058009
 20
440.90458616161982
 30
0.0
 40
27.500000499999999
 50
106.9123899999975
 51
73.087596999998908
  0
CIRCLE
  5
3159
  8
AM_0
 10
1009.884921058009
 20
440.90458616161982
 30
0.0
 40
4.500000049999997
  0
CIRCLE
  5
315A
  8
AM_5
 10
1009.884921058009
 20
440.90458616161982
 30
0.0
 40
6.0
  0
LINE
  5
315B
  8
AM_0
 10
1001.884891058009
 20
472.40458616161982
 30
0.0
 11
1017.884891058009
 21
472.40458616161982
 31
0.0
  0
LINE
  5
315C
  8
AM_0
 10
1001.884891058009
 20
462.40458616161982
 30
0.0
 11
1017.884891058009
 21
462.40458616161982
 31
0.0
  0
LINE
  5
315D
  8
AM_0
 10
1001.884891058009
 20
462.40458616161982
 30
0.0
 11
1001.884891058009
 21
472.40458616161982
 31
0.0
  0
LINE
  5
315E
  8
AM_0
 10
1017.884891058009
 20
462.40458616161982
 30
0.0
 11
1017.884891058009
 21
472.40458616161982
 31
0.0
  0
LINE
  5
315F
  8
AM_0
 10
1174.8848960580101
 20
385.90458116161972
 30
0.0
 11
1170.349586058009
 21
299.36573116161981
 31
0.0
  0
LINE
  5
3160
  8
AM_0
 10
1079.085151058008
 20
247.40308616161971
 30
0.0
 11
1101.86002105801
 21
263.35021616161981
 31
0.0
  0
ARC
  5
3161
  8
AM_0
 10
1042.88489105801
 20
347.57539116161968
 30
0.0
 40
102.81999499999991
 50
304.99999999999739
 51
317.9848199999991
  0
ARC
  5
3162
  8
AM_0
 10
1150.37700605801
 20
300.41245616161979
 30
0.0
 40
20.000000499999999
 50
272.99999999999909
 51
357.00000000000108
  0
CIRCLE
  5
3163
  8
AM_0
 10
1147.77072605801
 20
303.0187761616196
 30
0.0
 40
9.5
  0
LINE
  5
3164
  8
AM_0
 10
1136.490591058008
 20
425.9045811616196
 30
0.0
 11
1089.8848910580091
 21
425.9045811616196
 31
0.0
  0
ARC
  5
3165
  8
AM_0
 10
1089.8848910580091
 20
430.90458116161989
 30
0.0
 40
5.0
 50
179.9999899999988
 51
270.0
  0
LINE
  5
3166
  8
AM_0
 10
1084.88489105801
 20
440.90458616161982
 30
0.0
 11
1084.88489105801
 21
430.90458116161989
 31
0.0
  0
ARC
  5
3167
  8
AM_0
 10
1136.490591058008
 20
430.90458116161989
 30
0.0
 40
5.0
 50
270.0
 51
355.48384999999831
  0
LINE
  5
3168
  8
AM_0
 10
1070.158756058009
 20
492.69319116161972
 30
0.0
 11
1103.5925960580089
 21
526.12702116161995
 31
0.0
  0
LINE
  5
3169
  8
AM_0
 10
1061.67349605801
 20
501.17845116161959
 30
0.0
 11
1095.107336058009
 21
534.61232116161966
 31
0.0
  0
LINE
  5
316A
  8
AM_0
 10
1064.8848610580089
 20
605.90457116161986
 30
0.0
 11
1151.4237110580091
 21
601.36927116161985
 31
0.0
  0
ARC
  5
316B
  8
AM_0
 10
869.39280105801015
 20
581.39667116161991
 30
0.0
 40
20.000000499999999
 50
92.999999000001679
 51
176.99999000000011
  0
ARC
  5
316C
  8
AM_0
 10
588.16595329160248
 20
507.24122616161969
 30
0.0
 40
8.0
 50
0.0
 51
90.00000299999769
  0
ARC
  5
316D
  8
AM_0
 10
588.16595329160248
 20
565.25372116161975
 30
0.0
 40
8.0
 50
0.0
 51
90.00000299999769
  0
ARC
  5
316E
  8
AM_0
 10
582.16595329160282
 20
565.68867116161982
 30
0.0
 40
5.0
 50
301.18235999999791
 51
0.0
  0
LINE
  5
316F
  8
AM_0
 10
609.16595329160248
 20
580.90462116161984
 30
0.0
 11
614.16595329160282
 21
580.90462116161984
 31
0.0
  0
LINE
  5
3170
  8
AM_0
 10
591.99150329160329
 20
605.30487116161987
 30
0.0
 11
609.16600329160281
 21
605.90462116161984
 31
0.0
  0
ARC
  5
3171
  8
AM_0
 10
592.16595329160248
 20
600.30787116161969
 30
0.0
 40
5.0
 50
91.999998000000545
 51
180.00001000000091
  0
LINE
  5
3172
  8
AM_0
 10
844.88490105801009
 20
495.90458616161982
 30
0.0
 11
849.42015105800988
 21
582.44337116161967
 31
0.0
  0
ARC
  5
3173
  8
AM_0
 10
1009.884921058009
 20
440.90458616161982
 30
0.0
 40
75.0
 50
52.903206000003003
 51
127.0967900000017
  0
LINE
  5
3174
  8
AM_0
 10
954.88492105800992
 20
605.90462116161984
 30
0.0
 11
1064.8848910580091
 21
605.90462116161984
 31
0.0
  0
ARC
  5
3175
  8
AM_0
 10
912.64163605801059
 20
522.59152116161965
 30
0.0
 40
5.0
 50
45.00000100000149
 51
139.96884999999969
  0
LINE
  5
3176
  8
AM_0
 10
949.61102605801045
 20
492.6931611616198
 30
0.0
 11
916.17718605800985
 21
526.12702116161995
 31
0.0
  0
LINE
  5
3177
  8
AM_0
 10
958.09631605800985
 20
501.17845116161959
 30
0.0
 11
924.66247605800993
 21
534.61232116161966
 31
0.0
  0
ARC
  5
3178
  8
AM_0
 10
946.07547105800995
 20
489.15766616161972
 30
0.0
 40
5.0
 50
322.9032099999983
 51
45.00000100000149
  0
ARC
  5
3179
  8
AM_0
 10
961.63180605800983
 20
504.71400116161988
 30
0.0
 40
5.0
 50
225.0
 51
307.0967900000017
  0
ARC
  5
317A
  8
AM_0
 10
928.19800105800994
 20
538.14782116161985
 30
0.0
 40
5.0
 50
130.03114999999761
 51
225.0
  0
LINE
  5
317B
  8
AM_0
 10
954.88489105800988
 20
605.90457116161986
 30
0.0
 11
868.34605105801018
 21
601.36927116161985
 31
0.0
  0
CIRCLE
  5
317C
  8
AM_0
 10
871.99908605800999
 20
578.79042116161975
 30
0.0
 40
9.5
  0
ARC
  5
317D
  8
AM_0
 10
1073.6943110580089
 20
489.15766616161972
 30
0.0
 40
5.0
 50
135.0
 51
217.09680000000159
  0
ARC
  5
317E
  8
AM_0
 10
1058.1379760580101
 20
504.71400116161988
 30
0.0
 40
5.0
 50
232.90320999999821
 51
315.0
  0
ARC
  5
317F
  8
AM_0
 10
1009.884921058009
 20
608.90457116161986
 30
0.0
 40
5.0
 50
359.999989999999
 51
179.9999899999988
  0
LINE
  5
3180
  8
AM_0
 10
1004.884921058009
 20
608.90457116161986
 30
0.0
 11
1004.884921058009
 21
605.90462116161984
 31
0.0
  0
LINE
  5
3181
  8
AM_0
 10
1014.884921058009
 20
608.90457116161986
 30
0.0
 11
1014.884921058009
 21
605.90462116161984
 31
0.0
  0
LINE
  5
3182
  8
AM_0
 10
1174.8848960580101
 20
495.90458616161982
 30
0.0
 11
1170.349586058009
 21
582.44337116161967
 31
0.0
  0
ARC
  5
3183
  8
AM_0
 10
1107.1281460580101
 20
522.59152116161965
 30
0.0
 40
5.0
 50
40.031148000000073
 51
135.0
  0
ARC
  5
3184
  8
AM_0
 10
1091.571811058009
 20
538.14782116161985
 30
0.0
 40
5.0
 50
315.0
 51
49.96885100000106
  0
ARC
  5
3185
  8
ﾁｭｳｼﾝｾﾝ1
 10
1009.884921058009
 20
440.90458616161982
 30
0.0
 40
195.0000049999999
 50
39.367218999999267
 51
50.896189000000447
  0
ARC
  5
3186
  8
AM_0
 10
1150.37700605801
 20
581.39667116161991
 30
0.0
 40
20.000000499999999
 50
3.0000000999988461
 51
86.99999899999699
  0
CIRCLE
  5
3187
  8
AM_0
 10
1147.77072605801
 20
578.79042116161975
 30
0.0
 40
9.5
  0
LINE
  5
3188
  8
ﾁｭｳｼﾝｾﾝ1
 10
1134.899555941679
 20
565.91927398340795
 30
0.0
 11
1159.61338319931
 21
590.63308032407951
 31
0.0
  0
ARC
  5
3189
  8
0
 10
271.16607937127662
 20
952.35459003580445
 30
0.0
 40
5.0
 50
180.0
 51
270.0
1001
GENIUS_GENOBJ-N-FIL_13
1002
{
1000
OWNER
1000
GEN
1002
}
1001
GENIUS_GENODEF_13
1002
{
1000
HIER
1070
     0
1002
}
1002
{
1000
MANEDIT
1070
     0
1002
}
1002
{
1000
NOSEL
1070
     0
1002
}
1002
{
1000
BEHIND
1070
     0
1002
}
1002
{
1000
OTHER
1070
     0
1002
}
1002
{
1000
REACTOR
1002
}
  0
ARC
  5
318A
  8
0
 10
271.16607937127662
 20
826.35459003580445
 30
0.0
 40
5.0
 50
90.0
 51
180.0
1001
GENIUS_GENOBJ-N-FIL_13
1002
{
1000
OWNER
1000
GEN
1002
}
1001
GENIUS_GENODEF_13
1002
{
1000
HIER
1070
     0
1002
}
1002
{
1000
MANEDIT
1070
     0
1002
}
1002
{
1000
NOSEL
1070
     0
1002
}
1002
{
1000
BEHIND
1070
     0
1002
}
1002
{
1000
OTHER
1070
     0
1002
}
1002
{
1000
REACTOR
1002
}
  0
LINE
  5
318B
  8
0
 10
256.16607937127662
 20
969.35459003580445
 30
0.0
 11
256.16607937127662
 21
809.35459003580445
 31
0.0
  0
LINE
  5
318C
  8
0
 10
266.16607937127662
 20
967.35459003580445
 30
0.0
 11
266.16607937127662
 21
811.35459003580445
 31
0.0
  0
ARC
  5
318D
  8
0
 10
264.16607937127662
 20
811.35459003580445
 30
0.0
 40
2.0
 50
270.0
 51
0.0
1001
GENIUS_GENODEF_13
1002
{
1000
HIER
1070
     0
1002
}
1002
{
1000
MANEDIT
1070
     0
1002
}
1002
{
1000
NOSEL
1070
     0
1002
}
1002
{
1000
BEHIND
1070
     0
1002
}
1002
{
1000
OTHER
1070
     0
1002
}
1002
{
1000
REACTOR
1002
}
1001
GENIUS_GENOBJ-N-FIL_13
1002
{
1000
OWNER
1000
GEN
1002
}
  0
LINE
  5
318E
  8
0
 10
256.16607937127662
 20
809.35459003580445
 30
0.0
 11
264.16607937127662
 21
809.35459003580445
 31
0.0
  0
ARC
  5
318F
  8
0
 10
264.16607937127662
 20
967.35459003580445
 30
0.0
 40
2.0
 50
0.0
 51
90.0
1001
GENIUS_GENODEF_13
1002
{
1000
HIER
1070
     0
1002
}
1002
{
1000
MANEDIT
1070
     0
1002
}
1002
{
1000
NOSEL
1070
     0
1002
}
1002
{
1000
BEHIND
1070
     0
1002
}
1002
{
1000
OTHER
1070
     0
1002
}
1002
{
1000
REACTOR
1002
}
1001
GENIUS_GENOBJ-N-FIL_13
1002
{
1000
OWNER
1000
GEN
1002
}
  0
LINE
  5
3190
  8
0
 10
256.16607937127662
 20
969.35459003580445
 30
0.0
 11
264.16607937127662
 21
969.35459003580445
 31
0.0
  0
LINE
  5
3191
  8
0
  6
CONTINUOUS
 62
     7
 10
289.1660732916028
 20
951.35459003580445
 30
0.0
 11
289.1660732916028
 21
827.35459003580445
 31
0.0
  0
LINE
  5
3192
  8
AM_0
 10
300.1660732916028
 20
837.85457403580449
 30
0.0
 11
289.1660732916028
 21
837.85457403580449
 31
0.0
  0
LINE
  5
3193
  8
0
 10
300.1660732916028
 20
825.35459003580445
 30
0.0
 11
291.1660732916028
 21
825.35459003580445
 31
0.0
  0
ARC
  5
3194
  8
0
 10
287.16607329160303
 20
829.35459003580445
 30
0.0
 40
2.0
 50
0.0
 51
90.0
1001
GENIUS_GENODEF_13
1002
{
1000
HIER
1070
     0
1002
}
1002
{
1000
MANEDIT
1070
     0
1002
}
1002
{
1000
NOSEL
1070
     0
1002
}
1002
{
1000
BEHIND
1070
     0
1002
}
1002
{
1000
OTHER
1070
     0
1002
}
1002
{
1000
REACTOR
1002
}
1001
GENIUS_GENOBJ-N-FIL_13
1002
{
1000
OWNER
1000
GEN
1002
}
  0
ARC
  5
3195
  8
0
 10
291.1660732916028
 20
827.35459003580445
 30
0.0
 40
2.0
 50
180.0
 51
270.0
1001
GENIUS_GENODEF_13
1002
{
1000
HIER
1070
     0
1002
}
1002
{
1000
MANEDIT
1070
     0
1002
}
1002
{
1000
NOSEL
1070
     0
1002
}
1002
{
1000
BEHIND
1070
     0
1002
}
1002
{
1000
OTHER
1070
     0
1002
}
1002
{
1000
REACTOR
1002
}
1001
GENIUS_GENOBJ-N-FIL_13
1002
{
1000
OWNER
1000
GEN
1002
}
  0
LINE
  5
3196
  8
0
 10
287.16607329160303
 20
831.35459003580445
 30
0.0
 11
271.16607937127662
 21
831.35459003580445
 31
0.0
  0
LINE
  5
3197
  8
AM_0
 10
300.1660732916028
 20
852.20665503580437
 30
0.0
 11
289.1660732916028
 21
852.20665503580437
 31
0.0
  0
LINE
  5
3198
  8
AM_0
 10
300.1660732916028
 20
926.50251003580445
 30
0.0
 11
289.1660732916028
 21
926.50251003580445
 31
0.0
  0
LINE
  5
3199
  8
0
 10
300.1660732916028
 20
953.35459003580445
 30
0.0
 11
291.1660732916028
 21
953.35459003580445
 31
0.0
  0
LINE
  5
319A
  8
AM_0
 10
300.1660732916028
 20
940.85460003580431
 30
0.0
 11
289.1660732916028
 21
940.85460003580431
 31
0.0
  0
LINE
  5
319B
  8
0
 10
287.16607329160303
 20
947.35459003580445
 30
0.0
 11
271.16607937127662
 21
947.35459003580445
 31
0.0
  0
ARC
  5
319C
  8
0
 10
291.1660732916028
 20
951.35459003580445
 30
0.0
 40
2.0
 50
90.0
 51
180.0
1001
GENIUS_GENODEF_13
1002
{
1000
HIER
1070
     0
1002
}
1002
{
1000
MANEDIT
1070
     0
1002
}
1002
{
1000
NOSEL
1070
     0
1002
}
1002
{
1000
BEHIND
1070
     0
1002
}
1002
{
1000
OTHER
1070
     0
1002
}
1002
{
1000
REACTOR
1002
}
1001
GENIUS_GENOBJ-N-FIL_13
1002
{
1000
OWNER
1000
GEN
1002
}
  0
ARC
  5
319D
  8
0
 10
287.16607329160303
 20
949.35459003580445
 30
0.0
 40
2.0
 50
270.0
 51
0.0
1001
GENIUS_GENODEF_13
1002
{
1000
HIER
1070
     0
1002
}
1002
{
1000
MANEDIT
1070
     0
1002
}
1002
{
1000
NOSEL
1070
     0
1002
}
1002
{
1000
BEHIND
1070
     0
1002
}
1002
{
1000
OTHER
1070
     0
1002
}
1002
{
1000
REACTOR
1002
}
1001
GENIUS_GENOBJ-N-FIL_13
1002
{
1000
OWNER
1000
GEN
1002
}
  0
ARC
  5
319E
  8
ﾁｭｳｼﾝｾﾝ1
 10
1009.884921058009
 20
440.90458616161982
 30
0.0
 40
195.0000049999999
 50
129.1038109999993
 51
140.63278100000051
  0
LINE
  5
319F
  8
ﾁｭｳｼﾝｾﾝ1
 10
884.87028617434203
 20
565.91927398340806
 30
0.0
 11
860.15645891671068
 21
590.63308032407986
 31
0.0
  0
ARC
  5
31A0
  8
ﾁｭｳｼﾝｾﾝ1
 10
1009.884921058009
 20
440.90458616161982
 30
0.0
 40
195.0000049999999
 50
307.87113999999917
 51
321.83467999999812
  0
LINE
  5
31A1
  8
ﾁｭｳｼﾝｾﾝ1
 10
1134.389824933859
 20
316.39971414410252
 30
0.0
 11
1162.001491058008
 21
288.78806616161933
 31
0.0
  0
TEXT
  5
338F
  8
AM_0
 10
894.13726384851941
 20
936.83994099289305
 30
0.0
 40
15.0
  1
VX04-800AF~VX04-K20AF
  0
ENDSEC
  0
EOF
