  0
SECTION
  2
HEADER
  9
$ACADVER
  1
AC1009
  9
$INSBASE
 10
0.0
 20
0.0
 30
0.0
  9
$EXTMIN
 10
206.39447244232821
 20
139.0184061925317
 30
-0.0000000000112498
  9
$EXTMAX
 10
707.72934904651402
 20
613.38313321004557
 30
0.0000000000002956
  9
$LIMMIN
 10
0.0
 20
0.0
  9
$LIMMAX
 10
853.5
 20
555.00000000000011
  9
$ORTHOMODE
 70
     0
  9
$REGENMODE
 70
     1
  9
$FILLMODE
 70
     1
  9
$QTEXTMODE
 70
     0
  9
$MIRRTEXT
 70
     1
  9
$DRAGMODE
 70
     2
  9
$LTSCALE
 40
3.0
  9
$OSMODE
 70
   551
  9
$ATTMODE
 70
     1
  9
$TEXTSIZE
 40
2.5
  9
$TRACEWID
 40
1.0
  9
$TEXTSTYLE
  7
STANDARD
  9
$CLAYER
  8
AM_0
  9
$CELTYPE
  6
BYLAYER
  9
$CECOLOR
 62
   256
  9
$DIMSCALE
 40
1.0
  9
$DIMASZ
 40
2.5
  9
$DIMEXO
 40
1.0
  9
$DIMDLI
 40
8.0
  9
$DIMRND
 40
0.0
  9
$DIMDLE
 40
0.0
  9
$DIMEXE
 40
0.6
  9
$DIMTP
 40
0.1
  9
$DIMTM
 40
0.1
  9
$DIMTXT
 40
2.5
  9
$DIMCEN
 40
0.0
  9
$DIMTSZ
 40
0.0
  9
$DIMTOL
 70
     0
  9
$DIMLIM
 70
     0
  9
$DIMTIH
 70
     0
  9
$DIMTOH
 70
     0
  9
$DIMSE1
 70
     0
  9
$DIMSE2
 70
     0
  9
$DIMTAD
 70
     1
  9
$DIMZIN
 70
     8
  9
$DIMBLK
  1

  9
$DIMASO
 70
     1
  9
$DIMSHO
 70
     1
  9
$DIMPOST
  1

  9
$DIMAPOST
  1
"
  9
$DIMALT
 70
     0
  9
$DIMALTD
 70
     2
  9
$DIMALTF
 40
0.0393701
  9
$DIMLFAC
 40
1.0
  9
$DIMTOFL
 70
     1
  9
$DIMTVP
 40
0.0
  9
$DIMTIX
 70
     0
  9
$DIMSOXD
 70
     0
  9
$DIMSAH
 70
     0
  9
$DIMBLK1
  1

  9
$DIMBLK2
  1

  9
$DIMSTYLE
  2
AM_ISO
  9
$DIMCLRD
 70
   256
  9
$DIMCLRE
 70
   256
  9
$DIMCLRT
 70
     4
  9
$DIMTFAC
 40
0.71
  9
$DIMGAP
 40
0.8
  9
$LUNITS
 70
     2
  9
$LUPREC
 70
     2
  9
$SKETCHINC
 40
1.0
  9
$FILLETRAD
 40
15.0
  9
$AUNITS
 70
     0
  9
$AUPREC
 70
     0
  9
$MENU
  1
.
  9
$ELEVATION
 40
0.0
  9
$PELEVATION
 40
0.0
  9
$THICKNESS
 40
0.0
  9
$LIMCHECK
 70
     0
  9
$BLIPMODE
 70
     0
  9
$CHAMFERA
 40
6.0
  9
$CHAMFERB
 40
3.0
  9
$SKPOLY
 70
     0
  9
$TDCREATE
 40
2452066.4493487738
  9
$TDUPDATE
 40
2458541.5442991322
  9
$TDINDWG
 40
0.1165203704
  9
$TDUSRTIMER
 40
0.1165201736
  9
$USRTIMER
 70
     1
  9
$ANGBASE
 50
0.0
  9
$ANGDIR
 70
     0
  9
$PDMODE
 70
     0
  9
$PDSIZE
 40
0.0
  9
$PLINEWID
 40
0.0
  9
$COORDS
 70
     1
  9
$SPLFRAME
 70
     0
  9
$SPLINETYPE
 70
     6
  9
$SPLINESEGS
 70
     8
  9
$ATTDIA
 70
     1
  9
$ATTREQ
 70
     1
  9
$HANDLING
 70
     1
  9
$HANDSEED
  5
346D
  9
$SURFTAB1
 70
     6
  9
$SURFTAB2
 70
     6
  9
$SURFTYPE
 70
     6
  9
$SURFU
 70
     6
  9
$SURFV
 70
     6
  9
$UCSNAME
  2

  9
$UCSORG
 10
0.0
 20
0.0
 30
0.0
  9
$UCSXDIR
 10
1.0
 20
0.0
 30
0.0
  9
$UCSYDIR
 10
0.0
 20
1.0
 30
0.0
  9
$PUCSNAME
  2

  9
$PUCSORG
 10
0.0
 20
0.0
 30
0.0
  9
$PUCSXDIR
 10
1.0
 20
0.0
 30
0.0
  9
$PUCSYDIR
 10
0.0
 20
1.0
 30
0.0
  9
$USERI1
 70
     0
  9
$USERI2
 70
     0
  9
$USERI3
 70
     0
  9
$USERI4
 70
     0
  9
$USERI5
 70
     0
  9
$USERR1
 40
0.0
  9
$USERR2
 40
0.0
  9
$USERR3
 40
0.0
  9
$USERR4
 40
0.0
  9
$USERR5
 40
0.0
  9
$WORLDVIEW
 70
     1
  9
$SHADEDGE
 70
     3
  9
$SHADEDIF
 70
    70
  9
$TILEMODE
 70
     1
  9
$MAXACTVP
 70
    64
  9
$PLIMCHECK
 70
     0
  9
$PEXTMIN
 10
1.0000000000000000E+020
 20
1.0000000000000000E+020
 30
1.0000000000000000E+020
  9
$PEXTMAX
 10
-1.0000000000000000E+020
 20
-1.0000000000000000E+020
 30
-1.0000000000000000E+020
  9
$PLIMMIN
 10
0.0
 20
0.0
  9
$PLIMMAX
 10
420.0
 20
297.0
  9
$UNITMODE
 70
     0
  9
$VISRETAIN
 70
     1
  9
$PLINEGEN
 70
     0
  9
$PSLTSCALE
 70
     1
  0
ENDSEC
  0
SECTION
  2
TABLES
  0
TABLE
  2
VPORT
 70
     1
  0
VPORT
  2
*ACTIVE
 70
     0
 10
0.0
 20
0.0
 11
1.0
 21
1.0
 12
457.06191074442103
 22
376.20076970128872
 13
0.0
 23
0.0
 14
7.5
 24
7.5
 15
30.0
 25
30.0
 16
0.0
 26
0.0
 36
1.0
 17
0.0
 27
0.0
 37
0.0
 40
477.62123544097489
 41
1.7571592210767459
 42
50.0
 43
0.0
 44
0.0
 50
0.0
 51
0.0
 71
     0
 72
   100
 73
     1
 74
     3
 75
     0
 76
     0
 77
     0
 78
     0
  0
ENDTAB
  0
TABLE
  2
LTYPE
 70
    26
  0
LTYPE
  2
CONTINUOUS
 70
     0
  3
Solid line
 72
    65
 73
     0
 40
0.0
  0
LTYPE
  2
AM_ISO02W050
 70
     0
  3
__ __ __ __ __ __ __ __ __ __ __ __ __ __ __
 72
    65
 73
     2
 40
7.5
 49
6.0
 49
-1.5
  0
LTYPE
  2
AM_ISO08W050
 70
     0
  3
____ . ____ . ____ . ____ . ____ . ____ . ____
 72
    65
 73
     4
 40
18.0
 49
12.0
 49
-1.5
 49
3.0
 49
-1.5
  0
LTYPE
  2
AM_ISO09W050
 70
     0
  3
_____ . . _____ . . _____ . . ____ .. ____
 72
    65
 73
     6
 40
22.5
 49
12.0
 49
-1.5
 49
3.0
 49
-1.5
 49
3.0
 49
-1.5
  0
LTYPE
  2
AMCONSTR
 70
     0
  3
_______________________
 72
    65
 73
     2
 40
9999.0
 49
9999.0
 49
0.0
  0
LTYPE
  2
AM_ISO08W050X2
 70
     0
  3
__ . __ . __ . __ . __ . __
 72
    65
 73
     4
 40
9.0
 49
6.0
 49
-0.75
 49
1.5
 49
-0.75
  0
LTYPE
  2
AM_ISO02W050X2
 70
     0
  3
 _ _ _ _ _ _ _ _ _ _ _ _
 72
    65
 73
     2
 40
3.75
 49
3.0
 49
-0.75
  0
LTYPE
  2
AMZIGZAG
 70
     0
  3
/\/-/\/-/\/-/\/-/\/-/\/
 72
    65
 73
     2
 40
11.000099999999991
 49
0.0001
 49
-11.0
  0
LTYPE
  2
ACISOWELD
 70
     0
  3
_ _ _ _ _
 72
    65
 73
     2
 40
2.0
 49
2.0
 49
-1.0
  0
LTYPE
  2
ACISOTGB
 70
     0
  3
__ . . __ . .
 72
    65
 73
     6
 40
9.0
 49
4.0
 49
-1.0
 49
1.0
 49
-1.0
 49
1.0
 49
-1.0
  0
LTYPE
  2
ACISOTGL
 70
     0
  3
_ _ _ _ _
 72
    65
 73
     2
 40
3.0
 49
2.0
 49
-1.0
  0
LTYPE
  2
CENTER
 70
     0
  3
__ . __
 72
    65
 73
     4
 40
7.0
 49
4.0
 49
-1.0
 49
1.0
 49
-1.0
  0
LTYPE
  2
PHANTOM2
 70
     0
  3
Phantom (.5x) ___ _ _ ___ _ _ ___ _ _ ___ _ _
 72
    65
 73
     6
 40
31.75
 49
15.875
 49
-3.174999999999998
 49
3.174999999999998
 49
-3.174999999999998
 49
3.174999999999998
 49
-3.174999999999998
  0
LTYPE
  2
ACANSTGBM
 70
     0
  3
__ . . __ . .
 72
    65
 73
     6
 40
9.0
 49
4.0
 49
-1.0
 49
1.0
 49
-1.0
 49
1.0
 49
-1.0
  0
LTYPE
  2
ACANSTGLM
 70
     0
  3
_ _ _ _ _
 72
    65
 73
     2
 40
3.0
 49
2.0
 49
-1.0
  0
LTYPE
  2
GEN7
 70
     0
  3
____ . ____ . ____ . ____ . ____ . ____ . ____
 72
    65
 73
     4
 40
14.25
 49
9.75
 49
-1.5
 49
1.5
 49
-1.5
  0
LTYPE
  2
GEN7A
 70
     0
  3
__ . __ . __
 72
    65
 73
     4
 40
7.375
 49
4.75
 49
-0.875
 49
0.875
 49
-0.875
  0
LTYPE
  2
ACJISTGB
 70
     0
  3
__ . . __ . .
 72
    65
 73
     6
 40
9.0
 49
4.0
 49
-1.0
 49
1.0
 49
-1.0
 49
1.0
 49
-1.0
  0
LTYPE
  2
ACJISTGL
 70
     0
  3
_ _ _ _ _
 72
    65
 73
     2
 40
3.0
 49
2.0
 49
-1.0
  0
LTYPE
  2
HIDDEN
 70
     0
  3
Hidden __ __ __ __ __ __ __ __ __ __ __ __ __ _
 72
    65
 73
     2
 40
0.375
 49
0.25
 49
-0.125
  0
LTYPE
  2
CENTER2
 70
     0
  3
Center (.5x) ___ _ ___ _ ___ _ ___ _ ___ _ ___
 72
    65
 73
     4
 40
1.125
 49
0.75
 49
-0.125
 49
0.125
 49
-0.125
  0
LTYPE
  2
HIDDEN2
 70
     0
  3
Hidden (.5x) _ _ _ _ _ _ _ _ _ _ _ _ _ _ _ _ _
 72
    65
 73
     2
 40
0.1875
 49
0.125
 49
-0.0625
  0
LTYPE
  2
AMZIGZAG2
 70
     0
  3
/\/-/\/-/\/-/\/-/\/-/\/
 72
    65
 73
     2
 40
0.4401
 49
0.0001
 49
-0.4400000000000002
  0
LTYPE
  2
ACANSTGB
 70
     0
  3
__ . . __ . .
 72
    65
 73
     6
 40
0.35433070866
 49
0.15748031496
 49
-0.03937007874
 49
0.03937007874
 49
-0.03937007874
 49
0.03937007874
 49
-0.03937007874
  0
LTYPE
  2
ACANSTGL
 70
     0
  3
_ _ _ _ _
 72
    65
 73
     2
 40
0.11811023622
 49
0.07874015748
 49
-0.03937007874
  0
ENDTAB
  0
TABLE
  2
LAYER
 70
     6
  0
LAYER
  2
0
 70
     0
 62
     7
  6
CONTINUOUS
  0
LAYER
  2
AM_0
 70
     0
 62
     7
  6
CONTINUOUS
  0
LAYER
  2
AM_5
 70
     0
 62
     2
  6
CONTINUOUS
  0
LAYER
  2
DEFPOINTS
 70
     0
 62
     7
  6
CONTINUOUS
  0
LAYER
  2
ﾁｭｳｼﾝｾﾝ
 70
     0
 62
     1
  6
GEN7
  0
LAYER
  2
ﾁｭｳｼﾝｾﾝ1
 70
     0
 62
     1
  6
GEN7A
  0
ENDTAB
  0
TABLE
  2
STYLE
 70
     8
  0
STYLE
  2
STANDARD
 70
     0
 40
0.0
 41
0.8299999999999999
 50
0.0
 71
     0
 42
2.5
  3
txt.shx
  4
bigfont.shx
  0
STYLE
  2

 70
     1
 40
0.0
 41
1.0
 50
0.0
 71
     0
 42
2.5
  3
ltypeshp.shx
  4

  0
STYLE
  2
ACISOTS
 70
     0
 40
1.0
 41
1.0
 50
0.0
 71
     0
 42
2.5
  3
isocp.shx
  4
extfont.shx
  0
STYLE
  2
ACISOGDT
 70
     0
 40
0.0
 41
1.0
 50
0.0
 71
     0
 42
2.5
  3
amgdt.shx
  4

  0
STYLE
  2
ACANSTS
 70
     0
 40
1.0
 41
1.0
 50
0.0
 71
     0
 42
2.5
  3
romans.shx
  4
bigfont.shx
  0
STYLE
  2
ACANSGDT
 70
     0
 40
0.0
 41
1.0
 50
0.0
 71
     0
 42
2.5
  3
amgdt.shx
  4

  0
STYLE
  2
ACJISTS
 70
     0
 40
1.0
 41
1.0
 50
0.0
 71
     0
 42
2.5
  3
isocp.shx
  4
bigfont.shx
  0
STYLE
  2
ACJISGDT
 70
     0
 40
0.0
 41
1.0
 50
0.0
 71
     0
 42
2.5
  3
amgdt.shx
  4

  0
ENDTAB
  0
TABLE
  2
VIEW
 70
     6
  0
VIEW
  2
AM_VIEW1
 70
     0
 40
277.49999999999989
 10
249.64779005524849
 20
416.24999999999989
 41
499.2955801104971
 11
0.0
 21
0.0
 31
1.0
 12
0.0
 22
0.0
 32
0.0
 42
50.0
 43
0.0
 44
0.0
 50
0.0
 71
     0
  0
VIEW
  2
AM_VIEW2
 70
     0
 40
277.49999999999989
 10
603.85220994475117
 20
416.24999999999989
 41
499.2955801104971
 11
0.0
 21
0.0
 31
1.0
 12
0.0
 22
0.0
 32
0.0
 42
50.0
 43
0.0
 44
0.0
 50
0.0
 71
     0
  0
VIEW
  2
AM_VIEW3
 70
     0
 40
277.49999999999989
 10
249.64779005524849
 20
138.74999999999989
 41
499.2955801104971
 11
0.0
 21
0.0
 31
1.0
 12
0.0
 22
0.0
 32
0.0
 42
50.0
 43
0.0
 44
0.0
 50
0.0
 71
     0
  0
VIEW
  2
AM_VIEW4
 70
     0
 40
277.49999999999989
 10
603.85220994475117
 20
138.74999999999989
 41
499.2955801104971
 11
0.0
 21
0.0
 31
1.0
 12
0.0
 22
0.0
 32
0.0
 42
50.0
 43
0.0
 44
0.0
 50
0.0
 71
     0
  0
VIEW
  2
AM_VIEW5
 70
     0
 40
277.5
 10
426.75
 20
277.49999999999989
 41
499.2955801104971
 11
0.0
 21
0.0
 31
1.0
 12
0.0
 22
0.0
 32
0.0
 42
50.0
 43
0.0
 44
0.0
 50
0.0
 71
     0
  0
VIEW
  2
AM_VIEW6
 70
     0
 40
554.99445000000014
 10
426.75
 20
277.49999999999989
 41
998.5811743093924
 11
0.0
 21
0.0
 31
1.0
 12
0.0
 22
0.0
 32
0.0
 42
50.0
 43
0.0
 44
0.0
 50
0.0
 71
     0
  0
ENDTAB
  0
TABLE
  2
UCS
 70
     0
  0
ENDTAB
  0
TABLE
  2
APPID
 70
    94
  0
APPID
  2
ACAD
 70
     0
  0
APPID
  2
MCAD_NO_VIS
 70
     0
  0
APPID
  2
ACAD_TEMP_GRAPHIC
 70
     0
  0
APPID
  2
ACATTRIBSERVICES
 70
     0
  0
APPID
  2
GENIUS_GENREC_14
 70
     0
  0
APPID
  2
GENIUS_GENOBJ-N-REC_13
 70
     0
  0
APPID
  2
GENIUS_GENODEF_13
 70
     0
  0
APPID
  2
GENIUS_GENOLIS_13
 70
     0
  0
APPID
  2
GENIUS_GENOBJ-N-TIT_13
 70
     0
  0
APPID
  2
GENIUS_GENOENT_13
 70
     0
  0
APPID
  2
GENIUS_GENTITLE_13
 70
     0
  0
APPID
  2
GENIUS_GENOREF_13
 70
     0
  0
APPID
  2
GENIUS_GENSCREG_15
 70
     0
  0
APPID
  2
GENIUS_GENOBJ-N-SDF_13
 70
     0
  0
APPID
  2
GENIUS_GENFIL_13
 70
     0
  0
APPID
  2
GENIUS_GENOBJ-N-CHA_13
 70
     0
  0
APPID
  2
GENIUS_GENDTOL_13
 70
     0
  0
APPID
  2
GENIUS_GENOBJ-N-FIL_13
 70
     0
  0
APPID
  2
AD_DRAW
 70
     0
  0
APPID
  2
DESIGNERASSEMBLIES
 70
     0
  0
APPID
  2
ASURF_PCURVE_APPNAME
 70
     0
  0
APPID
  2
GENIUS_GE3SECT_13
 70
     0
  0
APPID
  2
GENIUS_GENCFG_13
 70
     0
  0
APPID
  2
GENIUS_GE3CFG0_13
 70
     0
  0
APPID
  2
GENIUS_GENCFG0_13
 70
     0
  0
APPID
  2
GENIUS_GENCFG1_13
 70
     0
  0
APPID
  2
GENIUS_GENCFG2_13
 70
     0
  0
APPID
  2
GENIUS_GENCFG3_13
 70
     0
  0
APPID
  2
GENIUS_GENCFG4_13
 70
     0
  0
APPID
  2
GENIUS_GEVCFG0_13
 70
     0
  0
APPID
  2
GENIUS_GENHINW_13
 70
     0
  0
APPID
  2
GENIUS_FIRSTVISTXT_14
 70
     0
  0
APPID
  2
GENIUS_GENOBJ-N-LEADER_13
 70
     0
  0
APPID
  2
GEV_VCCNULL_SWITCH_OFF
 70
     0
  0
APPID
  2
GENIUS_GEFCFG0_13
 70
     0
  0
APPID
  2
GENIUS_GENZVEED_13
 70
     0
  0
APPID
  2
GENIUS_GENSCREG_13
 70
     0
  0
APPID
  2
GENIUS_DUMCFG0_13
 70
     0
  0
APPID
  2
GEVID936201362
 70
     0
  0
APPID
  2
GEVDC
 70
     0
  0
APPID
  2
GEVCON
 70
     0
  0
APPID
  2
VCC
 70
     0
  0
APPID
  2
GEVPT
 70
     0
  0
APPID
  2
GEVIT
 70
     0
  0
APPID
  2
GENBH
 70
     0
  0
APPID
  2
GEVMK
 70
     0
  0
APPID
  2
GENIUS_GENBH_13
 70
     0
  0
APPID
  2
GENIUS_GENOBJ-NBEHI-BHF_13
 70
     0
  0
APPID
  2
GENIUS_GENOBJ-NBEHI-BHB_13
 70
     0
  0
APPID
  2
GENIUS_GENOBJ-F-DESC_13
 70
     0
  0
APPID
  2
GENIUS_GEFDESC_14
 70
     0
  0
APPID
  2
GENIUS_GENOBJ-F-PART_13
 70
     0
  0
APPID
  2
GENIUS_GEFSTDP_13
 70
     0
  0
APPID
  2
GENIUS_GEFPARTINS_13
 70
     0
  0
APPID
  2
GENIUS_GENTRA_14
 70
     0
  0
APPID
  2
GENIUS_GENINF13_13
 70
     0
  0
APPID
  2
GENIUS_GENOBJ-N-INFOPT_13
 70
     0
  0
APPID
  2
GENIUS_GENOBJ-N-RSSYM_13
 70
     0
  0
APPID
  2
GENIUS_GENSYMENT_13
 70
     0
  0
APPID
  2
GENIUS_GENSCSYM_13
 70
     0
  0
APPID
  2
GENIUS_GEFINFNAM_13
 70
     0
  0
APPID
  2
GENIUS_GENOBJ-N-CEN_13
 70
     0
  0
APPID
  2
GENIUS_GENOBJ-N-CRS_13
 70
     0
  0
APPID
  2
GENIUS_GENOBJ-N-CRC_13
 70
     0
  0
APPID
  2
GENIUS_GENCRC_14
 70
     0
  0
APPID
  2
GEVID942827039
 70
     0
  0
APPID
  2
GEVID942827040
 70
     0
  0
APPID
  2
GEVID942827041
 70
     0
  0
APPID
  2
GENIUS_GENOBJ-F-SCPASSM_13
 70
     0
  0
APPID
  2
GENIUS_GENDIMSH_14
 70
     0
  0
APPID
  2
GEVID942827042
 70
     0
  0
APPID
  2
GEVID946020473
 70
     0
  0
APPID
  2
GEVID946020474
 70
     0
  0
APPID
  2
GEVID946020475
 70
     0
  0
APPID
  2
GENIUS_GENOBJ-N-HTC_13
 70
     0
  0
APPID
  2
GENIUS_GENHATCH_13
 70
     0
  0
APPID
  2
GEVID948854295
 70
     0
  0
APPID
  2
GEVID939402019
 70
     0
  0
APPID
  2
GEVID952919491
 70
     0
  0
APPID
  2
GEVID952919492
 70
     0
  0
APPID
  2
GENIUS_GEFWELD_13
 70
     0
  0
APPID
  2
GENIUS_GENOBJ-F-WELS_13
 70
     0
  0
APPID
  2
GEVID952919493
 70
     0
  0
APPID
  2
GENIUS_GENOBJ-N-RSBK_13
 70
     0
  0
APPID
  2
GENIUS_GENOBJ-N-LIB_13
 70
     0
  0
APPID
  2
GENIUS_GENSCALE_13
 70
     0
  0
APPID
  2
GEVID986376691
 70
     0
  0
APPID
  2
DCO15
 70
     0
  0
APPID
  2
ACAD_DSTYLE_DIMBREAK
 70
     0
  0
APPID
  2
ACAD_DSTYLE_DIMJAG
 70
     0
  0
APPID
  2
ACAD_NAV_VCDISPLAY
 70
     0
  0
APPID
  2
ACADANNOPO
 70
     0
  0
APPID
  2
ACAD_EXEMPT_FROM_CAD_STANDARDS
 70
     0
  0
APPID
  2
ACAD_MLEADERVER
 70
     0
  0
ENDTAB
  0
TABLE
  2
DIMSTYLE
 70
    21
  0
DIMSTYLE
  2
AM_ISO
 70
     0
  3

  4
"
  5

  6

  7

 40
1.0
 41
2.5
 42
1.0
 43
8.0
 44
0.6
 45
0.0
 46
0.0
 47
0.1
 48
0.1
140
2.5
141
0.0
142
0.0
143
0.0393701
144
1.0
145
0.0
146
0.71
147
0.8
 71
     0
 72
     0
 73
     0
 74
     0
 75
     0
 76
     0
 77
     1
 78
     8
170
     0
171
     2
172
     1
173
     0
174
     0
175
     0
176
   256
177
   256
178
     4
  0
DIMSTYLE
  2
AM_ISO$3
 70
     0
  3

  4
"
  5

  6

  7

 40
1.0
 41
2.5
 42
1.0
 43
8.0
 44
0.6
 45
0.0
 46
0.0
 47
0.1
 48
0.1
140
2.5
141
0.0
142
0.0
143
0.0393701
144
1.0
145
0.0
146
0.71
147
0.8
 71
     0
 72
     0
 73
     0
 74
     1
 75
     0
 76
     0
 77
     1
 78
     8
170
     0
171
     2
172
     0
173
     0
174
     0
175
     0
176
   256
177
   256
178
     4
  0
DIMSTYLE
  2
AM_ISO$4
 70
     0
  3

  4
"
  5

  6

  7

 40
1.0
 41
2.5
 42
1.0
 43
8.0
 44
0.6
 45
0.0
 46
0.0
 47
0.1
 48
0.1
140
2.5
141
0.0
142
0.0
143
0.0393701
144
1.0
145
0.0
146
0.71
147
0.8
 71
     0
 72
     0
 73
     0
 74
     1
 75
     0
 76
     0
 77
     1
 78
     8
170
     0
171
     2
172
     0
173
     0
174
     0
175
     0
176
   256
177
   256
178
     4
  0
DIMSTYLE
  2
AM_ISO$6
 70
     0
  3

  4
"
  5

  6

  7

 40
1.0
 41
2.5
 42
1.0
 43
8.0
 44
0.6
 45
0.0
 46
0.0
 47
0.1
 48
0.1
140
2.5
141
0.0
142
0.0
143
0.0393701
144
1.0
145
0.0
146
0.71
147
0.8
 71
     0
 72
     0
 73
     0
 74
     0
 75
     0
 76
     0
 77
     0
 78
     8
170
     0
171
     2
172
     1
173
     0
174
     0
175
     0
176
   256
177
   256
178
     4
  0
DIMSTYLE
  2
AM_ISO$7
 70
     0
  3

  4
"
  5

  6

  7

 40
1.0
 41
2.5
 42
1.0
 43
8.0
 44
0.6
 45
0.0
 46
0.0
 47
0.1
 48
0.1
140
2.5
141
0.0
142
0.0
143
0.0393701
144
1.0
145
0.0
146
0.71
147
0.8
 71
     0
 72
     0
 73
     0
 74
     0
 75
     0
 76
     0
 77
     1
 78
     8
170
     0
171
     2
172
     1
173
     0
174
     0
175
     0
176
   256
177
   256
178
     4
  0
DIMSTYLE
  2
AM_ISO$SF
 70
     0
  3

  4
"
  5

  6

  7

 40
1.0
 41
2.5
 42
1.0
 43
10.0
 44
1.0
 45
0.0
 46
0.0
 47
0.1
 48
0.1
140
3.5
141
0.0
142
0.0
143
0.0393701
144
1.0
145
0.0
146
0.71
147
1.5
 71
     0
 72
     0
 73
     0
 74
     0
 75
     1
 76
     1
 77
     1
 78
     8
170
     0
171
     2
172
     1
173
     0
174
     0
175
     0
176
   256
177
   256
178
     2
  0
DIMSTYLE
  2
AM_ISO$SH
 70
     0
  3

  4
"
  5

  6

  7

 40
1.0
 41
2.5
 42
1.0
 43
10.0
 44
1.0
 45
0.0
 46
0.0
 47
0.1
 48
0.1
140
3.5
141
0.0
142
0.0
143
0.0393701
144
2.0
145
0.0
146
0.71
147
1.5
 71
     0
 72
     0
 73
     0
 74
     0
 75
     1
 76
     1
 77
     1
 78
     8
170
     0
171
     2
172
     1
173
     1
174
     0
175
     0
176
   256
177
   256
178
     2
  0
DIMSTYLE
  2
STANDARD
 70
     0
  3

  4

  5

  6

  7

 40
1.0
 41
0.18
 42
0.0625
 43
0.38
 44
0.18
 45
0.0
 46
0.0
 47
0.0
 48
0.0
140
0.18
141
0.09
142
0.0
143
25.399999999999999
144
1.0
145
0.0
146
1.0
147
0.09
 71
     0
 72
     0
 73
     1
 74
     1
 75
     0
 76
     0
 77
     0
 78
     0
170
     0
171
     2
172
     0
173
     0
174
     0
175
     0
176
     0
177
     0
178
     0
  0
DIMSTYLE
  2
AM_JIS
 70
     0
  3

  4
"
  5

  6

  7

 40
1.0
 41
2.5
 42
1.0
 43
7.0
 44
1.0
 45
0.0
 46
0.0
 47
0.1
 48
0.1000000001
140
2.5
141
0.0
142
0.0
143
0.0393701
144
1.0
145
0.0
146
0.71
147
1.0
 71
     0
 72
     0
 73
     0
 74
     0
 75
     0
 76
     0
 77
     3
 78
     8
170
     0
171
     2
172
     1
173
     0
174
     0
175
     0
176
   256
177
   256
178
     4
  0
DIMSTYLE
  2
AM_JIS$3
 70
     0
  3

  4
"
  5

  6

  7

 40
1.0
 41
2.5
 42
1.0
 43
7.0
 44
1.0
 45
0.0
 46
0.0
 47
0.1
 48
0.1000000001
140
2.5
141
0.0
142
0.0
143
0.0393701
144
1.0
145
0.0
146
0.71
147
1.0
 71
     0
 72
     0
 73
     0
 74
     1
 75
     0
 76
     0
 77
     3
 78
     8
170
     0
171
     2
172
     0
173
     0
174
     0
175
     0
176
   256
177
   256
178
     4
  0
DIMSTYLE
  2
AM_JIS$4
 70
     0
  3

  4
"
  5

  6

  7

 40
1.0
 41
2.5
 42
1.0
 43
7.0
 44
1.0
 45
0.0
 46
0.0
 47
0.1
 48
0.1000000001
140
2.5
141
0.0
142
0.0
143
0.0393701
144
1.0
145
0.0
146
0.71
147
1.0
 71
     0
 72
     0
 73
     0
 74
     0
 75
     0
 76
     0
 77
     3
 78
     8
170
     0
171
     2
172
     0
173
     0
174
     0
175
     0
176
   256
177
   256
178
     4
  0
DIMSTYLE
  2
AM_JIS$6
 70
     0
  3

  4
"
  5

  6

  7

 40
1.0
 41
2.5
 42
1.0
 43
7.0
 44
1.0
 45
0.0
 46
0.0
 47
0.1
 48
0.1000000001
140
2.5
141
0.0
142
0.0
143
0.0393701
144
1.0
145
0.0
146
0.71
147
1.0
 71
     0
 72
     0
 73
     0
 74
     0
 75
     0
 76
     0
 77
     0
 78
     8
170
     0
171
     2
172
     1
173
     0
174
     0
175
     0
176
   256
177
   256
178
     4
  0
DIMSTYLE
  2
AM_JIS$7
 70
     0
  3

  4
"
  5

  6

  7

 40
1.0
 41
2.5
 42
1.0
 43
7.0
 44
1.0
 45
0.0
 46
0.0
 47
0.1
 48
0.1000000001
140
2.5
141
0.0
142
0.0
143
0.0393701
144
1.0
145
0.0
146
0.71
147
1.0
 71
     0
 72
     0
 73
     0
 74
     0
 75
     0
 76
     0
 77
     3
 78
     8
170
     0
171
     2
172
     1
173
     0
174
     0
175
     0
176
   256
177
   256
178
     4
  0
DIMSTYLE
  2
AM_JIS$SF
 70
     0
  3

  4
"
  5

  6

  7

 40
1.0
 41
2.5
 42
1.0
 43
10.0
 44
1.0
 45
0.0
 46
0.0
 47
0.1
 48
0.1
140
3.5
141
0.0
142
0.0
143
0.0393701
144
1.0
145
0.0
146
0.71
147
1.5
 71
     0
 72
     0
 73
     0
 74
     0
 75
     1
 76
     1
 77
     3
 78
     8
170
     0
171
     2
172
     1
173
     0
174
     0
175
     0
176
   256
177
   256
178
     4
  0
DIMSTYLE
  2
AM_JIS$SH
 70
     0
  3

  4
"
  5

  6

  7

 40
1.0
 41
2.5
 42
1.0
 43
10.0
 44
1.0
 45
0.0
 46
0.0
 47
0.1
 48
0.1
140
3.5
141
0.0
142
0.0
143
0.0393701
144
1.0
145
0.0
146
0.71
147
1.5
 71
     0
 72
     0
 73
     0
 74
     0
 75
     1
 76
     0
 77
     3
 78
     8
170
     0
171
     2
172
     1
173
     1
174
     0
175
     0
176
   256
177
   256
178
     4
  0
DIMSTYLE
  2
AM_ANSI
 70
     0
  3

  4
mm
  5

  6

  7

 40
1.0
 41
0.1
 42
0.05
 43
0.5
 44
0.1
 45
0.0
 46
0.0
 47
0.1
 48
0.1
140
0.12
141
0.0
142
0.0
143
25.399999999999999
144
1.0
145
0.0
146
0.71
147
0.06
 71
     0
 72
     0
 73
     1
 74
     1
 75
     0
 76
     0
 77
     0
 78
     7
170
     0
171
     2
172
     0
173
     0
174
     0
175
     0
176
   256
177
   256
178
     2
  0
DIMSTYLE
  2
AM_ANSI$3
 70
     0
  3

  4
mm
  5

  6

  7

 40
1.0
 41
0.1
 42
0.05
 43
0.5
 44
0.1
 45
0.0
 46
0.0
 47
0.1
 48
0.1
140
0.12
141
0.0
142
0.0
143
25.399999999999999
144
1.0
145
0.0
146
0.71
147
0.06
 71
     0
 72
     0
 73
     1
 74
     1
 75
     0
 76
     0
 77
     0
 78
     7
170
     0
171
     2
172
     0
173
     0
174
     0
175
     0
176
   256
177
   256
178
     2
  0
DIMSTYLE
  2
AM_ANSI$4
 70
     0
  3

  4
mm
  5

  6

  7

 40
1.0
 41
0.1
 42
0.05
 43
0.5
 44
0.1
 45
0.0
 46
0.0
 47
0.1
 48
0.1
140
0.12
141
0.0
142
0.0
143
25.399999999999999
144
1.0
145
0.0
146
0.71
147
0.06
 71
     0
 72
     0
 73
     1
 74
     1
 75
     0
 76
     0
 77
     0
 78
     7
170
     0
171
     2
172
     0
173
     0
174
     0
175
     0
176
   256
177
   256
178
     2
  0
DIMSTYLE
  2
AM_ANSI$7
 70
     0
  3

  4
mm
  5

  6

  7

 40
1.0
 41
0.1
 42
0.05
 43
0.5
 44
0.1
 45
0.0
 46
0.0
 47
0.1
 48
0.1
140
0.24
141
0.0
142
0.0
143
25.399999999999999
144
1.0
145
0.0
146
0.71
147
0.06
 71
     0
 72
     0
 73
     1
 74
     1
 75
     0
 76
     0
 77
     0
 78
     7
170
     0
171
     2
172
     0
173
     0
174
     0
175
     0
176
   256
177
   256
178
     2
  0
DIMSTYLE
  2
AM_ANSI$SF
 70
     0
  3

  4
mm
  5

  6

  7

 40
1.0
 41
0.1
 42
0.05
 43
0.5
 44
0.1
 45
0.0
 46
0.0
 47
0.1
 48
0.1
140
0.12
141
0.0
142
0.0
143
25.399999999999999
144
1.0
145
0.0
146
0.71
147
0.06
 71
     0
 72
     0
 73
     1
 74
     1
 75
     1
 76
     1
 77
     0
 78
     7
170
     0
171
     2
172
     0
173
     0
174
     0
175
     0
176
   256
177
   256
178
     2
  0
DIMSTYLE
  2
AM_ANSI$SH
 70
     0
  3

  4
mm
  5

  6
GENAXEH
  7

 40
1.0
 41
0.1
 42
0.05
 43
0.5
 44
0.1
 45
0.0
 46
0.0
 47
0.1
 48
0.1
140
0.12
141
0.0
142
0.0
143
25.399999999999999
144
1.0
145
0.0
146
0.71
147
0.06
 71
     0
 72
     0
 73
     1
 74
     1
 75
     1
 76
     1
 77
     0
 78
     7
170
     0
171
     2
172
     0
173
     1
174
     0
175
     0
176
   256
177
   256
178
     2
  0
ENDTAB
  0
ENDSEC
  0
SECTION
  2
BLOCKS
  0
BLOCK
  8
0
  2
$MODEL_SPACE
 70
     0
 10
0.0
 20
0.0
 30
0.0
  3
$MODEL_SPACE
  1

  0
ENDBLK
  5
3111
  8
0
  0
BLOCK
 67
     1
  8
0
  2
$PAPER_SPACE
 70
     0
 10
0.0
 20
0.0
 30
0.0
  3
$PAPER_SPACE
  1

  0
ENDBLK
  5
310D
 67
     1
  8
0
  0
BLOCK
  8
0
  2
GENAXEH
 70
     0
 10
0.0
 20
0.0
 30
0.0
  3
GENAXEH
  1

  0
LINE
  5
31AE
  8
0
 10
-1.0
 20
0.0
 30
0.0
 11
1.0
 21
0.0
 31
0.0
  0
ENDBLK
  5
31AF
  8
0
  0
BLOCK
  8
0
  2
_OPEN30
 70
     0
 10
0.0
 20
0.0
 30
0.0
  3
_OPEN30
  1

  0
LINE
  5
31B2
  8
0
 62
     0
 10
-1.0
 20
0.26794919
 30
0.0
 11
0.0
 21
0.0
 31
0.0
  0
LINE
  5
31B3
  8
0
 62
     0
 10
0.0
 20
0.0
 30
0.0
 11
-1.0
 21
-0.26794919
 31
0.0
  0
LINE
  5
31B4
  8
0
 62
     0
 10
0.0
 20
0.0
 30
0.0
 11
-1.0
 21
0.0
 31
0.0
  0
ENDBLK
  5
31B5
  8
0
  0
BLOCK
  8
0
  2
_NONE
 70
     0
 10
0.0
 20
0.0
 30
0.0
  3
_NONE
  1

  0
ENDBLK
  5
31B8
  8
0
  0
BLOCK
  8
0
  2
*U5
 70
     1
 10
0.0
 20
0.0
 30
0.0
  3
*U5
  1

  0
TEXT
  5
31BB
  8
AM_0
 62
     4
 10
646.26760794816084
 20
381.91064659255539
 30
0.0
 40
7.5
  1
o
 41
0.8299999999999999
  0
TEXT
  5
31BC
  8
AM_0
 62
     4
 10
653.67832223387552
 20
381.91064659255539
 30
0.0
 40
7.5
  1
 185
 41
0.8299999999999999
  0
ENDBLK
  5
31BD
  8
0
  0
BLOCK
  8
0
  2
*U6
 70
     1
 10
0.0
 20
0.0
 30
0.0
  3
*U6
  1

  0
TEXT
  5
31C0
  8
AM_0
 62
     4
 10
495.29509600361558
 20
237.83688909371551
 30
0.0
 40
7.5
  1
\U+2205
 50
90.0
 41
0.8299999999999999
  0
TEXT
  5
31C1
  8
AM_0
 62
     4
 10
495.29509600361558
 20
244.06188909371551
 30
0.0
 40
7.5
  1
170
 50
90.0
 41
0.8299999999999999
  0
TEXT
  5
31C2
  8
AM_0
 62
     4
 10
495.29509600361558
 20
259.62438909371548
 30
0.0
 40
6.0
  1
h7
 50
90.0
 41
0.8299999999999999
  0
ENDBLK
  5
31C3
  8
0
  0
BLOCK
  8
0
  2
*U7
 70
     1
 10
0.0
 20
0.0
 30
0.0
  3
*U7
  1

  0
TEXT
  5
31C6
  8
AM_0
 62
     4
 10
219.73918713601881
 20
214.6369200937155
 30
0.0
 40
7.5
  1
\U+2205
 50
90.0
 41
0.8299999999999999
  0
TEXT
  5
31C7
  8
AM_0
 62
     4
 10
219.73918713601881
 20
220.8619200937155
 30
0.0
 40
7.5
  1
130
 50
90.0
 41
0.8299999999999999
  0
TEXT
  5
31C8
  8
AM_0
 62
     4
 10
219.73918713601881
 20
236.42442009371561
 30
0.0
 40
6.0
  1
G7
 50
90.0
 41
0.8299999999999999
  0
ENDBLK
  5
31C9
  8
0
  0
BLOCK
  8
0
  2
*U8
 70
     1
 10
0.0
 20
0.0
 30
0.0
  3
*U8
  1

  0
TEXT
  5
31CC
  8
AM_0
 62
     4
 10
199.62311376995439
 20
219.30567009371561
 30
0.0
 40
7.5
  1
\U+2205
 50
90.0
 41
0.8299999999999999
  0
TEXT
  5
31CD
  8
AM_0
 62
     4
 10
199.62311376995439
 20
225.53067009371549
 30
0.0
 40
7.5
  1
200
 50
90.0
 41
0.8299999999999999
  0
ENDBLK
  5
31CE
  8
0
  0
BLOCK
  8
0
  2
*U9
 70
     1
 10
0.0
 20
0.0
 30
0.0
  3
*U9
  1

  0
TEXT
  5
31D1
  8
AM_0
 62
     4
 10
467.39221621945978
 20
252.34246584848441
 30
0.0
 40
7.5
  1
\U+2205
 50
90.0
 41
0.8299999999999999
  0
TEXT
  5
31D2
  8
AM_0
 62
     4
 10
467.39221621945978
 20
258.5674658484844
 30
0.0
 40
7.5
  1
170
 50
90.0
 41
0.8299999999999999
  0
TEXT
  5
31D3
  8
AM_0
 62
     4
 10
467.39221621945978
 20
274.1299658484844
 30
0.0
 40
6.0
  1
h7
 50
90.0
 41
0.8299999999999999
  0
ENDBLK
  5
31D4
  8
0
  0
BLOCK
  8
0
  2
*U10
 70
     1
 10
0.0
 20
0.0
 30
0.0
  3
*U10
  1

  0
TEXT
  5
31D7
  8
AM_0
 62
     4
 10
171.72023398579859
 20
233.81124684848439
 30
0.0
 40
7.5
  1
\U+2205
 50
90.0
 41
0.8299999999999999
  0
TEXT
  5
31D8
  8
AM_0
 62
     4
 10
171.72023398579859
 20
240.0362468484845
 30
0.0
 40
7.5
  1
200
 50
90.0
 41
0.8299999999999999
  0
ENDBLK
  5
31D9
  8
0
  0
BLOCK
  8
0
  2
*U11
 70
     1
 10
0.0
 20
0.0
 30
0.0
  3
*U11
  1

  0
TEXT
  5
31DC
  8
AM_0
 62
     4
 10
191.83630735186281
 20
229.1424968484844
 30
0.0
 40
7.5
  1
\U+2205
 50
90.0
 41
0.8299999999999999
  0
TEXT
  5
31DD
  8
AM_0
 62
     4
 10
191.83630735186281
 20
235.36749684848439
 30
0.0
 40
7.5
  1
130
 50
90.0
 41
0.8299999999999999
  0
TEXT
  5
31DE
  8
AM_0
 62
     4
 10
191.83630735186281
 20
250.92999684848439
 30
0.0
 40
6.0
  1
G7
 50
90.0
 41
0.8299999999999999
  0
ENDBLK
  5
31DF
  8
0
  0
BLOCK
  8
0
  2
*U12
 70
     1
 10
0.0
 20
0.0
 30
0.0
  3
*U12
  1

  0
TEXT
  5
31E2
  8
AM_0
 62
     4
 10
618.36472816400533
 20
396.41622334732432
 30
0.0
 40
7.5
  1
o
 41
0.8299999999999999
  0
TEXT
  5
31E3
  8
AM_0
 62
     4
 10
625.77544244971955
 20
396.41622334732432
 30
0.0
 40
7.5
  1
 185
 41
0.8299999999999999
  0
ENDBLK
  5
31E4
  8
0
  0
BLOCK
  8
0
  2
_ACMFILLEDHALF
 70
     0
 10
0.0
 20
0.0
 30
0.0
  3
_ACMFILLEDHALF
  1

  0
TRACE
  5
33E1
  8
AM_0
 62
     0
 10
-0.8
 20
0.0
 30
0.0
 11
-1.0
 21
0.166666666
 31
0.0
 12
0.0
 22
0.0
 32
0.0
 13
0.0
 23
0.0
 33
0.0
  0
LINE
  5
33E2
  8
AM_0
 62
     0
 10
-1.0
 20
0.0
 30
0.0
 11
-0.8
 21
0.0
 31
0.0
  0
ENDBLK
  5
33E0
  8
0
  0
ENDSEC
  0
SECTION
  2
ENTITIES
  0
LINE
  5
31E5
  8
AM_0
 10
392.55595120995901
 20
517.35388648211926
 30
0.0
 11
424.55595120995901
 21
517.35388648211926
 31
0.0
  0
LINE
  5
31E6
  8
AM_0
 10
382.55598120995887
 20
499.35394648211951
 30
0.0
 11
424.55595120995901
 21
499.35394648211951
 31
0.0
  0
LINE
  5
31E7
  8
AM_0
 10
382.55598120995887
 20
527.35394648211934
 30
0.0
 11
424.55595120995901
 21
527.35394648211934
 31
0.0
  0
LINE
  5
31E8
  8
AM_0
 10
392.55595120995901
 20
509.35391648211919
 30
0.0
 11
424.55595120995901
 21
509.35391648211919
 31
0.0
  0
LINE
  5
31E9
  8
ﾁｭｳｼﾝｾﾝ
 10
206.40561940686999
 20
513.35391648211919
 30
0.0
 11
429.26298120995898
 21
513.35391648211953
 31
0.0
  0
POLYLINE
  5
31EA
  8
AM_0
 66
     1
 10
0.0
 20
0.0
 30
0.0
  0
VERTEX
  5
31EB
  8
AM_0
 10
365.46904120995902
 20
597.76690648211957
 30
0.0
 42
0.081985852
  0
VERTEX
  5
31EC
  8
AM_0
 10
343.35315120995892
 20
542.85522648211952
 30
0.0
 42
0.10914194
  0
VERTEX
  5
31ED
  8
AM_0
 10
343.35324120995898
 20
483.85221648211939
 30
0.0
 42
0.081985219
  0
VERTEX
  5
31EE
  8
AM_0
 10
365.46904120995902
 20
428.94091648211929
 30
0.0
  0
SEQEND
  5
31EF
  8
AM_0
  0
ARC
  5
31F0
  8
AM_0
 10
392.55595120995901
 20
513.35388648211926
 30
0.0
 40
3.9999962
 50
90.000003000000945
 51
270.0
  0
LINE
  5
31F1
  8
AM_0
 10
392.55595120995901
 20
517.35388648211926
 30
0.0
 11
392.55595120995901
 21
509.35391648211919
 31
0.0
  0
LINE
  5
31F2
  8
AM_0
 10
378.55598120995887
 20
420.85391648211942
 30
0.0
 11
378.55598120995887
 21
605.85394648211945
 31
0.0
  0
LINE
  5
31F3
  8
AM_0
 10
372.55598120995887
 20
442.85391648211919
 30
0.0
 11
372.55598120995887
 21
583.52621648211948
 31
0.0
  0
LINE
  5
31F4
  8
AM_0
 10
368.55598120995887
 20
423.1345264821195
 30
0.0
 11
368.55598120995887
 21
603.57330648211951
 31
0.0
  0
LINE
  5
31F5
  8
AM_0
 10
382.55601120995902
 20
598.35394648211957
 30
0.0
 11
382.55601120995902
 21
428.35391648211947
 31
0.0
  0
LINE
  5
31F6
  8
AM_0
 10
267.05592120995902
 20
439.85394648211951
 30
0.0
 11
267.05592120995902
 21
586.85391648211953
 31
0.0
  0
LINE
  5
31F7
  8
AM_0
 10
296.55595120995901
 20
433.27881648211923
 30
0.0
 11
296.55595120995901
 21
593.42901648211955
 31
0.0
  0
LINE
  5
31F8
  8
AM_0
 10
303.55598120995887
 20
431.10296648211943
 30
0.0
 11
303.55598120995887
 21
595.60486648211941
 31
0.0
  0
LINE
  5
31F9
  8
AM_0
 10
267.05598120995887
 20
473.87924648211941
 30
0.0
 11
296.55595120995901
 21
473.87924648211941
 31
0.0
  0
LINE
  5
31FA
  8
AM_0
 10
267.05595120995901
 20
439.85388648211932
 30
0.0
 11
286.55595120995901
 21
439.3432664821193
 31
0.0
  0
LINE
  5
31FB
  8
AM_0
 10
267.05598120995887
 20
451.77527648211918
 30
0.0
 11
296.55595120995901
 21
451.77527648211918
 31
0.0
  0
ARC
  5
31FC
  8
AM_0
 10
363.3261812099588
 20
424.01269648211951
 30
0.0
 40
5.0
 50
45.00000099999918
 51
87.999999999999659
  0
LINE
  5
31FD
  8
AM_0
 10
378.55598120995887
 20
428.35391648211947
 30
0.0
 11
382.55601120995902
 21
428.35391648211947
 31
0.0
  0
LINE
  5
31FE
  8
AM_0
 10
370.48622120995901
 20
421.13574648211932
 30
0.0
 11
378.55598120995887
 21
420.85391648211942
 31
0.0
  0
ARC
  5
31FF
  8
AM_0
 10
370.55601120995902
 20
423.1345264821195
 30
0.0
 40
2.0
 50
179.9999899999988
 51
268.00000999999861
  0
LINE
  5
3200
  8
AM_0
 10
366.86174120995901
 20
427.54821648211953
 30
0.0
 11
368.55601120995902
 21
425.85394648211951
 31
0.0
  0
LINE
  5
3201
  8
AM_0
 10
363.500681209959
 20
429.00964648211942
 30
0.0
 11
303.55598120995887
 21
431.10296648211943
 31
0.0
  0
LINE
  5
3202
  8
AM_0
 10
287.35597120995908
 20
447.5407764821195
 30
0.0
 11
294.55595120995901
 21
447.5407764821195
 31
0.0
  0
LINE
  5
3203
  8
AM_0
 10
287.35597120995908
 20
434.54080648211919
 30
0.0
 11
294.55595120995901
 21
434.54080648211919
 31
0.0
  0
LINE
  5
3204
  8
AM_0
 10
287.35597120995908
 20
434.54080648211919
 30
0.0
 11
287.35597120995908
 21
447.5407764821195
 31
0.0
  0
LINE
  5
3205
  8
AM_0
 10
286.55598120995887
 20
435.34079648211952
 30
0.0
 11
286.55598120995887
 21
446.74078648211929
 31
0.0
  0
LINE
  5
3206
  8
AM_0
 10
286.55598120995887
 20
435.34079648211952
 30
0.0
 11
287.356001209959
 21
434.54074648211952
 31
0.0
  0
LINE
  5
3207
  8
AM_0
 10
286.55595120995901
 20
446.74078648211929
 30
0.0
 11
287.35597120995908
 21
447.54080648211931
 31
0.0
  0
LINE
  5
3208
  8
AM_0
 10
294.55595120995901
 20
432.5407764821195
 30
0.0
 11
294.55595120995901
 21
449.54077648211938
 31
0.0
  0
LINE
  5
3209
  8
AM_0
 10
303.55598120995887
 20
431.10296648211943
 30
0.0
 11
298.48616120995888
 21
431.28000648211952
 31
0.0
  0
ARC
  5
320A
  8
AM_0
 10
298.55595120995901
 20
433.27881648211923
 30
0.0
 40
2.0
 50
180.00001000000091
 51
267.9999999999996
  0
LINE
  5
320B
  8
AM_0
 10
294.55595120995901
 20
432.5407764821195
 30
0.0
 11
296.55595120995901
 21
432.5407764821195
 31
0.0
  0
LINE
  5
320C
  8
AM_0
 10
294.55595120995901
 20
449.54077648211938
 30
0.0
 11
296.55595120995901
 21
449.54077648211938
 31
0.0
  0
ARC
  5
320D
  8
AM_0
 10
369.55598120995887
 20
443.18161648211918
 30
0.0
 40
3.0
 50
267.9999999999996
 51
0.0
  0
ARC
  5
320E
  8
AM_0
 10
371.55598120995887
 20
462.22867648211923
 30
0.0
 40
3.0
 50
90.000003000000945
 51
180.00001000000091
  0
LINE
  5
320F
  8
AM_0
 10
267.05598120995887
 20
574.93255648211937
 30
0.0
 11
296.55595120995901
 21
574.93255648211937
 31
0.0
  0
LINE
  5
3210
  8
AM_0
 10
267.05595120995901
 20
586.85394648211945
 30
0.0
 11
286.55595120995901
 21
587.36456648211947
 31
0.0
  0
LINE
  5
3211
  8
AM_0
 10
267.05598120995887
 20
552.82858648211925
 30
0.0
 11
296.55595120995901
 21
552.82858648211925
 31
0.0
  0
ARC
  5
3212
  8
AM_0
 10
363.3261812099588
 20
602.69513648211955
 30
0.0
 40
5.0
 50
272.0000000000004
 51
315.0
  0
LINE
  5
3213
  8
AM_0
 10
363.500681209959
 20
597.69818648211958
 30
0.0
 11
303.55598120995887
 21
595.60486648211941
 31
0.0
  0
LINE
  5
3214
  8
AM_0
 10
287.35597120995908
 20
592.1669964821192
 30
0.0
 11
294.55595120995901
 21
592.1669964821192
 31
0.0
  0
LINE
  5
3215
  8
AM_0
 10
287.35597120995908
 20
579.16705648211951
 30
0.0
 11
294.55595120995901
 21
579.16705648211951
 31
0.0
  0
LINE
  5
3216
  8
AM_0
 10
287.35597120995908
 20
579.16705648211951
 30
0.0
 11
287.35597120995908
 21
592.1669964821192
 31
0.0
  0
LINE
  5
3217
  8
AM_0
 10
286.55598120995887
 20
579.96704648211914
 30
0.0
 11
286.55598120995887
 21
591.36706648211953
 31
0.0
  0
LINE
  5
3218
  8
AM_0
 10
286.55595120995901
 20
579.96707648211952
 30
0.0
 11
287.35597120995908
 21
579.16702648211947
 31
0.0
  0
LINE
  5
3219
  8
AM_0
 10
286.55598120995887
 20
591.36700648211956
 30
0.0
 11
287.356001209959
 21
592.16705648211939
 31
0.0
  0
LINE
  5
321A
  8
AM_0
 10
294.55595120995901
 20
577.16702648211935
 30
0.0
 11
294.55595120995901
 21
594.16699648211909
 31
0.0
  0
LINE
  5
321B
  8
AM_0
 10
294.55595120995901
 20
577.16702648211935
 30
0.0
 11
296.55595120995901
 21
577.16702648211935
 31
0.0
  0
LINE
  5
321C
  8
AM_0
 10
303.55595120995889
 20
595.60486648211941
 30
0.0
 11
298.48613120995901
 21
595.42779648211945
 31
0.0
  0
ARC
  5
321D
  8
AM_0
 10
298.55595120995901
 20
593.42901648211955
 30
0.0
 40
2.0
 50
91.999998000000545
 51
180.00001000000091
  0
LINE
  5
321E
  8
AM_0
 10
294.55595120995901
 20
594.16699648211909
 30
0.0
 11
296.55595120995901
 21
594.16699648211909
 31
0.0
  0
ARC
  5
321F
  8
AM_0
 10
371.55598120995887
 20
564.47915648211927
 30
0.0
 40
3.0
 50
179.9999899999988
 51
270.0
  0
ARC
  5
3220
  8
AM_0
 10
369.55598120995887
 20
583.52621648211948
 30
0.0
 40
3.0
 50
0.0
 51
91.999998000000545
  0
LINE
  5
3221
  8
AM_0
 10
378.55598120995887
 20
598.35394648211957
 30
0.0
 11
382.55601120995902
 21
598.35394648211957
 31
0.0
  0
LINE
  5
3222
  8
AM_0
 10
370.48622120995901
 20
605.57214648211936
 30
0.0
 11
378.55598120995887
 21
605.85394648211945
 31
0.0
  0
ARC
  5
3223
  8
AM_0
 10
370.55601120995902
 20
603.57330648211951
 30
0.0
 40
2.0
 50
91.999998000000545
 51
180.00001000000091
  0
LINE
  5
3224
  8
AM_0
 10
366.86170120995888
 20
599.15960648211922
 30
0.0
 11
368.55598120995887
 21
600.85388648211926
 31
0.0
  0
LINE
  5
3225
  8
AM_0
 10
424.55595120995901
 20
527.35394648211934
 30
0.0
 11
424.55595120995901
 21
499.35394648211951
 31
0.0
  0
LINE
  5
3227
  8
ﾁｭｳｼﾝｾﾝ
 10
276.70713765812599
 20
267.38622784848422
 30
0.0
 11
429.5037612099589
 21
267.38622784848422
 31
0.0
  0
LINE
  5
3228
  8
AM_0
 10
382.55595120995889
 20
281.3862438484843
 30
0.0
 11
424.55595120995901
 21
281.3862438484843
 31
0.0
  0
LINE
  5
3229
  8
AM_0
 10
392.5559412099588
 20
284.38622884848439
 30
0.0
 11
424.55595120995901
 21
284.38622884848439
 31
0.0
  0
LINE
  5
322A
  8
AM_0
 10
382.55595120995889
 20
253.38624184848439
 30
0.0
 11
424.55595120995901
 21
253.38624184848439
 31
0.0
  0
ARC
  5
322B
  8
AM_0
 10
342.72375120995878
 20
290.43621784848432
 30
0.0
 40
24.832211399999991
 50
349.38167999999962
 51
47.544065999999859
  0
LINE
  5
322C
  8
AM_0
 10
265.05595120995901
 20
305.69547184848432
 30
0.0
 11
265.05595120995901
 21
285.66092184848452
 31
0.0
  0
LINE
  5
322D
  8
AM_0
 10
213.05595120995901
 20
144.1862468484845
 30
0.0
 11
213.05595120995901
 21
344.18624684848442
 31
0.0
  0
LINE
  5
322E
  8
AM_0
 10
223.05595120995901
 20
343.1862468484843
 30
0.0
 11
223.05595120995901
 21
145.1862468484845
 31
0.0
  0
LINE
  5
322F
  8
AM_0
 10
267.05595120995901
 20
170.68624384848439
 30
0.0
 11
267.05595120995901
 21
317.6862468484843
 31
0.0
  0
LINE
  5
3230
  8
AM_0
 10
296.55603120995892
 20
323.0546268484843
 30
0.0
 11
296.55603120995892
 21
165.3620568484842
 31
0.0
  0
LINE
  5
3231
  8
AM_0
 10
368.55600120995888
 20
243.4758888484844
 30
0.0
 11
368.55600120995888
 21
318.5114448484843
 31
0.0
  0
LINE
  5
3232
  8
AM_0
 10
303.55596120995881
 20
163.1862288484844
 30
0.0
 11
303.55596120995881
 21
325.18624984848441
 31
0.0
  0
LINE
  5
3233
  8
AM_0
 10
372.55596120995881
 20
196.8862248484844
 30
0.0
 11
372.55596120995881
 21
337.55849584848443
 31
0.0
  0
LINE
  5
3234
  8
AM_0
 10
378.55596120995881
 20
267.38622784848422
 30
0.0
 11
378.55596120995881
 21
359.88620584848439
 31
0.0
  0
LINE
  5
3235
  8
AM_0
 10
382.55595120995889
 20
352.38620584848428
 30
0.0
 11
382.55595120995889
 21
182.3862258484844
 31
0.0
  0
LINE
  5
3236
  8
AM_0
 10
267.05595120995901
 20
170.68624684848439
 30
0.0
 11
225.7944842099588
 21
167.0763358484844
 31
0.0
  0
LINE
  5
3237
  8
ﾁｭｳｼﾝｾﾝ
 10
206.40561940686999
 20
244.18624684848439
 30
0.0
 11
293.67488829000268
 21
244.18624684848439
 31
0.0
  0
ARC
  5
3238
  8
AM_0
 10
267.05595120995901
 20
202.7115708484844
 30
0.0
 40
2.0
 50
120.0000000000005
 51
180.0
  0
ARC
  5
3239
  8
AM_0
 10
267.05595120995901
 20
285.66092184848452
 30
0.0
 40
2.0
 50
180.0
 51
239.99999999999949
  0
ARC
  5
323A
  8
AM_0
 10
226.05595120995901
 20
201.7115708484844
 30
0.0
 40
3.0
 50
90.0
 51
180.0
  0
LINE
  5
323B
  8
AM_0
 10
213.05595120995901
 20
144.1862468484845
 30
0.0
 11
222.05595120995901
 21
144.1862468484845
 31
0.0
  0
ARC
  5
323C
  8
AM_0
 10
222.05595120995901
 20
145.1862468484845
 30
0.0
 40
1.0
 50
270.0
 51
0.0
  0
LINE
  5
323D
  8
AM_0
 10
226.05595120995901
 20
204.7115708484844
 30
0.0
 11
265.05595120995901
 21
204.7115708484844
 31
0.0
  0
LINE
  5
323E
  8
AM_0
 10
226.05595120995901
 20
180.6770218484844
 30
0.0
 11
263.05595120995901
 21
180.6770218484844
 31
0.0
  0
ARC
  5
323F
  8
AM_0
 10
226.05595120995901
 20
164.0877518484844
 30
0.0
 40
3.0
 50
94.999999999999716
 51
180.0
  0
ARC
  5
3240
  8
AM_0
 10
226.05595120995901
 20
177.6770218484844
 30
0.0
 40
3.0
 50
90.0
 51
180.0
  0
LINE
  5
3241
  8
AM_0
 10
265.05595120995901
 20
182.6770218484844
 30
0.0
 11
265.05595120995901
 21
202.7115708484844
 31
0.0
  0
ARC
  5
3242
  8
AM_0
 10
263.05595120995901
 20
182.6770218484844
 30
0.0
 40
2.0
 50
270.0
 51
0.0
  0
LINE
  5
3243
  8
AM_0
 10
226.05595120995901
 20
283.66092184848452
 30
0.0
 11
265.05595120995901
 21
283.66092184848452
 31
0.0
  0
ARC
  5
3244
  8
AM_0
 10
226.05595120995901
 20
286.66092184848452
 30
0.0
 40
3.0
 50
180.0
 51
270.0
  0
LINE
  5
3245
  8
AM_0
 10
368.55600120995888
 20
177.6435948484843
 30
0.0
 11
368.55600120995888
 21
213.0155898484843
 31
0.0
  0
LINE
  5
3246
  8
AM_0
 10
378.55596120995881
 20
174.8862258484844
 30
0.0
 11
378.55596120995881
 21
267.38622784848422
 31
0.0
  0
ARC
  5
3247
  8
AM_0
 10
328.55763120995903
 20
198.25011784848439
 30
0.0
 40
7.331659199999998
 50
90.000003000000945
 51
270.0
  0
LINE
  5
3248
  8
AM_0
 10
303.55596120995881
 20
163.1862288484844
 30
0.0
 11
346.30989120995872
 21
161.6932308484844
 31
0.0
  0
LINE
  5
3249
  8
AM_0
 10
303.55596120995881
 20
178.07601484848439
 30
0.0
 11
368.55600120995888
 21
178.07601484848439
 31
0.0
  0
LINE
  5
324A
  8
AM_0
 10
328.55595120995889
 20
190.91845384848421
 30
0.0
 11
368.55600120995888
 21
190.91845384848421
 31
0.0
  0
LINE
  5
324B
  8
AM_0
 10
303.55596120995881
 20
163.1862288484844
 30
0.0
 11
298.48620120995912
 21
163.36327684848439
 31
0.0
  0
LINE
  5
324C
  8
AM_0
 10
267.05595120995901
 20
182.60760184848439
 30
0.0
 11
296.55603120995892
 21
182.60760184848439
 31
0.0
  0
LINE
  5
324D
  8
AM_0
 10
267.05595120995901
 20
170.6862288484844
 30
0.0
 11
293.6345112099591
 21
169.99024384848431
 31
0.0
  0
ARC
  5
324E
  8
AM_0
 10
298.55595120995901
 20
165.3620568484842
 30
0.0
 40
2.00000007
 50
179.9999899999988
 51
268.00000999999861
  0
ARC
  5
324F
  8
AM_0
 10
293.55603120995892
 20
166.9912668484842
 30
0.0
 40
3.0
 50
0.0
 51
88.499997000000747
  0
LINE
  5
3250
  8
AM_0
 10
267.05595120995901
 20
204.7115598484844
 30
0.0
 11
296.55603120995892
 21
204.7115598484844
 31
0.0
  0
LINE
  5
3251
  8
AM_0
 10
328.55595120995889
 20
192.10145284848431
 30
0.0
 11
328.55595120995889
 21
204.4214598484844
 31
0.0
  0
LINE
  5
3252
  8
AM_0
 10
346.30989120995872
 20
161.6932308484844
 30
0.0
 11
368.5559712099589
 21
174.53701384848421
 31
0.0
  0
LINE
  5
3253
  8
AM_0
 10
378.55596120995881
 20
182.3862258484844
 30
0.0
 11
382.55595120995889
 21
182.3862258484844
 31
0.0
  0
LINE
  5
3254
  8
AM_0
 10
368.5559712099589
 20
174.53701384848421
 30
0.0
 11
378.55596120995881
 21
174.8862258484844
 31
0.0
  0
ARC
  5
3255
  8
AM_0
 10
371.55600120995882
 20
177.6435948484843
 30
0.0
 40
3.0
 50
179.9999899999988
 51
271.99999000000139
  0
ARC
  5
3256
  8
AM_0
 10
369.55596120995881
 20
196.8862248484844
 30
0.0
 40
3.0
 50
270.0
 51
0.0
  0
LINE
  5
3257
  8
AM_0
 10
303.55596120995881
 20
290.43621784848432
 30
0.0
 11
365.50128120995902
 21
290.43621784848432
 31
0.0
  0
LINE
  5
3258
  8
AM_0
 10
328.55595120995889
 20
205.58176684848439
 30
0.0
 11
368.55600120995888
 21
205.58176684848439
 31
0.0
  0
LINE
  5
3259
  8
AM_0
 10
267.05595120995901
 20
283.6609188484843
 30
0.0
 11
296.55603120995892
 21
283.6609188484843
 31
0.0
  0
ARC
  5
325A
  8
AM_0
 10
387.20130120995901
 20
258.15400384848442
 30
0.0
 40
24.832211399999991
 50
169.38167999999959
 51
218.7932100000013
  0
ARC
  5
325B
  8
AM_0
 10
371.55600120995882
 20
213.0155898484843
 30
0.0
 40
3.0
 50
90.000003000000945
 51
180.00001000000091
  0
LINE
  5
325C
  8
AM_0
 10
370.18500120995901
 20
241.47587284848441
 30
0.0
 11
372.55596120995881
 21
241.47587284848441
 31
0.0
  0
ARC
  5
325D
  8
AM_0
 10
370.18500120995901
 20
244.47587284848441
 30
0.0
 40
3.0
 50
218.7932200000009
 51
270.0
  0
LINE
  5
325E
  8
AM_0
 10
367.13073120995909
 20
285.86050384848443
 30
0.0
 11
362.7942612099589
 21
262.72973284848422
 31
0.0
  0
LINE
  5
325F
  8
AM_0
 10
392.5559412099588
 20
284.38622884848439
 30
0.0
 11
392.5559412099588
 21
281.3862438484843
 31
0.0
  0
LINE
  5
3260
  8
AM_0
 10
267.05595120995901
 20
317.6862468484843
 30
0.0
 11
225.7944842099588
 21
321.29615684848437
 31
0.0
  0
LINE
  5
3261
  8
AM_0
 10
226.05595120995901
 20
307.69547184848432
 30
0.0
 11
263.05595120995901
 21
307.69547184848432
 31
0.0
  0
ARC
  5
3262
  8
AM_0
 10
226.05595120995901
 20
310.69547184848432
 30
0.0
 40
3.0
 50
180.0
 51
270.0
  0
ARC
  5
3263
  8
AM_0
 10
226.05595120995901
 20
324.28474184848432
 30
0.0
 40
3.0
 50
180.0
 51
265.00000000000028
  0
ARC
  5
3264
  8
AM_0
 10
263.05595120995901
 20
305.69547184848432
 30
0.0
 40
2.0
 50
0.0
 51
90.0
  0
LINE
  5
3265
  8
AM_0
 10
213.05595120995901
 20
344.18624684848442
 30
0.0
 11
222.05595120995901
 21
344.18624684848442
 31
0.0
  0
ARC
  5
3266
  8
AM_0
 10
222.05595120995901
 20
343.1862468484843
 30
0.0
 40
1.0
 50
0.0
 51
90.0
  0
LINE
  5
3267
  8
AM_0
 10
303.55596120995881
 20
325.18624984848441
 30
0.0
 11
338.95227120995901
 21
326.42230084848433
 31
0.0
  0
LINE
  5
3268
  8
AM_0
 10
298.50366120995909
 20
325.05392284848432
 30
0.0
 11
303.55596120995881
 21
325.18621684848432
 31
0.0
  0
LINE
  5
3269
  8
AM_0
 10
267.05595120995901
 20
305.76489184848441
 30
0.0
 11
296.55603120995892
 21
305.76489184848441
 31
0.0
  0
LINE
  5
326A
  8
AM_0
 10
267.05601120995902
 20
317.6862468484843
 30
0.0
 11
293.6345112099591
 21
318.38223184848431
 31
0.0
  0
ARC
  5
326B
  8
AM_0
 10
298.55595120995901
 20
323.0546268484843
 30
0.0
 40
2.00000007
 50
91.500001000001546
 51
180.00001000000091
  0
ARC
  5
326C
  8
AM_0
 10
293.55603120995892
 20
321.38122384848441
 30
0.0
 40
3.0
 50
271.49999999999932
 51
0.0
  0
LINE
  5
326D
  8
AM_0
 10
340.96893120995873
 20
327.2991558484843
 30
0.0
 11
368.55600120995888
 21
354.88622584848429
 31
0.0
  0
LINE
  5
326E
  8
AM_0
 10
368.55600120995888
 20
318.5114448484843
 30
0.0
 11
368.55600120995888
 21
357.60563584848433
 31
0.0
  0
LINE
  5
326F
  8
AM_0
 10
340.13325120995893
 20
326.46352984848431
 30
0.0
 11
359.48604120995901
 21
308.7573528484844
 31
0.0
  0
LINE
  5
3270
  8
AM_0
 10
359.48607120995888
 20
308.75732284848419
 30
0.0
 11
359.48607120995888
 21
308.75732284848419
 31
0.0
  0
ARC
  5
3271
  8
AM_0
 10
338.8476012099589
 20
329.4204858484843
 30
0.0
 40
3.0
 50
272.0000000000004
 51
315.0
  0
ARC
  5
3272
  8
AM_0
 10
371.55600120995882
 20
318.5114448484843
 30
0.0
 40
3.0
 50
179.9999899999988
 51
270.0
  0
LINE
  5
3273
  8
AM_0
 10
378.55596120995881
 20
352.38620584848428
 30
0.0
 11
382.55595120995889
 21
352.38620584848428
 31
0.0
  0
ARC
  5
3274
  8
AM_0
 10
369.55596120995881
 20
337.55849584848443
 30
0.0
 40
3.0
 50
0.0
 51
91.999998000000545
  0
LINE
  5
3275
  8
AM_0
 10
370.4861712099588
 20
359.60444584848432
 30
0.0
 11
378.55596120995881
 21
359.88623584848432
 31
0.0
  0
ARC
  5
3276
  8
AM_0
 10
370.55595120995901
 20
357.60563584848433
 30
0.0
 40
2.00000007
 50
91.999998000000545
 51
180.00001000000091
  0
ARC
  5
3277
  8
AM_0
 10
638.74418361232938
 20
292.53747484848429
 30
0.0
 40
3.0
 50
135.0
 51
216.78679000000079
  0
ARC
  5
3278
  8
AM_0
 10
571.47112461232962
 20
292.53747484848429
 30
0.0
 40
3.0
 50
323.21320999999892
 51
45.00000099999918
  0
LINE
  5
3279
  8
AM_0
 10
697.60764861232974
 20
267.38622784848422
 30
0.0
 11
697.60764861232974
 21
297.3862278484844
 31
0.0
  0
CIRCLE
  5
327A
  8
AM_0
 10
605.10764661232975
 20
267.38622784848422
 30
0.0
 40
29.000001000000001
  0
LINE
  5
327B
  8
AM_0
 10
512.60762961232956
 20
267.38622784848422
 30
0.0
 11
512.60762961232956
 21
297.3862278484844
 31
0.0
  0
CIRCLE
  5
327C
  8
AM_0
 10
605.10764661232975
 20
267.38622784848422
 30
0.0
 40
85.000001999999981
  0
ARC
  5
327D
  8
AM_0
 10
605.10764661232975
 20
244.18624684848439
 30
0.0
 40
81.000003000000035
 50
24.588775000001409
 51
54.52582999999899
  0
CIRCLE
  5
327E
  8
AM_0
 10
605.10764661232975
 20
267.38622784848422
 30
0.0
 40
80.000000999999983
  0
ARC
  5
327F
  8
AM_0
 10
605.10764661232975
 20
244.18624684848439
 30
0.0
 40
81.000003000000035
 50
125.474170000001
 51
155.4112299999997
  0
LINE
  5
3280
  8
ﾁｭｳｼﾝｾﾝ
 10
605.10764661232975
 20
139.05660674424399
 30
0.0
 11
605.10764661232975
 21
365.46902192636759
 31
0.0
  0
LINE
  5
3281
  8
ﾁｭｳｼﾝｾﾝ
 10
556.8139335326224
 20
244.18624684848439
 30
0.0
 11
653.40135969203675
 21
244.18624684848439
 31
0.0
  0
LINE
  5
3282
  8
ﾁｭｳｼﾝｾﾝ
 10
509.40708042010192
 20
267.38622784848422
 30
0.0
 11
702.993725721479
 21
267.38622784848422
 31
0.0
  0
ARC
  5
3283
  8
AM_0
 10
605.10764661232952
 20
244.1862468484839
 30
0.0
 40
99.999999999999787
 50
222.0522482967433
 51
317.94775170325647
  0
LINE
  5
3284
  8
AM_0
 10
635.10764661232975
 20
174.8862258484844
 30
0.0
 11
681.00771861232965
 21
177.2917428484842
 31
0.0
  0
ARC
  5
3285
  8
AM_0
 10
636.43981461232966
 20
164.09693284848441
 30
0.0
 40
5.0000000999999994
 50
36.738737000001201
 51
111.3662099999999
  0
ARC
  5
3286
  8
AM_0
 10
605.10764661232975
 20
267.38622784848422
 30
0.0
 40
39.000011999999998
 50
0.0
 51
36.786790999999447
  0
ARC
  5
3287
  8
AM_0
 10
605.10764661232793
 20
244.18624684848459
 30
0.0
 40
99.999999999998323
 50
157.6683806253335
 51
204.9835488678255
  0
LINE
  5
3288
  8
AM_0
 10
424.55595120995901
 20
284.38622884848439
 30
0.0
 11
424.55595120995901
 21
253.38624184848439
 31
0.0
  0
LINE
  5
3289
  8
AM_0
 10
512.60762961232956
 20
237.3862128484844
 30
0.0
 11
515.01314661232959
 21
191.4861558484844
 31
0.0
  0
LINE
  5
328A
  8
AM_0
 10
575.10764661232975
 20
174.8862258484844
 30
0.0
 11
529.20757461232972
 21
177.2917428484842
 31
0.0
  0
ARC
  5
328B
  8
AM_0
 10
573.77547561232961
 20
164.09693284848441
 30
0.0
 40
5.0000000999999994
 50
68.633798000000667
 51
143.26125999999971
  0
ARC
  5
328C
  8
AM_0
 10
563.35764561232975
 20
171.87310384848431
 30
0.0
 40
8.0000000999999976
 50
156.73874000000089
 51
323.2612700000002
  0
ARC
  5
328D
  8
AM_0
 10
529.99260861232972
 20
192.27118984848431
 30
0.0
 40
15.00000029999998
 50
183.00000999999961
 51
267.0000000000008
  0
ARC
  5
328E
  8
AM_0
 10
529.99260861232972
 20
192.27118984848431
 30
0.0
 40
15.00000029999998
 50
183.00000999999961
 51
267.0000000000008
  0
ARC
  5
328F
  8
ﾁｭｳｼﾝｾﾝ1
 10
605.10764661232724
 20
267.38622784848218
 30
0.0
 40
107.5000109999967
 50
218.02724000000009
 51
232.06113688220751
  0
LINE
  5
3290
  8
ﾁｭｳｼﾝｾﾝ1
 10
537.817658593646
 20
200.0962556575455
 30
0.0
 11
521.53399311456383
 21
183.81257619524871
 31
0.0
  0
CIRCLE
  5
3291
  8
AM_0
 10
529.09368261232976
 20
191.3722338484844
 30
0.0
 40
6.0000002999999991
  0
ARC
  5
3292
  8
AM_0
 10
605.10764661232975
 20
244.18624684848439
 30
0.0
 40
81.000003000000035
 50
270.0
 51
291.36619999999903
  0
ARC
  5
3293
  8
AM_0
 10
605.10764661232975
 20
244.18624684848439
 30
0.0
 40
81.000003000000035
 50
248.6338000000008
 51
270.0
  0
LINE
  5
3294
  8
AM_0
 10
605.10764661232975
 20
174.8862258484844
 30
0.0
 11
635.10764661232975
 21
174.8862258484844
 31
0.0
  0
LINE
  5
3295
  8
AM_0
 10
605.10764661232975
 20
174.8862258484844
 30
0.0
 11
575.10764661232975
 21
174.8862258484844
 31
0.0
  0
ARC
  5
3296
  8
AM_0
 10
605.10764661232975
 20
267.38622784848422
 30
0.0
 40
39.000011999999998
 50
143.2132099999989
 51
180.00001000000091
  0
ARC
  5
3297
  8
AM_0
 10
605.10764661232975
 20
244.18624684848439
 30
0.0
 40
76.000001999999981
 50
167.23980000000071
 51
181.39353999999909
  0
LINE
  5
3298
  8
AM_0
 10
512.60762961232956
 20
267.38622784848422
 30
0.0
 11
512.60762961232956
 21
237.38622784848431
 31
0.0
  0
LINE
  5
3299
  8
AM_0
 10
566.1076136123296
 20
267.38622784848422
 30
0.0
 11
566.1076136123296
 21
244.18624684848439
 31
0.0
  0
LINE
  5
329A
  8
AM_0
 10
530.2427006123296
 20
239.1862458484843
 30
0.0
 11
561.10763061232967
 21
239.1862458484843
 31
0.0
  0
ARC
  5
329B
  8
AM_0
 10
561.10763061232967
 20
244.18624684848439
 30
0.0
 40
5.0000000999999994
 50
270.0
 51
0.0
  0
ARC
  5
329C
  8
AM_0
 10
605.10764661232975
 20
267.38622784848422
 30
0.0
 40
74.400002999999998
 50
171.8834499999985
 51
184.94541999999871
  0
CIRCLE
  5
329D
  8
AM_5
 10
605.10764661232975
 20
267.38622784848422
 30
0.0
 40
4.000000199999997
  0
CIRCLE
  5
329E
  8
AM_0
 10
605.10764661232975
 20
267.38622784848422
 30
0.0
 40
3.0
  0
ARC
  5
329F
  8
AM_0
 10
605.10764661232975
 20
267.38622784848422
 30
0.0
 40
14.000001299999999
 50
106.6015399999982
 51
73.398452000001825
  0
LINE
  5
32A0
  8
AM_0
 10
601.10762961232956
 20
284.38622884848439
 30
0.0
 11
609.10763061232956
 21
284.38622884848439
 31
0.0
  0
LINE
  5
32A1
  8
AM_0
 10
601.10762961232956
 20
277.38624484848441
 30
0.0
 11
609.10763061232956
 21
277.38624484848441
 31
0.0
  0
LINE
  5
32A2
  8
AM_0
 10
601.10762961232956
 20
277.38624484848441
 30
0.0
 11
601.10762961232956
 21
284.38622884848439
 31
0.0
  0
LINE
  5
32A3
  8
AM_0
 10
609.10763061232956
 20
277.38624484848441
 30
0.0
 11
609.10763061232956
 21
284.38622884848439
 31
0.0
  0
LINE
  5
32A4
  8
AM_0
 10
697.60764861232974
 20
237.3862428484843
 30
0.0
 11
695.2021226123295
 21
191.4861558484844
 31
0.0
  0
ARC
  5
32A5
  8
AM_0
 10
605.10764661232838
 20
244.18624684848481
 30
0.0
 40
100.0000000000005
 50
335.01641703692388
 51
22.331641993391059
  0
ARC
  5
32A6
  8
AM_0
 10
646.85764761232963
 20
171.87310384848431
 30
0.0
 40
8.0000000999999976
 50
216.73874000000009
 51
23.261258000001192
  0
ARC
  5
32A7
  8
AM_0
 10
680.22267561232957
 20
192.27118984848431
 30
0.0
 40
15.00000029999998
 50
272.99999999999909
 51
357.00000000000091
  0
ARC
  5
32A8
  8
AM_0
 10
680.22267561232957
 20
192.27118984848431
 30
0.0
 40
15.00000029999998
 50
272.99999999999909
 51
357.00000000000091
  0
CIRCLE
  5
32A9
  8
AM_0
 10
681.12162561232935
 20
191.3722338484844
 30
0.0
 40
6.0000002999999991
  0
ARC
  5
32AA
  8
AM_0
 10
605.10764661232975
 20
244.18624684848439
 30
0.0
 40
76.000001999999981
 50
358.60644999999948
 51
12.760201999999399
  0
LINE
  5
32AB
  8
AM_0
 10
644.10766161232959
 20
267.38622784848422
 30
0.0
 11
644.10766161232959
 21
244.18624684848439
 31
0.0
  0
LINE
  5
32AC
  8
AM_0
 10
697.60764861232974
 20
267.38622784848422
 30
0.0
 11
697.60764861232974
 21
237.38622784848431
 31
0.0
  0
LINE
  5
32AD
  8
AM_0
 10
679.97259261232955
 20
239.1862458484843
 30
0.0
 11
649.10766261232948
 21
239.1862458484843
 31
0.0
  0
ARC
  5
32AE
  8
AM_0
 10
649.10766261232948
 20
244.18624684848439
 30
0.0
 40
5.0000000999999994
 50
179.9999899999988
 51
270.0
  0
ARC
  5
32AF
  8
AM_0
 10
605.10764661232975
 20
267.38622784848422
 30
0.0
 40
74.400002999999998
 50
355.05458000000118
 51
8.1165493999996752
  0
ARC
  5
32B0
  8
AM_0
 10
605.10764661232975
 20
244.18624684848439
 30
0.0
 40
81.000003000000035
 50
58.860945000000022
 51
86.245803000000379
  0
LINE
  5
32B1
  8
AM_0
 10
636.62284461232957
 20
294.65881084848439
 30
0.0
 11
661.51063161232969
 21
319.54660084848439
 31
0.0
  0
LINE
  5
32B2
  8
AM_0
 10
632.38019961232976
 20
298.90142584848428
 30
0.0
 11
657.26800161232961
 21
323.78924584848431
 31
0.0
  0
LINE
  5
32B3
  8
AM_0
 10
635.10764661232975
 20
359.88623584848432
 30
0.0
 11
681.00771861232965
 21
357.48071584848418
 31
0.0
  0
LINE
  5
32B4
  8
AM_0
 10
575.10764661232975
 20
359.88623584848432
 30
0.0
 11
529.20757461232972
 21
357.48071584848418
 31
0.0
  0
LINE
  5
32B5
  8
AM_0
 10
577.83506361232958
 20
298.90145884848431
 30
0.0
 11
552.94729161232965
 21
323.78921584848428
 31
0.0
  0
LINE
  5
32B6
  8
AM_0
 10
573.59243361232961
 20
294.65881084848439
 30
0.0
 11
548.70465861232947
 21
319.54656784848419
 31
0.0
  0
LINE
  5
32B7
  8
AM_0
 10
512.60765961232948
 20
297.3862278484844
 30
0.0
 11
515.01317661232974
 21
343.28627584848431
 31
0.0
  0
ARC
  5
32B8
  8
AM_0
 10
555.06859761232965
 20
325.91052184848428
 30
0.0
 40
3.0
 50
130.5308599999999
 51
225.0
  0
ARC
  5
32B9
  8
AM_0
 10
546.58333761232973
 20
317.42526184848441
 30
0.0
 40
3.0
 50
45.00000099999918
 51
139.4691400000001
  0
ARC
  5
32BA
  8
AM_0
 10
529.99260861232972
 20
342.50126584848431
 30
0.0
 40
15.00000029999998
 50
92.999998999998397
 51
176.99999000000011
  0
ARC
  5
32BB
  8
AM_0
 10
529.99260861232972
 20
342.50126584848431
 30
0.0
 40
15.00000029999998
 50
92.999998999998397
 51
176.99999000000011
  0
CIRCLE
  5
32BC
  8
AM_0
 10
529.09368261232976
 20
343.40021584848432
 30
0.0
 40
6.0000002999999991
  0
LINE
  5
32BD
  8
AM_0
 10
607.60764561232975
 20
328.00598584848427
 30
0.0
 11
607.60764561232975
 21
338.5740858484844
 31
0.0
  0
LINE
  5
32BE
  8
AM_0
 10
602.60762961232967
 20
328.00598584848427
 30
0.0
 11
602.60762961232967
 21
338.5740858484844
 31
0.0
  0
ARC
  5
32BF
  8
AM_0
 10
605.10764661232975
 20
267.38622784848422
 30
0.0
 40
39.000011999999998
 50
53.213208000002012
 51
126.78679000000091
  0
ARC
  5
32C0
  8
AM_0
 10
579.95638461232954
 20
301.02273484848439
 30
0.0
 40
3.0
 50
225.0
 51
306.78679000000079
  0
ARC
  5
32C1
  8
AM_0
 10
599.60762961232956
 20
328.00598584848427
 30
0.0
 40
3.0
 50
273.75419999999917
 51
0.0
  0
ARC
  5
32C2
  8
AM_0
 10
605.10766008570613
 20
244.18621684848441
 30
0.0
 40
81.000003000000035
 50
93.754195000000834
 51
121.1390599999997
  0
ARC
  5
32C3
  8
AM_0
 10
630.25889361232976
 20
301.02273484848439
 30
0.0
 40
3.0
 50
233.21320999999909
 51
315.0
  0
ARC
  5
32C4
  8
AM_0
 10
610.60764561232975
 20
328.00598584848427
 30
0.0
 40
3.0
 50
180.00001000000091
 51
266.2458000000006
  0
LINE
  5
32C5
  8
AM_0
 10
605.10764661232975
 20
359.88623584848432
 30
0.0
 11
635.10764661232975
 21
359.88623584848432
 31
0.0
  0
ARC
  5
32C6
  8
AM_0
 10
599.60762961232956
 20
338.5740858484844
 30
0.0
 40
3.0
 50
0.0
 51
94.41791900000014
  0
LINE
  5
32C7
  8
AM_0
 10
605.10764661232975
 20
359.88623584848432
 30
0.0
 11
575.10764661232975
 21
359.88623584848432
 31
0.0
  0
ARC
  5
32C8
  8
AM_0
 10
610.60764561232975
 20
338.5740858484844
 30
0.0
 40
3.0
 50
85.582085999998768
 51
180.00001000000091
  0
ARC
  5
32C9
  8
ﾁｭｳｼﾝｾﾝ1
 10
605.10764661232997
 20
267.38622784848508
 30
0.0
 40
107.50001099999911
 50
38.02723199999901
 51
51.884149962778423
  0
LINE
  5
32CA
  8
AM_0
 10
697.60764261232976
 20
297.3862278484844
 30
0.0
 11
695.2021226123295
 21
343.28627584848431
 31
0.0
  0
ARC
  5
32CB
  8
AM_0
 10
655.14668061232965
 20
325.91052184848428
 30
0.0
 40
3.0
 50
315.0
 51
49.469137000000707
  0
ARC
  5
32CC
  8
AM_0
 10
663.63197061232961
 20
317.42526184848441
 30
0.0
 40
3.0
 50
40.530865000001221
 51
135.0
  0
ARC
  5
32CD
  8
AM_0
 10
680.22267561232957
 20
342.50126584848431
 30
0.0
 40
15.00000029999998
 50
3.0000000999988461
 51
86.999999000000216
  0
ARC
  5
32CE
  8
AM_0
 10
680.22267561232957
 20
342.50126584848431
 30
0.0
 40
15.00000029999998
 50
3.0000000999988461
 51
86.999999000000216
  0
LINE
  5
32CF
  8
ﾁｭｳｼﾝｾﾝ1
 10
673.28970177862925
 20
335.56830676119671
 30
0.0
 11
688.0978858364366
 21
350.3764885002837
 31
0.0
  0
CIRCLE
  5
32D0
  8
AM_0
 10
681.12162561232935
 20
343.40021584848432
 30
0.0
 40
6.0000002999999991
  0
LINE
  5
32D1
  8
AM_0
 10
223.05592120995891
 20
612.35391648211953
 30
0.0
 11
223.05592120995891
 21
414.35391648211959
 31
0.0
  0
LINE
  5
32D2
  8
AM_0
 10
213.055921209959
 20
413.35391648211947
 30
0.0
 11
213.055921209959
 21
613.35391648211953
 31
0.0
  0
LINE
  5
32D3
  8
AM_0
 10
265.05592120995902
 20
574.86314148211954
 30
0.0
 11
265.05592120995902
 21
554.82859148211969
 31
0.0
  0
LINE
  5
32D4
  8
AM_0
 10
226.055921209959
 20
449.84469148211957
 30
0.0
 11
263.05592120995902
 21
449.84469148211957
 31
0.0
  0
LINE
  5
32D5
  8
AM_0
 10
226.055921209959
 20
473.8792404821196
 30
0.0
 11
265.05592120995902
 21
473.8792404821196
 31
0.0
  0
LINE
  5
32D6
  8
AM_0
 10
267.05592120995902
 20
439.85391648211959
 30
0.0
 11
225.7944542099589
 21
436.24400548211952
 31
0.0
  0
LINE
  5
32D7
  8
AM_0
 10
213.055921209959
 20
413.35391648211947
 30
0.0
 11
222.055921209959
 21
413.35391648211947
 31
0.0
  0
ARC
  5
32D8
  8
AM_0
 10
222.055921209959
 20
414.35391648211959
 30
0.0
 40
1.0
 50
270.0
 51
0.0
  0
ARC
  5
32D9
  8
AM_0
 10
226.055921209959
 20
433.25542148211952
 30
0.0
 40
3.0
 50
94.999999999999716
 51
180.0
  0
ARC
  5
32DA
  8
AM_0
 10
226.055921209959
 20
446.8446914821194
 30
0.0
 40
3.0
 50
90.0
 51
180.0
  0
ARC
  5
32DB
  8
AM_0
 10
226.055921209959
 20
470.87924048211943
 30
0.0
 40
3.0
 50
90.0
 51
180.0
  0
LINE
  5
32DC
  8
AM_0
 10
265.05592120995902
 20
451.84469148211952
 30
0.0
 11
265.05592120995902
 21
471.87924048211931
 31
0.0
  0
ARC
  5
32DD
  8
AM_0
 10
263.05592120995902
 20
451.84469148211952
 30
0.0
 40
2.0
 50
270.0
 51
0.0
  0
ARC
  5
32DE
  8
AM_0
 10
267.05592120995902
 20
471.87924048211931
 30
0.0
 40
2.0
 50
120.0000000000005
 51
180.0
  0
LINE
  5
32DF
  8
AM_0
 10
226.055921209959
 20
552.82859148211958
 30
0.0
 11
265.05592120995902
 21
552.82859148211958
 31
0.0
  0
ARC
  5
32E0
  8
AM_0
 10
226.055921209959
 20
555.82859148211969
 30
0.0
 40
3.0
 50
180.0
 51
270.0
  0
ARC
  5
32E1
  8
AM_0
 10
267.05592120995902
 20
554.82859148211969
 30
0.0
 40
2.0
 50
180.0
 51
239.99999999999949
  0
LINE
  5
32E2
  8
AM_0
 10
226.055921209959
 20
576.86314148211954
 30
0.0
 11
263.05592120995902
 21
576.86314148211954
 31
0.0
  0
LINE
  5
32E3
  8
AM_0
 10
267.05592120995902
 20
586.85391648211953
 30
0.0
 11
225.7944542099589
 21
590.46382648211954
 31
0.0
  0
ARC
  5
32E4
  8
AM_0
 10
226.055921209959
 20
579.86314148211954
 30
0.0
 40
3.0
 50
180.0
 51
270.0
  0
ARC
  5
32E5
  8
AM_0
 10
226.055921209959
 20
593.45241148211937
 30
0.0
 40
3.0
 50
180.0
 51
265.00000000000028
  0
LINE
  5
32E6
  8
AM_0
 10
213.055921209959
 20
613.35391648211953
 30
0.0
 11
222.055921209959
 21
613.35391648211953
 31
0.0
  0
ARC
  5
32E7
  8
AM_0
 10
222.055921209959
 20
612.35391648211953
 30
0.0
 40
1.0
 50
0.0
 51
90.0
  0
ARC
  5
32E8
  8
AM_0
 10
263.05592120995902
 20
574.86314148211954
 30
0.0
 40
2.0
 50
0.0
 51
90.0
  0
ARC
  5
32E9
  8
ﾁｭｳｼﾝｾﾝ1
 10
605.10764661232918
 20
267.38622784848508
 30
0.0
 40
107.50001099999911
 50
128.11585003722149
 51
141.97276800000091
  0
LINE
  5
32EA
  8
ﾁｭｳｼﾝｾﾝ1
 10
536.92559144603024
 20
335.56830676119671
 30
0.0
 11
522.11740738822255
 21
350.3764885002837
 31
0.0
  0
ARC
  5
32EB
  8
ﾁｭｳｼﾝｾﾝ1
 10
605.10764661233225
 20
267.38622784848218
 30
0.0
 40
107.5000109999967
 50
307.93886311779232
 51
321.97275999999982
  0
LINE
  5
32EC
  8
ﾁｭｳｼﾝｾﾝ1
 10
672.39763463101315
 20
200.0962556575455
 30
0.0
 11
688.68130011009555
 21
183.81257619524871
 31
0.0
  0
TEXT
  5
33FF
  8
AM_0
 10
504.36985013609518
 20
542.86241688738482
 30
0.0
 40
10.0
  1
VX08-003AF~VX08-030AF
  0
ENDSEC
  0
EOF
