  0
SECTION
  2
HEADER
  9
$ACADVER
  1
AC1009
  9
$INSBASE
 10
0.0
 20
0.0
 30
0.0
  9
$EXTMIN
 10
175.13836889031609
 20
128.67392699279591
 30
-0.0000000000112498
  9
$EXTMAX
 10
880.22397052417955
 20
683.56914410335457
 30
0.0000000000002956
  9
$LIMMIN
 10
0.0
 20
0.0
  9
$LIMMAX
 10
853.5
 20
555.00000000000011
  9
$ORTHOMODE
 70
     0
  9
$REGENMODE
 70
     1
  9
$FILLMODE
 70
     1
  9
$QTEXTMODE
 70
     0
  9
$MIRRTEXT
 70
     1
  9
$DRAGMODE
 70
     2
  9
$LTSCALE
 40
3.0
  9
$OSMODE
 70
   551
  9
$ATTMODE
 70
     1
  9
$TEXTSIZE
 40
2.5
  9
$TRACEWID
 40
1.0
  9
$TEXTSTYLE
  7
STANDARD
  9
$CLAYER
  8
AM_0
  9
$CELTYPE
  6
BYLAYER
  9
$CECOLOR
 62
   256
  9
$DIMSCALE
 40
1.0
  9
$DIMASZ
 40
2.5
  9
$DIMEXO
 40
1.0
  9
$DIMDLI
 40
8.0
  9
$DIMRND
 40
0.0
  9
$DIMDLE
 40
0.0
  9
$DIMEXE
 40
0.6
  9
$DIMTP
 40
0.1
  9
$DIMTM
 40
0.1
  9
$DIMTXT
 40
2.5
  9
$DIMCEN
 40
0.0
  9
$DIMTSZ
 40
0.0
  9
$DIMTOL
 70
     0
  9
$DIMLIM
 70
     0
  9
$DIMTIH
 70
     0
  9
$DIMTOH
 70
     0
  9
$DIMSE1
 70
     0
  9
$DIMSE2
 70
     0
  9
$DIMTAD
 70
     1
  9
$DIMZIN
 70
     8
  9
$DIMBLK
  1

  9
$DIMASO
 70
     1
  9
$DIMSHO
 70
     1
  9
$DIMPOST
  1

  9
$DIMAPOST
  1
"
  9
$DIMALT
 70
     0
  9
$DIMALTD
 70
     2
  9
$DIMALTF
 40
0.0393701
  9
$DIMLFAC
 40
1.0
  9
$DIMTOFL
 70
     1
  9
$DIMTVP
 40
0.0
  9
$DIMTIX
 70
     0
  9
$DIMSOXD
 70
     0
  9
$DIMSAH
 70
     0
  9
$DIMBLK1
  1

  9
$DIMBLK2
  1

  9
$DIMSTYLE
  2
AM_ISO
  9
$DIMCLRD
 70
   256
  9
$DIMCLRE
 70
   256
  9
$DIMCLRT
 70
     4
  9
$DIMTFAC
 40
0.71
  9
$DIMGAP
 40
0.8
  9
$LUNITS
 70
     2
  9
$LUPREC
 70
     2
  9
$SKETCHINC
 40
1.0
  9
$FILLETRAD
 40
15.0
  9
$AUNITS
 70
     0
  9
$AUPREC
 70
     0
  9
$MENU
  1
.
  9
$ELEVATION
 40
0.0
  9
$PELEVATION
 40
0.0
  9
$THICKNESS
 40
0.0
  9
$LIMCHECK
 70
     0
  9
$BLIPMODE
 70
     0
  9
$CHAMFERA
 40
6.0
  9
$CHAMFERB
 40
3.0
  9
$SKPOLY
 70
     0
  9
$TDCREATE
 40
2452066.4609720372
  9
$TDUPDATE
 40
2458541.544754908
  9
$TDINDWG
 40
0.1242898958
  9
$TDUSRTIMER
 40
0.1242896875
  9
$USRTIMER
 70
     1
  9
$ANGBASE
 50
0.0
  9
$ANGDIR
 70
     0
  9
$PDMODE
 70
     0
  9
$PDSIZE
 40
0.0
  9
$PLINEWID
 40
0.0
  9
$COORDS
 70
     1
  9
$SPLFRAME
 70
     0
  9
$SPLINETYPE
 70
     6
  9
$SPLINESEGS
 70
     8
  9
$ATTDIA
 70
     1
  9
$ATTREQ
 70
     1
  9
$HANDLING
 70
     1
  9
$HANDSEED
  5
303A
  9
$SURFTAB1
 70
     6
  9
$SURFTAB2
 70
     6
  9
$SURFTYPE
 70
     6
  9
$SURFU
 70
     6
  9
$SURFV
 70
     6
  9
$UCSNAME
  2

  9
$UCSORG
 10
0.0
 20
0.0
 30
0.0
  9
$UCSXDIR
 10
1.0
 20
0.0
 30
0.0
  9
$UCSYDIR
 10
0.0
 20
1.0
 30
0.0
  9
$PUCSNAME
  2

  9
$PUCSORG
 10
0.0
 20
0.0
 30
0.0
  9
$PUCSXDIR
 10
1.0
 20
0.0
 30
0.0
  9
$PUCSYDIR
 10
0.0
 20
1.0
 30
0.0
  9
$USERI1
 70
     0
  9
$USERI2
 70
     0
  9
$USERI3
 70
     0
  9
$USERI4
 70
     0
  9
$USERI5
 70
     0
  9
$USERR1
 40
0.0
  9
$USERR2
 40
0.0
  9
$USERR3
 40
0.0
  9
$USERR4
 40
0.0
  9
$USERR5
 40
0.0
  9
$WORLDVIEW
 70
     1
  9
$SHADEDGE
 70
     3
  9
$SHADEDIF
 70
    70
  9
$TILEMODE
 70
     1
  9
$MAXACTVP
 70
    64
  9
$PLIMCHECK
 70
     0
  9
$PEXTMIN
 10
1.0000000000000000E+020
 20
1.0000000000000000E+020
 30
1.0000000000000000E+020
  9
$PEXTMAX
 10
-1.0000000000000000E+020
 20
-1.0000000000000000E+020
 30
-1.0000000000000000E+020
  9
$PLIMMIN
 10
0.0
 20
0.0
  9
$PLIMMAX
 10
420.0
 20
297.0
  9
$UNITMODE
 70
     0
  9
$VISRETAIN
 70
     1
  9
$PLINEGEN
 70
     0
  9
$PSLTSCALE
 70
     1
  0
ENDSEC
  0
SECTION
  2
TABLES
  0
TABLE
  2
VPORT
 70
     1
  0
VPORT
  2
*ACTIVE
 70
     0
 10
0.0
 20
0.0
 11
1.0
 21
1.0
 12
527.68116970724782
 22
406.1215355480752
 13
0.0
 23
0.0
 14
7.5
 24
7.5
 15
30.0
 25
30.0
 16
0.0
 26
0.0
 36
1.0
 17
0.0
 27
0.0
 37
0.0
 40
558.7045664271069
 41
1.7571592210767459
 42
50.0
 43
0.0
 44
0.0
 50
0.0
 51
0.0
 71
     0
 72
   100
 73
     1
 74
     3
 75
     0
 76
     0
 77
     0
 78
     0
  0
ENDTAB
  0
TABLE
  2
LTYPE
 70
    26
  0
LTYPE
  2
CONTINUOUS
 70
     0
  3
Solid line
 72
    65
 73
     0
 40
0.0
  0
LTYPE
  2
AM_ISO02W050
 70
     0
  3
__ __ __ __ __ __ __ __ __ __ __ __ __ __ __
 72
    65
 73
     2
 40
7.5
 49
6.0
 49
-1.5
  0
LTYPE
  2
AM_ISO08W050
 70
     0
  3
____ . ____ . ____ . ____ . ____ . ____ . ____
 72
    65
 73
     4
 40
18.0
 49
12.0
 49
-1.5
 49
3.0
 49
-1.5
  0
LTYPE
  2
AM_ISO09W050
 70
     0
  3
_____ . . _____ . . _____ . . ____ .. ____
 72
    65
 73
     6
 40
22.5
 49
12.0
 49
-1.5
 49
3.0
 49
-1.5
 49
3.0
 49
-1.5
  0
LTYPE
  2
AMCONSTR
 70
     0
  3
_______________________
 72
    65
 73
     2
 40
9999.0
 49
9999.0
 49
0.0
  0
LTYPE
  2
AM_ISO08W050X2
 70
     0
  3
__ . __ . __ . __ . __ . __
 72
    65
 73
     4
 40
9.0
 49
6.0
 49
-0.75
 49
1.5
 49
-0.75
  0
LTYPE
  2
AM_ISO02W050X2
 70
     0
  3
 _ _ _ _ _ _ _ _ _ _ _ _
 72
    65
 73
     2
 40
3.75
 49
3.0
 49
-0.75
  0
LTYPE
  2
AMZIGZAG
 70
     0
  3
/\/-/\/-/\/-/\/-/\/-/\/
 72
    65
 73
     2
 40
11.000099999999991
 49
0.0001
 49
-11.0
  0
LTYPE
  2
ACISOWELD
 70
     0
  3
_ _ _ _ _
 72
    65
 73
     2
 40
2.0
 49
2.0
 49
-1.0
  0
LTYPE
  2
ACISOTGB
 70
     0
  3
__ . . __ . .
 72
    65
 73
     6
 40
9.0
 49
4.0
 49
-1.0
 49
1.0
 49
-1.0
 49
1.0
 49
-1.0
  0
LTYPE
  2
ACISOTGL
 70
     0
  3
_ _ _ _ _
 72
    65
 73
     2
 40
3.0
 49
2.0
 49
-1.0
  0
LTYPE
  2
CENTER
 70
     0
  3
__ . __
 72
    65
 73
     4
 40
7.0
 49
4.0
 49
-1.0
 49
1.0
 49
-1.0
  0
LTYPE
  2
PHANTOM2
 70
     0
  3
Phantom (.5x) ___ _ _ ___ _ _ ___ _ _ ___ _ _
 72
    65
 73
     6
 40
31.75
 49
15.875
 49
-3.174999999999998
 49
3.174999999999998
 49
-3.174999999999998
 49
3.174999999999998
 49
-3.174999999999998
  0
LTYPE
  2
ACANSTGBM
 70
     0
  3
__ . . __ . .
 72
    65
 73
     6
 40
9.0
 49
4.0
 49
-1.0
 49
1.0
 49
-1.0
 49
1.0
 49
-1.0
  0
LTYPE
  2
ACANSTGLM
 70
     0
  3
_ _ _ _ _
 72
    65
 73
     2
 40
3.0
 49
2.0
 49
-1.0
  0
LTYPE
  2
GEN7
 70
     0
  3
____ . ____ . ____ . ____ . ____ . ____ . ____
 72
    65
 73
     4
 40
14.25
 49
9.75
 49
-1.5
 49
1.5
 49
-1.5
  0
LTYPE
  2
GEN7A
 70
     0
  3
__ . __ . __
 72
    65
 73
     4
 40
7.375
 49
4.75
 49
-0.875
 49
0.875
 49
-0.875
  0
LTYPE
  2
ACJISTGB
 70
     0
  3
__ . . __ . .
 72
    65
 73
     6
 40
9.0
 49
4.0
 49
-1.0
 49
1.0
 49
-1.0
 49
1.0
 49
-1.0
  0
LTYPE
  2
ACJISTGL
 70
     0
  3
_ _ _ _ _
 72
    65
 73
     2
 40
3.0
 49
2.0
 49
-1.0
  0
LTYPE
  2
HIDDEN
 70
     0
  3
Hidden __ __ __ __ __ __ __ __ __ __ __ __ __ _
 72
    65
 73
     2
 40
0.375
 49
0.25
 49
-0.125
  0
LTYPE
  2
CENTER2
 70
     0
  3
Center (.5x) ___ _ ___ _ ___ _ ___ _ ___ _ ___
 72
    65
 73
     4
 40
1.125
 49
0.75
 49
-0.125
 49
0.125
 49
-0.125
  0
LTYPE
  2
HIDDEN2
 70
     0
  3
Hidden (.5x) _ _ _ _ _ _ _ _ _ _ _ _ _ _ _ _ _
 72
    65
 73
     2
 40
0.1875
 49
0.125
 49
-0.0625
  0
LTYPE
  2
AMZIGZAG2
 70
     0
  3
/\/-/\/-/\/-/\/-/\/-/\/
 72
    65
 73
     2
 40
0.4401
 49
0.0001
 49
-0.4400000000000002
  0
LTYPE
  2
ACANSTGB
 70
     0
  3
__ . . __ . .
 72
    65
 73
     6
 40
0.35433070866
 49
0.15748031496
 49
-0.03937007874
 49
0.03937007874
 49
-0.03937007874
 49
0.03937007874
 49
-0.03937007874
  0
LTYPE
  2
ACANSTGL
 70
     0
  3
_ _ _ _ _
 72
    65
 73
     2
 40
0.11811023622
 49
0.07874015748
 49
-0.03937007874
  0
ENDTAB
  0
TABLE
  2
LAYER
 70
     6
  0
LAYER
  2
0
 70
     0
 62
     7
  6
CONTINUOUS
  0
LAYER
  2
AM_0
 70
     0
 62
     7
  6
CONTINUOUS
  0
LAYER
  2
AM_5
 70
     0
 62
     2
  6
CONTINUOUS
  0
LAYER
  2
DEFPOINTS
 70
     0
 62
     7
  6
CONTINUOUS
  0
LAYER
  2
ﾁｭｳｼﾝｾﾝ
 70
     0
 62
     1
  6
GEN7
  0
LAYER
  2
ﾁｭｳｼﾝｾﾝ1
 70
     0
 62
     1
  6
GEN7A
  0
ENDTAB
  0
TABLE
  2
STYLE
 70
     9
  0
STYLE
  2
STANDARD
 70
     0
 40
0.0
 41
0.8299999999999999
 50
0.0
 71
     0
 42
2.5
  3
txt.shx
  4
bigfont.shx
  0
STYLE
  2
ANNOTATIVE
 70
     0
 40
0.0
 41
1.0
 50
0.0
 71
     0
 42
0.2
  3
txt
  4

  0
STYLE
  2

 70
     1
 40
0.0
 41
1.0
 50
0.0
 71
     0
 42
2.5
  3
ltypeshp.shx
  4

  0
STYLE
  2
ACISOTS
 70
     0
 40
1.0
 41
1.0
 50
0.0
 71
     0
 42
2.5
  3
isocp.shx
  4
extfont.shx
  0
STYLE
  2
ACISOGDT
 70
     0
 40
0.0
 41
1.0
 50
0.0
 71
     0
 42
2.5
  3
amgdt.shx
  4

  0
STYLE
  2
ACANSTS
 70
     0
 40
1.0
 41
1.0
 50
0.0
 71
     0
 42
2.5
  3
romans.shx
  4
bigfont.shx
  0
STYLE
  2
ACANSGDT
 70
     0
 40
0.0
 41
1.0
 50
0.0
 71
     0
 42
2.5
  3
amgdt.shx
  4

  0
STYLE
  2
ACJISTS
 70
     0
 40
1.0
 41
1.0
 50
0.0
 71
     0
 42
2.5
  3
isocp.shx
  4
bigfont.shx
  0
STYLE
  2
ACJISGDT
 70
     0
 40
0.0
 41
1.0
 50
0.0
 71
     0
 42
2.5
  3
amgdt.shx
  4

  0
ENDTAB
  0
TABLE
  2
VIEW
 70
     6
  0
VIEW
  2
AM_VIEW1
 70
     0
 40
277.49999999999989
 10
249.64779005524849
 20
416.24999999999989
 41
499.2955801104971
 11
0.0
 21
0.0
 31
1.0
 12
0.0
 22
0.0
 32
0.0
 42
50.0
 43
0.0
 44
0.0
 50
0.0
 71
     0
  0
VIEW
  2
AM_VIEW2
 70
     0
 40
277.49999999999989
 10
603.85220994475117
 20
416.24999999999989
 41
499.2955801104971
 11
0.0
 21
0.0
 31
1.0
 12
0.0
 22
0.0
 32
0.0
 42
50.0
 43
0.0
 44
0.0
 50
0.0
 71
     0
  0
VIEW
  2
AM_VIEW3
 70
     0
 40
277.49999999999989
 10
249.64779005524849
 20
138.7499999999998
 41
499.2955801104971
 11
0.0
 21
0.0
 31
1.0
 12
0.0
 22
0.0
 32
0.0
 42
50.0
 43
0.0
 44
0.0
 50
0.0
 71
     0
  0
VIEW
  2
AM_VIEW4
 70
     0
 40
277.49999999999989
 10
603.85220994475117
 20
138.7499999999998
 41
499.2955801104971
 11
0.0
 21
0.0
 31
1.0
 12
0.0
 22
0.0
 32
0.0
 42
50.0
 43
0.0
 44
0.0
 50
0.0
 71
     0
  0
VIEW
  2
AM_VIEW5
 70
     0
 40
277.5
 10
426.75
 20
277.49999999999989
 41
499.2955801104971
 11
0.0
 21
0.0
 31
1.0
 12
0.0
 22
0.0
 32
0.0
 42
50.0
 43
0.0
 44
0.0
 50
0.0
 71
     0
  0
VIEW
  2
AM_VIEW6
 70
     0
 40
554.99445000000014
 10
426.75
 20
277.49999999999989
 41
998.5811743093924
 11
0.0
 21
0.0
 31
1.0
 12
0.0
 22
0.0
 32
0.0
 42
50.0
 43
0.0
 44
0.0
 50
0.0
 71
     0
  0
ENDTAB
  0
TABLE
  2
UCS
 70
     0
  0
ENDTAB
  0
TABLE
  2
APPID
 70
    95
  0
APPID
  2
ACAD
 70
     0
  0
APPID
  2
ACADANNOTATIVE
 70
     0
  0
APPID
  2
MCAD_NO_VIS
 70
     0
  0
APPID
  2
ACAD_TEMP_GRAPHIC
 70
     0
  0
APPID
  2
ACATTRIBSERVICES
 70
     0
  0
APPID
  2
GENIUS_GENREC_14
 70
     0
  0
APPID
  2
GENIUS_GENOBJ-N-REC_13
 70
     0
  0
APPID
  2
GENIUS_GENODEF_13
 70
     0
  0
APPID
  2
GENIUS_GENOLIS_13
 70
     0
  0
APPID
  2
GENIUS_GENOBJ-N-TIT_13
 70
     0
  0
APPID
  2
GENIUS_GENOENT_13
 70
     0
  0
APPID
  2
GENIUS_GENTITLE_13
 70
     0
  0
APPID
  2
GENIUS_GENOREF_13
 70
     0
  0
APPID
  2
GENIUS_GENSCREG_15
 70
     0
  0
APPID
  2
GENIUS_GENOBJ-N-SDF_13
 70
     0
  0
APPID
  2
GENIUS_GENFIL_13
 70
     0
  0
APPID
  2
GENIUS_GENOBJ-N-CHA_13
 70
     0
  0
APPID
  2
GENIUS_GENDTOL_13
 70
     0
  0
APPID
  2
GENIUS_GENOBJ-N-FIL_13
 70
     0
  0
APPID
  2
AD_DRAW
 70
     0
  0
APPID
  2
DESIGNERASSEMBLIES
 70
     0
  0
APPID
  2
ASURF_PCURVE_APPNAME
 70
     0
  0
APPID
  2
GENIUS_GE3SECT_13
 70
     0
  0
APPID
  2
GENIUS_GENCFG_13
 70
     0
  0
APPID
  2
GENIUS_GE3CFG0_13
 70
     0
  0
APPID
  2
GENIUS_GENCFG0_13
 70
     0
  0
APPID
  2
GENIUS_GENCFG1_13
 70
     0
  0
APPID
  2
GENIUS_GENCFG2_13
 70
     0
  0
APPID
  2
GENIUS_GENCFG3_13
 70
     0
  0
APPID
  2
GENIUS_GENCFG4_13
 70
     0
  0
APPID
  2
GENIUS_GEVCFG0_13
 70
     0
  0
APPID
  2
GENIUS_GENHINW_13
 70
     0
  0
APPID
  2
GENIUS_FIRSTVISTXT_14
 70
     0
  0
APPID
  2
GENIUS_GENOBJ-N-LEADER_13
 70
     0
  0
APPID
  2
GEV_VCCNULL_SWITCH_OFF
 70
     0
  0
APPID
  2
GENIUS_GEFCFG0_13
 70
     0
  0
APPID
  2
GENIUS_GENZVEED_13
 70
     0
  0
APPID
  2
GENIUS_GENSCREG_13
 70
     0
  0
APPID
  2
GENIUS_DUMCFG0_13
 70
     0
  0
APPID
  2
GEVID936201362
 70
     0
  0
APPID
  2
GEVDC
 70
     0
  0
APPID
  2
GEVCON
 70
     0
  0
APPID
  2
VCC
 70
     0
  0
APPID
  2
GEVPT
 70
     0
  0
APPID
  2
GEVIT
 70
     0
  0
APPID
  2
GENBH
 70
     0
  0
APPID
  2
GEVMK
 70
     0
  0
APPID
  2
GENIUS_GENBH_13
 70
     0
  0
APPID
  2
GENIUS_GENOBJ-NBEHI-BHF_13
 70
     0
  0
APPID
  2
GENIUS_GENOBJ-NBEHI-BHB_13
 70
     0
  0
APPID
  2
GENIUS_GENOBJ-F-DESC_13
 70
     0
  0
APPID
  2
GENIUS_GEFDESC_14
 70
     0
  0
APPID
  2
GENIUS_GENOBJ-F-PART_13
 70
     0
  0
APPID
  2
GENIUS_GEFSTDP_13
 70
     0
  0
APPID
  2
GENIUS_GEFPARTINS_13
 70
     0
  0
APPID
  2
GENIUS_GENTRA_14
 70
     0
  0
APPID
  2
GENIUS_GENINF13_13
 70
     0
  0
APPID
  2
GENIUS_GENOBJ-N-INFOPT_13
 70
     0
  0
APPID
  2
GENIUS_GENOBJ-N-RSSYM_13
 70
     0
  0
APPID
  2
GENIUS_GENSYMENT_13
 70
     0
  0
APPID
  2
GENIUS_GENSCSYM_13
 70
     0
  0
APPID
  2
GENIUS_GEFINFNAM_13
 70
     0
  0
APPID
  2
GENIUS_GENOBJ-N-CEN_13
 70
     0
  0
APPID
  2
GENIUS_GENOBJ-N-CRS_13
 70
     0
  0
APPID
  2
GENIUS_GENOBJ-N-CRC_13
 70
     0
  0
APPID
  2
GENIUS_GENCRC_14
 70
     0
  0
APPID
  2
GEVID942827039
 70
     0
  0
APPID
  2
GEVID942827040
 70
     0
  0
APPID
  2
GEVID942827041
 70
     0
  0
APPID
  2
GENIUS_GENOBJ-F-SCPASSM_13
 70
     0
  0
APPID
  2
GENIUS_GENDIMSH_14
 70
     0
  0
APPID
  2
GEVID942827042
 70
     0
  0
APPID
  2
GEVID946020473
 70
     0
  0
APPID
  2
GEVID946020474
 70
     0
  0
APPID
  2
GEVID946020475
 70
     0
  0
APPID
  2
GENIUS_GENOBJ-N-HTC_13
 70
     0
  0
APPID
  2
GENIUS_GENHATCH_13
 70
     0
  0
APPID
  2
GEVID948854295
 70
     0
  0
APPID
  2
GEVID939402019
 70
     0
  0
APPID
  2
GEVID952919491
 70
     0
  0
APPID
  2
GEVID952919492
 70
     0
  0
APPID
  2
GENIUS_GEFWELD_13
 70
     0
  0
APPID
  2
GENIUS_GENOBJ-F-WELS_13
 70
     0
  0
APPID
  2
GEVID952919493
 70
     0
  0
APPID
  2
GENIUS_GENOBJ-N-RSBK_13
 70
     0
  0
APPID
  2
GENIUS_GENOBJ-N-LIB_13
 70
     0
  0
APPID
  2
GENIUS_GENSCALE_13
 70
     0
  0
APPID
  2
GEVID986376691
 70
     0
  0
APPID
  2
DCO15
 70
     0
  0
APPID
  2
ACAD_DSTYLE_DIMBREAK
 70
     0
  0
APPID
  2
ACAD_DSTYLE_DIMJAG
 70
     0
  0
APPID
  2
ACAD_NAV_VCDISPLAY
 70
     0
  0
APPID
  2
ACADANNOPO
 70
     0
  0
APPID
  2
ACAD_EXEMPT_FROM_CAD_STANDARDS
 70
     0
  0
APPID
  2
ACAD_MLEADERVER
 70
     0
  0
ENDTAB
  0
TABLE
  2
DIMSTYLE
 70
    22
  0
DIMSTYLE
  2
STANDARD
 70
     0
  3

  4

  5

  6

  7

 40
1.0
 41
0.18
 42
0.0625
 43
0.38
 44
0.18
 45
0.0
 46
0.0
 47
0.0
 48
0.0
140
0.18
141
0.09
142
0.0
143
25.399999999999999
144
1.0
145
0.0
146
1.0
147
0.09
 71
     0
 72
     0
 73
     1
 74
     1
 75
     0
 76
     0
 77
     0
 78
     0
170
     0
171
     2
172
     0
173
     0
174
     0
175
     0
176
     0
177
     0
178
     0
  0
DIMSTYLE
  2
ANNOTATIVE
 70
     0
  3

  4

  5

  6

  7

 40
1.0
 41
0.18
 42
0.0625
 43
0.38
 44
0.18
 45
0.0
 46
0.0
 47
0.0
 48
0.0
140
0.18
141
0.09
142
0.0
143
25.399999999999999
144
1.0
145
0.0
146
1.0
147
0.09
 71
     0
 72
     0
 73
     1
 74
     1
 75
     0
 76
     0
 77
     0
 78
     0
170
     0
171
     2
172
     0
173
     0
174
     0
175
     0
176
     0
177
     0
178
     0
  0
DIMSTYLE
  2
AM_ISO
 70
     0
  3

  4
"
  5

  6

  7

 40
1.0
 41
2.5
 42
1.0
 43
8.0
 44
0.6
 45
0.0
 46
0.0
 47
0.1
 48
0.1
140
2.5
141
0.0
142
0.0
143
0.0393701
144
1.0
145
0.0
146
0.71
147
0.8
 71
     0
 72
     0
 73
     0
 74
     0
 75
     0
 76
     0
 77
     1
 78
     8
170
     0
171
     2
172
     1
173
     0
174
     0
175
     0
176
   256
177
   256
178
     4
  0
DIMSTYLE
  2
AM_ISO$3
 70
     0
  3

  4
"
  5

  6

  7

 40
1.0
 41
2.5
 42
1.0
 43
8.0
 44
0.6
 45
0.0
 46
0.0
 47
0.1
 48
0.1
140
2.5
141
0.0
142
0.0
143
0.0393701
144
1.0
145
0.0
146
0.71
147
0.8
 71
     0
 72
     0
 73
     0
 74
     1
 75
     0
 76
     0
 77
     1
 78
     8
170
     0
171
     2
172
     0
173
     0
174
     0
175
     0
176
   256
177
   256
178
     4
  0
DIMSTYLE
  2
AM_ISO$4
 70
     0
  3

  4
"
  5

  6

  7

 40
1.0
 41
2.5
 42
1.0
 43
8.0
 44
0.6
 45
0.0
 46
0.0
 47
0.1
 48
0.1
140
2.5
141
0.0
142
0.0
143
0.0393701
144
1.0
145
0.0
146
0.71
147
0.8
 71
     0
 72
     0
 73
     0
 74
     1
 75
     0
 76
     0
 77
     1
 78
     8
170
     0
171
     2
172
     0
173
     0
174
     0
175
     0
176
   256
177
   256
178
     4
  0
DIMSTYLE
  2
AM_ISO$6
 70
     0
  3

  4
"
  5

  6

  7

 40
1.0
 41
2.5
 42
1.0
 43
8.0
 44
0.6
 45
0.0
 46
0.0
 47
0.1
 48
0.1
140
2.5
141
0.0
142
0.0
143
0.0393701
144
1.0
145
0.0
146
0.71
147
0.8
 71
     0
 72
     0
 73
     0
 74
     0
 75
     0
 76
     0
 77
     0
 78
     8
170
     0
171
     2
172
     1
173
     0
174
     0
175
     0
176
   256
177
   256
178
     4
  0
DIMSTYLE
  2
AM_ISO$7
 70
     0
  3

  4
"
  5

  6

  7

 40
1.0
 41
2.5
 42
1.0
 43
8.0
 44
0.6
 45
0.0
 46
0.0
 47
0.1
 48
0.1
140
2.5
141
0.0
142
0.0
143
0.0393701
144
1.0
145
0.0
146
0.71
147
0.8
 71
     0
 72
     0
 73
     0
 74
     0
 75
     0
 76
     0
 77
     1
 78
     8
170
     0
171
     2
172
     1
173
     0
174
     0
175
     0
176
   256
177
   256
178
     4
  0
DIMSTYLE
  2
AM_ISO$SF
 70
     0
  3

  4
"
  5

  6

  7

 40
1.0
 41
2.5
 42
1.0
 43
10.0
 44
1.0
 45
0.0
 46
0.0
 47
0.1
 48
0.1
140
3.5
141
0.0
142
0.0
143
0.0393701
144
1.0
145
0.0
146
0.71
147
1.5
 71
     0
 72
     0
 73
     0
 74
     0
 75
     1
 76
     1
 77
     1
 78
     8
170
     0
171
     2
172
     1
173
     0
174
     0
175
     0
176
   256
177
   256
178
     2
  0
DIMSTYLE
  2
AM_ISO$SH
 70
     0
  3

  4
"
  5

  6

  7

 40
1.0
 41
2.5
 42
1.0
 43
10.0
 44
1.0
 45
0.0
 46
0.0
 47
0.1
 48
0.1
140
3.5
141
0.0
142
0.0
143
0.0393701
144
2.0
145
0.0
146
0.71
147
1.5
 71
     0
 72
     0
 73
     0
 74
     0
 75
     1
 76
     1
 77
     1
 78
     8
170
     0
171
     2
172
     1
173
     1
174
     0
175
     0
176
   256
177
   256
178
     2
  0
DIMSTYLE
  2
AM_JIS
 70
     0
  3

  4
"
  5

  6

  7

 40
1.0
 41
2.5
 42
1.0
 43
7.0
 44
1.0
 45
0.0
 46
0.0
 47
0.1
 48
0.1000000001
140
2.5
141
0.0
142
0.0
143
0.0393701
144
1.0
145
0.0
146
0.71
147
1.0
 71
     0
 72
     0
 73
     0
 74
     0
 75
     0
 76
     0
 77
     3
 78
     8
170
     0
171
     2
172
     1
173
     0
174
     0
175
     0
176
   256
177
   256
178
     4
  0
DIMSTYLE
  2
AM_JIS$3
 70
     0
  3

  4
"
  5

  6

  7

 40
1.0
 41
2.5
 42
1.0
 43
7.0
 44
1.0
 45
0.0
 46
0.0
 47
0.1
 48
0.1000000001
140
2.5
141
0.0
142
0.0
143
0.0393701
144
1.0
145
0.0
146
0.71
147
1.0
 71
     0
 72
     0
 73
     0
 74
     1
 75
     0
 76
     0
 77
     3
 78
     8
170
     0
171
     2
172
     0
173
     0
174
     0
175
     0
176
   256
177
   256
178
     4
  0
DIMSTYLE
  2
AM_JIS$4
 70
     0
  3

  4
"
  5

  6

  7

 40
1.0
 41
2.5
 42
1.0
 43
7.0
 44
1.0
 45
0.0
 46
0.0
 47
0.1
 48
0.1000000001
140
2.5
141
0.0
142
0.0
143
0.0393701
144
1.0
145
0.0
146
0.71
147
1.0
 71
     0
 72
     0
 73
     0
 74
     0
 75
     0
 76
     0
 77
     3
 78
     8
170
     0
171
     2
172
     0
173
     0
174
     0
175
     0
176
   256
177
   256
178
     4
  0
DIMSTYLE
  2
AM_JIS$6
 70
     0
  3

  4
"
  5

  6

  7

 40
1.0
 41
2.5
 42
1.0
 43
7.0
 44
1.0
 45
0.0
 46
0.0
 47
0.1
 48
0.1000000001
140
2.5
141
0.0
142
0.0
143
0.0393701
144
1.0
145
0.0
146
0.71
147
1.0
 71
     0
 72
     0
 73
     0
 74
     0
 75
     0
 76
     0
 77
     0
 78
     8
170
     0
171
     2
172
     1
173
     0
174
     0
175
     0
176
   256
177
   256
178
     4
  0
DIMSTYLE
  2
AM_JIS$7
 70
     0
  3

  4
"
  5

  6

  7

 40
1.0
 41
2.5
 42
1.0
 43
7.0
 44
1.0
 45
0.0
 46
0.0
 47
0.1
 48
0.1000000001
140
2.5
141
0.0
142
0.0
143
0.0393701
144
1.0
145
0.0
146
0.71
147
1.0
 71
     0
 72
     0
 73
     0
 74
     0
 75
     0
 76
     0
 77
     3
 78
     8
170
     0
171
     2
172
     1
173
     0
174
     0
175
     0
176
   256
177
   256
178
     4
  0
DIMSTYLE
  2
AM_JIS$SF
 70
     0
  3

  4
"
  5

  6

  7

 40
1.0
 41
2.5
 42
1.0
 43
10.0
 44
1.0
 45
0.0
 46
0.0
 47
0.1
 48
0.1
140
3.5
141
0.0
142
0.0
143
0.0393701
144
1.0
145
0.0
146
0.71
147
1.5
 71
     0
 72
     0
 73
     0
 74
     0
 75
     1
 76
     1
 77
     3
 78
     8
170
     0
171
     2
172
     1
173
     0
174
     0
175
     0
176
   256
177
   256
178
     4
  0
DIMSTYLE
  2
AM_JIS$SH
 70
     0
  3

  4
"
  5

  6

  7

 40
1.0
 41
2.5
 42
1.0
 43
10.0
 44
1.0
 45
0.0
 46
0.0
 47
0.1
 48
0.1
140
3.5
141
0.0
142
0.0
143
0.0393701
144
1.0
145
0.0
146
0.71
147
1.5
 71
     0
 72
     0
 73
     0
 74
     0
 75
     1
 76
     0
 77
     3
 78
     8
170
     0
171
     2
172
     1
173
     1
174
     0
175
     0
176
   256
177
   256
178
     4
  0
DIMSTYLE
  2
AM_ANSI
 70
     0
  3

  4
mm
  5

  6

  7

 40
1.0
 41
0.1
 42
0.05
 43
0.5
 44
0.1
 45
0.0
 46
0.0
 47
0.1
 48
0.1
140
0.12
141
0.0
142
0.0
143
25.399999999999999
144
1.0
145
0.0
146
0.71
147
0.06
 71
     0
 72
     0
 73
     1
 74
     1
 75
     0
 76
     0
 77
     0
 78
     7
170
     0
171
     2
172
     0
173
     0
174
     0
175
     0
176
   256
177
   256
178
     2
  0
DIMSTYLE
  2
AM_ANSI$3
 70
     0
  3

  4
mm
  5

  6

  7

 40
1.0
 41
0.1
 42
0.05
 43
0.5
 44
0.1
 45
0.0
 46
0.0
 47
0.1
 48
0.1
140
0.12
141
0.0
142
0.0
143
25.399999999999999
144
1.0
145
0.0
146
0.71
147
0.06
 71
     0
 72
     0
 73
     1
 74
     1
 75
     0
 76
     0
 77
     0
 78
     7
170
     0
171
     2
172
     0
173
     0
174
     0
175
     0
176
   256
177
   256
178
     2
  0
DIMSTYLE
  2
AM_ANSI$4
 70
     0
  3

  4
mm
  5

  6

  7

 40
1.0
 41
0.1
 42
0.05
 43
0.5
 44
0.1
 45
0.0
 46
0.0
 47
0.1
 48
0.1
140
0.12
141
0.0
142
0.0
143
25.399999999999999
144
1.0
145
0.0
146
0.71
147
0.06
 71
     0
 72
     0
 73
     1
 74
     1
 75
     0
 76
     0
 77
     0
 78
     7
170
     0
171
     2
172
     0
173
     0
174
     0
175
     0
176
   256
177
   256
178
     2
  0
DIMSTYLE
  2
AM_ANSI$7
 70
     0
  3

  4
mm
  5

  6

  7

 40
1.0
 41
0.1
 42
0.05
 43
0.5
 44
0.1
 45
0.0
 46
0.0
 47
0.1
 48
0.1
140
0.24
141
0.0
142
0.0
143
25.399999999999999
144
1.0
145
0.0
146
0.71
147
0.06
 71
     0
 72
     0
 73
     1
 74
     1
 75
     0
 76
     0
 77
     0
 78
     7
170
     0
171
     2
172
     0
173
     0
174
     0
175
     0
176
   256
177
   256
178
     2
  0
DIMSTYLE
  2
AM_ANSI$SF
 70
     0
  3

  4
mm
  5

  6

  7

 40
1.0
 41
0.1
 42
0.05
 43
0.5
 44
0.1
 45
0.0
 46
0.0
 47
0.1
 48
0.1
140
0.12
141
0.0
142
0.0
143
25.399999999999999
144
1.0
145
0.0
146
0.71
147
0.06
 71
     0
 72
     0
 73
     1
 74
     1
 75
     1
 76
     1
 77
     0
 78
     7
170
     0
171
     2
172
     0
173
     0
174
     0
175
     0
176
   256
177
   256
178
     2
  0
DIMSTYLE
  2
AM_ANSI$SH
 70
     0
  3

  4
mm
  5

  6

  7

 40
1.0
 41
0.1
 42
0.05
 43
0.5
 44
0.1
 45
0.0
 46
0.0
 47
0.1
 48
0.1
140
0.12
141
0.0
142
0.0
143
25.399999999999999
144
1.0
145
0.0
146
0.71
147
0.06
 71
     0
 72
     0
 73
     1
 74
     1
 75
     1
 76
     1
 77
     0
 78
     7
170
     0
171
     2
172
     0
173
     1
174
     0
175
     0
176
   256
177
   256
178
     2
  0
ENDTAB
  0
ENDSEC
  0
SECTION
  2
BLOCKS
  0
BLOCK
  8
0
  2
$MODEL_SPACE
 70
     0
 10
0.0
 20
0.0
 30
0.0
  3
$MODEL_SPACE
  1

  0
ENDBLK
  5
2E9C
  8
0
  0
BLOCK
 67
     1
  8
0
  2
$PAPER_SPACE
 70
     0
 10
0.0
 20
0.0
 30
0.0
  3
$PAPER_SPACE
  1

  0
ENDBLK
  5
2E98
 67
     1
  8
0
  0
BLOCK
  8
0
  2
GENAXEH
 70
     0
 10
0.0
 20
0.0
 30
0.0
  3
GENAXEH
  1

  0
LINE
  5
2C78
  8
0
 10
-1.0
 20
0.0
 30
0.0
 11
1.0
 21
0.0
 31
0.0
  0
ENDBLK
  5
2C79
  8
0
  0
BLOCK
  8
0
  2
_OPEN30
 70
     0
 10
0.0
 20
0.0
 30
0.0
  3
_OPEN30
  1

  0
LINE
  5
2C7C
  8
0
 62
     0
 10
-1.0
 20
0.26794919
 30
0.0
 11
0.0
 21
0.0
 31
0.0
  0
LINE
  5
2C7D
  8
0
 62
     0
 10
0.0
 20
0.0
 30
0.0
 11
-1.0
 21
-0.26794919
 31
0.0
  0
LINE
  5
2C7E
  8
0
 62
     0
 10
0.0
 20
0.0
 30
0.0
 11
-1.0
 21
0.0
 31
0.0
  0
ENDBLK
  5
2C7F
  8
0
  0
BLOCK
  8
0
  2
_NONE
 70
     0
 10
0.0
 20
0.0
 30
0.0
  3
_NONE
  1

  0
ENDBLK
  5
2C82
  8
0
  0
BLOCK
  8
0
  2
*U5
 70
     1
 10
0.0
 20
0.0
 30
0.0
  3
*U5
  1

  0
TEXT
  5
2C85
  8
AM_0
 62
     4
 10
170.14049887647741
 20
219.0195070454055
 30
0.0
 40
7.5
  1
\U+2205
 50
90.0
 41
0.8299999999999999
  0
TEXT
  5
2C86
  8
AM_0
 62
     4
 10
170.14049887647741
 20
225.2445070454053
 30
0.0
 40
7.5
  1
200
 50
90.0
 41
0.8299999999999999
  0
ENDBLK
  5
2C87
  8
0
  0
BLOCK
  8
0
  2
*U6
 70
     1
 10
0.0
 20
0.0
 30
0.0
  3
*U6
  1

  0
TEXT
  5
2C8A
  8
AM_0
 62
     4
 10
190.25657224254161
 20
214.3507570454054
 30
0.0
 40
7.5
  1
\U+2205
 50
90.0
 41
0.8299999999999999
  0
TEXT
  5
2C8B
  8
AM_0
 62
     4
 10
190.25657224254161
 20
220.57575704540531
 30
0.0
 40
7.5
  1
130
 50
90.0
 41
0.8299999999999999
  0
TEXT
  5
2C8C
  8
AM_0
 62
     4
 10
190.25657224254161
 20
236.1382570454054
 30
0.0
 40
6.0
  1
G7
 50
90.0
 41
0.8299999999999999
  0
ENDBLK
  5
2C8D
  8
0
  0
BLOCK
  8
0
  2
*U7
 70
     1
 10
0.0
 20
0.0
 30
0.0
  3
*U7
  1

  0
TEXT
  5
2C90
  8
AM_0
 62
     4
 10
473.93634441464468
 20
188.11034060524679
 30
0.0
 40
7.5
  1
\U+2205
 50
90.0
 41
0.8299999999999999
  0
TEXT
  5
2C91
  8
AM_0
 62
     4
 10
473.93634441464468
 20
194.3353406052469
 30
0.0
 40
7.5
  1
210
 50
90.0
 41
0.8299999999999999
  0
TEXT
  5
2C92
  8
AM_0
 62
     4
 10
473.93634441464468
 20
209.8978406052469
 30
0.0
 40
6.0
  1
h7
 50
90.0
 41
0.8299999999999999
  0
ENDBLK
  5
2C93
  8
0
  0
BLOCK
  8
0
  2
*U8
 70
     1
 10
0.0
 20
0.0
 30
0.0
  3
*U8
  1

  0
TEXT
  5
2C96
  8
AM_0
 62
     4
 10
515.60569629274562
 20
247.65700754540521
 30
0.0
 40
7.5
  1
\U+2205
 50
90.0
 41
0.8299999999999999
  0
TEXT
  5
2C97
  8
AM_0
 62
     4
 10
515.60569629274562
 20
253.88200754540529
 30
0.0
 40
7.5
  1
32
 50
90.0
 41
0.8299999999999999
  0
TEXT
  5
2C98
  8
AM_0
 62
     4
 10
515.60569629274562
 20
266.33200754540542
 30
0.0
 40
6.0
  1
h6
 50
90.0
 41
0.8299999999999999
  0
ENDBLK
  5
2C99
  8
0
  0
BLOCK
  8
0
  2
*U9
 70
     1
 10
0.0
 20
0.0
 30
0.0
  3
*U9
  1

  0
TEXT
  5
2C9C
  8
AM_0
 62
     4
 10
651.04044036072401
 20
413.17410509585397
 30
0.0
 40
7.5
  1
o
 41
0.8299999999999999
  0
TEXT
  5
2C9D
  8
AM_0
 62
     4
 10
658.45115464643834
 20
413.17410509585397
 30
0.0
 40
7.5
  1
 235
 41
0.8299999999999999
  0
ENDBLK
  5
2C9E
  8
0
  0
BLOCK
  8
0
  2
*U10
 70
     1
 10
0.0
 20
0.0
 30
0.0
  3
*U10
  1

  0
TEXT
  5
2CA1
  8
AM_0
 62
     4
 10
621.36382227897593
 20
417.25830485696952
 30
0.0
 40
7.5
  1
o
 41
0.8299999999999999
  0
TEXT
  5
2CA2
  8
AM_0
 62
     4
 10
628.77453656469004
 20
417.25830485696952
 30
0.0
 40
7.5
  1
 235
 41
0.8299999999999999
  0
ENDBLK
  5
2CA3
  8
0
  0
BLOCK
  8
0
  2
*U11
 70
     1
 10
0.0
 20
0.0
 30
0.0
  3
*U11
  1

  0
TEXT
  5
2CA6
  8
AM_0
 62
     4
 10
160.57995416079351
 20
218.4349568065208
 30
0.0
 40
7.5
  1
\U+2205
 50
90.0
 41
0.8299999999999999
  0
TEXT
  5
2CA7
  8
AM_0
 62
     4
 10
160.57995416079351
 20
224.6599568065208
 30
0.0
 40
7.5
  1
130
 50
90.0
 41
0.8299999999999999
  0
TEXT
  5
2CA8
  8
AM_0
 62
     4
 10
160.57995416079351
 20
240.22245680652091
 30
0.0
 40
6.0
  1
G7
 50
90.0
 41
0.8299999999999999
  0
ENDBLK
  5
2CA9
  8
0
  0
BLOCK
  8
0
  2
*U12
 70
     1
 10
0.0
 20
0.0
 30
0.0
  3
*U12
  1

  0
TEXT
  5
2CAC
  8
AM_0
 62
     4
 10
140.46388079472919
 20
223.1037068065209
 30
0.0
 40
7.5
  1
\U+2205
 50
90.0
 41
0.8299999999999999
  0
TEXT
  5
2CAD
  8
AM_0
 62
     4
 10
140.46388079472919
 20
229.3287068065209
 30
0.0
 40
7.5
  1
200
 50
90.0
 41
0.8299999999999999
  0
ENDBLK
  5
2CAE
  8
0
  0
BLOCK
  8
0
  2
*U13
 70
     1
 10
0.0
 20
0.0
 30
0.0
  3
*U13
  1

  0
TEXT
  5
2CB1
  8
AM_0
 62
     4
 10
444.25972633289632
 20
192.19454036636211
 30
0.0
 40
7.5
  1
\U+2205
 50
90.0
 41
0.8299999999999999
  0
TEXT
  5
2CB2
  8
AM_0
 62
     4
 10
444.25972633289632
 20
198.4195403663623
 30
0.0
 40
7.5
  1
210
 50
90.0
 41
0.8299999999999999
  0
TEXT
  5
2CB3
  8
AM_0
 62
     4
 10
444.25972633289632
 20
213.9820403663623
 30
0.0
 40
6.0
  1
h7
 50
90.0
 41
0.8299999999999999
  0
ENDBLK
  5
2CB4
  8
0
  0
BLOCK
  8
0
  2
*U14
 70
     1
 10
0.0
 20
0.0
 30
0.0
  3
*U14
  1

  0
TEXT
  5
2CB7
  8
AM_0
 62
     4
 10
485.9290782109972
 20
251.74120730652081
 30
0.0
 40
7.5
  1
\U+2205
 50
90.0
 41
0.8299999999999999
  0
TEXT
  5
2CB8
  8
AM_0
 62
     4
 10
485.9290782109972
 20
257.9662073065208
 30
0.0
 40
7.5
  1
32
 50
90.0
 41
0.8299999999999999
  0
TEXT
  5
2CB9
  8
AM_0
 62
     4
 10
485.9290782109972
 20
270.4162073065209
 30
0.0
 40
6.0
  1
h6
 50
90.0
 41
0.8299999999999999
  0
ENDBLK
  5
2CBA
  8
0
  0
BLOCK
  8
0
  2
_ACMFILLEDHALF
 70
     0
 10
0.0
 20
0.0
 30
0.0
  3
_ACMFILLEDHALF
  1

  0
TRACE
  5
2FA6
  8
AM_0
 62
     0
 10
-0.8
 20
0.0
 30
0.0
 11
-1.0
 21
0.166666666
 31
0.0
 12
0.0
 22
0.0
 32
0.0
 13
0.0
 23
0.0
 33
0.0
  0
LINE
  5
2FA7
  8
AM_0
 62
     0
 10
-1.0
 20
0.0
 30
0.0
 11
-0.8
 21
0.0
 31
0.0
  0
ENDBLK
  5
2FA5
  8
0
  0
ENDSEC
  0
SECTION
  2
ENTITIES
  0
LINE
  5
2CBC
  8
AM_0
 10
422.29957801888941
 20
561.05304601453622
 30
0.0
 11
467.29960801888939
 21
561.05304601453622
 31
0.0
  0
LINE
  5
2CBD
  8
AM_0
 10
422.29957801888941
 20
571.05304601453611
 30
0.0
 11
467.29960801888939
 21
571.05304601453611
 31
0.0
  0
LINE
  5
2CBE
  8
AM_0
 10
467.29960801888939
 20
550.05307601453626
 30
0.0
 11
409.29957801888941
 21
550.05307601453626
 31
0.0
  0
LINE
  5
2CBF
  8
AM_0
 10
467.29960801888939
 20
582.05304601453611
 30
0.0
 11
409.29957801888941
 21
582.05304601453611
 31
0.0
  0
LINE
  5
2CC0
  8
ﾁｭｳｼﾝｾﾝ
 10
175.14926621580059
 20
566.05304601453611
 30
0.0
 11
475.21238801888961
 21
566.05304601453611
 31
0.0
  0
POLYLINE
  5
2CC1
  8
AM_0
 66
     1
 10
0.0
 20
0.0
 30
0.0
  0
VERTEX
  5
2CC2
  8
AM_0
 10
382.96568801888952
 20
668.71917601453595
 30
0.0
 42
0.07982674
  0
VERTEX
  5
2CC3
  8
AM_0
 10
357.12385801888962
 20
601.81272601453611
 30
0.0
 42
0.10414855
  0
VERTEX
  5
2CC4
  8
AM_0
 10
357.12392801888939
 20
530.29299601453602
 30
0.0
 42
0.07982627
  0
VERTEX
  5
2CC5
  8
AM_0
 10
382.96568801888952
 20
463.38690601453618
 30
0.0
  0
SEQEND
  5
2CC6
  8
AM_0
  0
ARC
  5
2CC7
  8
AM_0
 10
422.29957801888941
 20
566.05304601453611
 30
0.0
 40
5.0
 50
90.000003000000945
 51
270.0
  0
LINE
  5
2CC8
  8
AM_0
 10
422.29957801888941
 20
571.05304601453611
 30
0.0
 11
422.29957801888941
 21
561.05304601453622
 31
0.0
  0
LINE
  5
2CC9
  8
AM_0
 10
390.29957801888952
 20
451.97391601453592
 30
0.0
 11
390.29957801888952
 21
680.13214601453615
 31
0.0
  0
LINE
  5
2CCA
  8
AM_0
 10
397.29957801888952
 20
475.45331601453591
 30
0.0
 11
397.29957801888952
 21
656.65277601453613
 31
0.0
  0
LINE
  5
2CCB
  8
AM_0
 10
405.29957801888941
 20
448.55304601453588
 30
0.0
 11
405.29957801888941
 21
683.55304601453611
 31
0.0
  0
LINE
  5
2CCC
  8
AM_0
 10
409.29957801888941
 20
461.0530160145359
 30
0.0
 11
409.29957801888941
 21
671.05304601453611
 31
0.0
  0
LINE
  5
2CCD
  8
AM_0
 10
235.7995480188896
 20
492.55304601453599
 30
0.0
 11
235.7995480188896
 21
639.55304601453588
 31
0.0
  0
LINE
  5
2CCE
  8
AM_0
 10
270.29954801888942
 20
475.13193601453622
 30
0.0
 11
270.29954801888942
 21
656.97418601453614
 31
0.0
  0
LINE
  5
2CCF
  8
AM_0
 10
282.29954801888948
 20
500.98083601453618
 30
0.0
 11
282.29954801888948
 21
631.12524601453595
 31
0.0
  0
LINE
  5
2CD0
  8
AM_0
 10
292.29954801888942
 20
466.55304601453599
 30
0.0
 11
292.29954801888942
 21
665.55304601453611
 31
0.0
  0
LINE
  5
2CD1
  8
AM_0
 10
292.2996080188895
 20
466.55304601453599
 30
0.0
 11
380.99733801888959
 21
463.4556360145362
 31
0.0
  0
ARC
  5
2CD2
  8
AM_0
 10
285.2995480188896
 20
469.79931601453592
 30
0.0
 40
3.0
 50
180.00001000000091
 51
267.99999999999932
  0
LINE
  5
2CD3
  8
AM_0
 10
285.19487801888943
 20
466.80111601453592
 30
0.0
 11
292.29948801888958
 21
466.55304601453599
 31
0.0
  0
LINE
  5
2CD4
  8
AM_0
 10
235.79948801888949
 20
492.55301601453618
 30
0.0
 11
267.86937801888962
 21
491.43310601453618
 31
0.0
  0
LINE
  5
2CD5
  8
AM_0
 10
235.7995480188896
 20
526.57837601453605
 30
0.0
 11
270.29954801888942
 21
526.57837601453605
 31
0.0
  0
LINE
  5
2CD6
  8
AM_0
 10
235.7995480188896
 20
504.47439601453601
 30
0.0
 11
270.29954801888942
 21
504.47439601453601
 31
0.0
  0
ARC
  5
2CD7
  8
AM_0
 10
279.3367780188895
 20
469.13193601453588
 30
0.0
 40
3.0
 50
6.3862994000025628
 51
90.000003000000945
  0
ARC
  5
2CD8
  8
AM_0
 10
279.2995480188896
 20
480.16302601453589
 30
0.0
 40
3.0
 50
0.0
 51
90.000003000000945
  0
ARC
  5
2CD9
  8
AM_0
 10
279.2995480188896
 20
500.98083601453618
 30
0.0
 40
3.0
 50
270.0
 51
0.0
  0
LINE
  5
2CDA
  8
AM_0
 10
270.29954801888942
 20
508.735476014536
 30
0.0
 11
282.29954801888948
 21
508.735476014536
 31
0.0
  0
LINE
  5
2CDB
  8
AM_0
 10
273.2995480188896
 20
472.131936014536
 30
0.0
 11
279.3367780188895
 21
472.131936014536
 31
0.0
  0
ARC
  5
2CDC
  8
AM_0
 10
273.2995480188896
 20
475.13193601453622
 30
0.0
 40
3.0
 50
180.00001000000091
 51
270.0
  0
LINE
  5
2CDD
  8
AM_0
 10
273.2995480188896
 20
483.163026014536
 30
0.0
 11
279.2995480188896
 21
483.163026014536
 31
0.0
  0
ARC
  5
2CDE
  8
AM_0
 10
273.2995480188896
 20
486.163026014536
 30
0.0
 40
3.0
 50
180.00001000000091
 51
270.0
  0
ARC
  5
2CDF
  8
AM_0
 10
267.29954801888942
 20
488.4512060145359
 30
0.0
 40
3.0
 50
0.0
 51
87.999999999999503
  0
LINE
  5
2CE0
  8
AM_0
 10
270.29954801888942
 20
497.9808360145359
 30
0.0
 11
279.2995480188896
 21
497.9808360145359
 31
0.0
  0
LINE
  5
2CE1
  8
AM_0
 10
282.29954801888948
 20
469.79931601453592
 30
0.0
 11
282.29954801888948
 21
480.16302601453589
 31
0.0
  0
LINE
  5
2CE2
  8
AM_0
 10
405.29957801888941
 20
461.0530160145359
 30
0.0
 11
409.29957801888941
 21
461.0530160145359
 31
0.0
  0
ARC
  5
2CE3
  8
AM_0
 10
393.29957801888952
 20
451.97391601453592
 30
0.0
 40
3.0
 50
179.9999899999988
 51
268.00000999999861
  0
LINE
  5
2CE4
  8
AM_0
 10
384.3583880188894
 20
461.99423601453589
 30
0.0
 11
390.29960801888961
 21
456.05301601453601
 31
0.0
  0
ARC
  5
2CE5
  8
AM_0
 10
380.8228380188894
 20
458.458686014536
 30
0.0
 40
5.0
 50
45.000000999996892
 51
87.999999999999503
  0
LINE
  5
2CE6
  8
AM_0
 10
393.19487801888948
 20
448.97571601453598
 30
0.0
 11
405.29957801888941
 21
448.5530160145359
 31
0.0
  0
ARC
  5
2CE7
  8
AM_0
 10
394.29957801888941
 20
475.45331601453591
 30
0.0
 40
3.0
 50
267.99999999999932
 51
0.0
  0
LINE
  5
2CE8
  8
AM_0
 10
394.01503801888958
 20
472.46139601453598
 30
0.0
 11
394.19487801888948
 21
472.45511601453597
 31
0.0
  0
ARC
  5
2CE9
  8
AM_0
 10
393.29957801888952
 20
507.14230601453602
 30
0.0
 40
3.0
 50
90.000003000000945
 51
180.00001000000091
  0
LINE
  5
2CEA
  8
AM_0
 10
393.29957801888952
 20
510.14230601453619
 30
0.0
 11
397.29957801888952
 21
510.14230601453619
 31
0.0
  0
LINE
  5
2CEB
  8
AM_0
 10
292.2996080188895
 20
665.55304601453611
 30
0.0
 11
380.9973680188894
 21
668.6504560145363
 31
0.0
  0
ARC
  5
2CEC
  8
AM_0
 10
285.2995480188896
 20
662.30676601453615
 30
0.0
 40
3.0
 50
91.999998000000545
 51
180.00001000000091
  0
LINE
  5
2CED
  8
AM_0
 10
235.7995480188896
 20
639.55304601453588
 30
0.0
 11
267.40422801888963
 21
640.65667601453595
 31
0.0
  0
LINE
  5
2CEE
  8
AM_0
 10
235.7995480188896
 20
605.52771601453617
 30
0.0
 11
270.29954801888942
 21
605.52771601453617
 31
0.0
  0
LINE
  5
2CEF
  8
AM_0
 10
235.7995480188896
 20
627.63165601453625
 30
0.0
 11
270.29954801888942
 21
627.63165601453625
 31
0.0
  0
ARC
  5
2CF0
  8
AM_0
 10
279.2995480188896
 20
651.94305601453607
 30
0.0
 40
3.0
 50
270.0
 51
0.0
  0
ARC
  5
2CF1
  8
AM_0
 10
279.3367780188895
 20
662.97418601453614
 30
0.0
 40
3.0
 50
270.0
 51
353.61370000000318
  0
ARC
  5
2CF2
  8
AM_0
 10
279.2995480188896
 20
631.12524601453595
 30
0.0
 40
3.0
 50
0.0
 51
90.000003000000945
  0
LINE
  5
2CF3
  8
AM_0
 10
270.29954801888942
 20
623.37060601453618
 30
0.0
 11
282.29954801888948
 21
623.37060601453618
 31
0.0
  0
LINE
  5
2CF4
  8
AM_0
 10
270.29954801888942
 20
634.12524601453595
 30
0.0
 11
279.2995480188896
 21
634.12524601453595
 31
0.0
  0
LINE
  5
2CF5
  8
AM_0
 10
273.2995480188896
 20
648.9430560145363
 30
0.0
 11
279.2995480188896
 21
648.9430560145363
 31
0.0
  0
ARC
  5
2CF6
  8
AM_0
 10
273.2995480188896
 20
645.9430560145363
 30
0.0
 40
3.0
 50
90.000003000000945
 51
180.00001000000091
  0
ARC
  5
2CF7
  8
AM_0
 10
267.29954801888942
 20
643.65484601453613
 30
0.0
 40
3.0
 50
272.0000000000004
 51
0.0
  0
LINE
  5
2CF8
  8
AM_0
 10
273.2995480188896
 20
659.97418601453614
 30
0.0
 11
279.3367780188895
 21
659.97418601453614
 31
0.0
  0
ARC
  5
2CF9
  8
AM_0
 10
273.2995480188896
 20
656.97418601453614
 30
0.0
 40
3.0
 50
90.000003000000945
 51
180.00001000000091
  0
LINE
  5
2CFA
  8
AM_0
 10
282.29954801888948
 20
662.30676601453615
 30
0.0
 11
282.29954801888948
 21
651.94305601453607
 31
0.0
  0
LINE
  5
2CFB
  8
AM_0
 10
285.19481801888952
 20
665.30493601453588
 30
0.0
 11
292.29948801888958
 21
665.55304601453611
 31
0.0
  0
ARC
  5
2CFC
  8
AM_0
 10
393.29957801888952
 20
624.96380601453632
 30
0.0
 40
3.0
 50
179.9999899999988
 51
270.0
  0
LINE
  5
2CFD
  8
AM_0
 10
393.29957801888952
 20
621.96380601453632
 30
0.0
 11
397.29957801888952
 21
621.96380601453632
 31
0.0
  0
ARC
  5
2CFE
  8
AM_0
 10
394.29957801888941
 20
656.65277601453613
 30
0.0
 40
3.0
 50
0.0
 51
91.999998000000545
  0
LINE
  5
2CFF
  8
AM_0
 10
394.01503801888958
 20
659.64465601453605
 30
0.0
 11
394.19487801888948
 21
659.65094601453609
 31
0.0
  0
LINE
  5
2D00
  8
AM_0
 10
405.29957801888941
 20
671.05304601453611
 30
0.0
 11
409.29957801888941
 21
671.05304601453611
 31
0.0
  0
LINE
  5
2D01
  8
AM_0
 10
384.3583880188894
 20
670.11181601453609
 30
0.0
 11
390.29957801888952
 21
676.05304601453611
 31
0.0
  0
ARC
  5
2D02
  8
AM_0
 10
380.8228380188894
 20
673.64740601453605
 30
0.0
 40
5.0
 50
272.0000000000004
 51
315.0
  0
LINE
  5
2D03
  8
AM_0
 10
393.19490801888941
 20
683.13037601453607
 30
0.0
 11
405.29957801888941
 21
683.55304601453611
 31
0.0
  0
ARC
  5
2D04
  8
AM_0
 10
393.29957801888952
 20
680.13214601453615
 30
0.0
 40
3.0
 50
91.999998000000545
 51
180.00001000000091
  0
LINE
  5
2D05
  8
AM_0
 10
467.29960801888939
 20
550.05307601453626
 30
0.0
 11
467.29960801888939
 21
582.05304601453611
 31
0.0
  0
ARC
  5
2D06
  8
AM_0
 10
394.29958801888938
 20
352.07845380652083
 30
0.0
 40
3.0
 50
0.0
 51
91.999998000000545
  0
LINE
  5
2D07
  8
AM_0
 10
393.29956801888949
 20
317.38945380652081
 30
0.0
 11
397.29958801888938
 21
317.38945380652081
 31
0.0
  0
LINE
  5
2D08
  8
AM_0
 10
393.29956801888949
 20
229.71445380652079
 30
0.0
 11
397.29958801888938
 21
229.71445380652079
 31
0.0
  0
LINE
  5
2D09
  8
AM_0
 10
393.29956801888949
 20
199.78942080652081
 30
0.0
 11
397.29958801888938
 21
199.78942080652081
 31
0.0
  0
LINE
  5
2D0A
  8
AM_0
 10
377.53654801888962
 20
131.7466788065208
 30
0.0
 11
398.29960801888939
 21
143.73424080652069
 31
0.0
  0
ARC
  5
2D0B
  8
AM_0
 10
394.29958801888938
 20
170.11070880652079
 30
0.0
 40
3.0
 50
272.0000000000004
 51
0.0
  0
LINE
  5
2D0C
  8
ﾁｭｳｼﾝｾﾝ
 10
470.41792801888948
 20
261.47869080652077
 30
0.0
 11
254.49602272129309
 21
261.47869080652077
 31
0.0
  0
LINE
  5
2D0D
  8
AM_0
 10
393.40426801888952
 20
143.56329780652089
 30
0.0
 11
405.2995680188896
 21
143.97868680652081
 31
0.0
  0
LINE
  5
2D0E
  8
AM_0
 10
393.19489801888949
 20
378.55597380652091
 30
0.0
 11
405.2995680188896
 21
378.97867380652082
 31
0.0
  0
LINE
  5
2D0F
  8
AM_0
 10
191.7995980188895
 20
332.47870680652068
 30
0.0
 11
191.7995980188895
 21
134.47870680652079
 31
0.0
  0
LINE
  5
2D10
  8
AM_0
 10
181.7995980188895
 20
133.47870680652079
 30
0.0
 11
181.7995980188895
 21
333.47870680652079
 31
0.0
  0
LINE
  5
2D11
  8
AM_0
 10
292.29958801888938
 20
332.97871380652089
 30
0.0
 11
292.29958801888938
 21
133.9786788065208
 31
0.0
  0
LINE
  5
2D12
  8
AM_0
 10
235.7995980188895
 20
159.97868880652081
 30
0.0
 11
235.7995980188895
 21
306.9787068065209
 31
0.0
  0
LINE
  5
2D13
  8
AM_0
 10
270.29959801888958
 20
324.5027538065209
 30
0.0
 11
270.29959801888958
 21
142.45525080652081
 31
0.0
  0
LINE
  5
2D14
  8
AM_0
 10
282.29959801888958
 20
173.09843880652079
 30
0.0
 11
282.29959801888958
 21
297.81079980652078
 31
0.0
  0
LINE
  5
2D15
  8
AM_0
 10
390.2995680188896
 20
232.71445380652079
 30
0.0
 11
390.2995680188896
 21
320.38945380652069
 31
0.0
  0
LINE
  5
2D16
  8
AM_0
 10
378.1874580188894
 20
310.51572480652078
 30
0.0
 11
373.76668801888962
 21
267.91182780652082
 31
0.0
  0
LINE
  5
2D17
  8
AM_0
 10
233.7995980188895
 20
294.98793180652081
 30
0.0
 11
233.7995980188895
 21
274.95338180652101
 31
0.0
  0
LINE
  5
2D18
  8
ﾁｭｳｼﾝｾﾝ
 10
175.14926621580059
 20
233.47870680652079
 30
0.0
 11
265.13558712390733
 21
233.47870680652079
 31
0.0
  0
LINE
  5
2D19
  8
AM_0
 10
235.7995980188895
 20
159.97868880652081
 30
0.0
 11
267.86941801888941
 21
158.85878580652081
 31
0.0
  0
LINE
  5
2D1A
  8
AM_0
 10
235.7995980188895
 20
194.0040198065208
 30
0.0
 11
270.29959801888958
 21
194.0040198065208
 31
0.0
  0
LINE
  5
2D1B
  8
AM_0
 10
235.7995980188895
 20
171.90004380652081
 30
0.0
 11
270.29959801888958
 21
171.90004380652081
 31
0.0
  0
LINE
  5
2D1C
  8
AM_0
 10
235.7995980188895
 20
272.95337580652068
 30
0.0
 11
270.29959801888958
 21
272.95337580652068
 31
0.0
  0
LINE
  5
2D1D
  8
AM_0
 10
194.7995980188895
 20
194.0040308065208
 30
0.0
 11
233.7995980188895
 21
194.0040308065208
 31
0.0
  0
LINE
  5
2D1E
  8
AM_0
 10
194.7995980188895
 20
169.9694818065208
 30
0.0
 11
231.7995980188895
 21
169.9694818065208
 31
0.0
  0
LINE
  5
2D1F
  8
AM_0
 10
235.7995980188895
 20
159.9787068065209
 30
0.0
 11
194.5381310188894
 21
156.36879580652089
 31
0.0
  0
LINE
  5
2D20
  8
AM_0
 10
181.7995980188895
 20
133.47870680652079
 30
0.0
 11
190.7995980188895
 21
133.47870680652079
 31
0.0
  0
ARC
  5
2D21
  8
AM_0
 10
190.7995980188895
 20
134.47870680652079
 30
0.0
 40
1.0
 50
270.0
 51
0.0
  0
ARC
  5
2D22
  8
AM_0
 10
194.7995980188895
 20
153.3802118065208
 30
0.0
 40
3.0
 50
94.99999999999973
 51
180.0
  0
ARC
  5
2D23
  8
AM_0
 10
194.7995980188895
 20
166.9694818065208
 30
0.0
 40
3.0
 50
90.0
 51
180.0
  0
ARC
  5
2D24
  8
AM_0
 10
194.7995980188895
 20
191.0040308065208
 30
0.0
 40
3.0
 50
90.0
 51
180.0
  0
LINE
  5
2D25
  8
AM_0
 10
233.7995980188895
 20
171.9694818065208
 30
0.0
 11
233.7995980188895
 21
192.0040308065208
 31
0.0
  0
ARC
  5
2D26
  8
AM_0
 10
231.7995980188895
 20
171.9694818065208
 30
0.0
 40
2.0
 50
270.0
 51
0.0
  0
ARC
  5
2D27
  8
AM_0
 10
235.7995980188895
 20
192.0040308065208
 30
0.0
 40
2.0
 50
120.0000000000005
 51
180.0
  0
LINE
  5
2D28
  8
AM_0
 10
194.7995980188895
 20
272.95338180652101
 30
0.0
 11
233.7995980188895
 21
272.95338180652101
 31
0.0
  0
ARC
  5
2D29
  8
AM_0
 10
194.7995980188895
 20
275.95338180652101
 30
0.0
 40
3.0
 50
180.0
 51
270.0
  0
ARC
  5
2D2A
  8
AM_0
 10
235.7995980188895
 20
274.95338180652101
 30
0.0
 40
2.0
 50
180.0
 51
239.99999999999949
  0
LINE
  5
2D2B
  8
AM_0
 10
390.2995680188896
 20
146.56146780652071
 30
0.0
 11
390.2995680188896
 21
196.78942080652081
 31
0.0
  0
LINE
  5
2D2C
  8
AM_0
 10
270.29959801888958
 20
153.0609018065208
 30
0.0
 11
388.56307801888948
 21
153.0609018065208
 31
0.0
  0
LINE
  5
2D2D
  8
AM_0
 10
270.29959801888958
 20
173.09843880652079
 30
0.0
 11
388.56307801888948
 21
173.09843880652079
 31
0.0
  0
LINE
  5
2D2E
  8
AM_0
 10
292.29958801888938
 20
133.97868780652081
 30
0.0
 11
377.5365780188896
 21
131.7466788065208
 31
0.0
  0
LINE
  5
2D2F
  8
AM_0
 10
282.29959801888958
 20
136.25927280652081
 30
0.0
 11
282.29959801888958
 21
153.0609018065208
 31
0.0
  0
ARC
  5
2D30
  8
AM_0
 10
280.29958801888938
 20
137.20714980652079
 30
0.0
 40
2.00000007
 50
0.0
 51
87.999999999999659
  0
ARC
  5
2D31
  8
AM_0
 10
273.29959801888958
 20
142.45525080652081
 30
0.0
 40
3.0
 50
179.9999899999988
 51
268.00000999999861
  0
ARC
  5
2D32
  8
AM_0
 10
273.29959801888958
 20
142.45463880652079
 30
0.0
 40
3.0
 50
179.9999899999988
 51
268.00000999999861
  0
LINE
  5
2D33
  8
AM_0
 10
273.19492801888958
 20
139.45646280652079
 30
0.0
 11
280.36942801888961
 21
139.20592980652069
 31
0.0
  0
LINE
  5
2D34
  8
AM_0
 10
284.22976801888922
 20
134.26049580652071
 30
0.0
 11
292.29958801888938
 21
133.97868780652081
 31
0.0
  0
ARC
  5
2D35
  8
AM_0
 10
284.29960801888939
 20
136.25927280652081
 30
0.0
 40
2.00000007
 50
179.9999899999988
 51
268.00000999999861
  0
ARC
  5
2D36
  8
AM_0
 10
267.29959801888958
 20
155.87685180652079
 30
0.0
 40
3.0
 50
0.0
 51
87.999999999999659
  0
ARC
  5
2D37
  8
AM_0
 10
393.29956801888949
 20
146.56146780652071
 30
0.0
 40
3.0
 50
179.9999899999988
 51
271.99999000000139
  0
LINE
  5
2D38
  8
AM_0
 10
392.58415801888953
 20
167.04898680652079
 30
0.0
 11
394.4043180188894
 21
167.1125388065208
 31
0.0
  0
LINE
  5
2D39
  8
AM_0
 10
292.29958801888938
 20
263.66402580652078
 30
0.0
 11
292.3011180188895
 21
263.66402580652078
 31
0.0
  0
ARC
  5
2D3A
  8
AM_0
 10
413.55310801888942
 20
263.78347080652082
 30
0.0
 40
40.000001999999981
 50
174.0759799999995
 51
234.45534000000009
  0
ARC
  5
2D3B
  8
AM_0
 10
393.29956801888949
 20
196.78942080652081
 30
0.0
 40
3.0
 50
90.000003000000945
 51
180.00001000000091
  0
ARC
  5
2D3C
  8
AM_0
 10
393.29956801888949
 20
232.71445380652079
 30
0.0
 40
3.0
 50
179.9999899999988
 51
270.0
  0
LINE
  5
2D3D
  8
AM_0
 10
235.7995980188895
 20
295.05735180652078
 30
0.0
 11
270.29959801888958
 21
295.05735180652078
 31
0.0
  0
LINE
  5
2D3E
  8
AM_0
 10
235.7995980188895
 20
306.9787068065209
 30
0.0
 11
267.40426801888941
 21
308.08234680652077
 31
0.0
  0
LINE
  5
2D3F
  8
AM_0
 10
194.7995980188895
 20
296.98793180652081
 30
0.0
 11
231.7995980188895
 21
296.98793180652081
 31
0.0
  0
LINE
  5
2D40
  8
AM_0
 10
235.7995980188895
 20
306.97870680652068
 30
0.0
 11
194.5381310188894
 21
310.5886168065208
 31
0.0
  0
ARC
  5
2D41
  8
AM_0
 10
194.7995980188895
 20
299.98793180652069
 30
0.0
 40
3.0
 50
180.0
 51
270.0
  0
ARC
  5
2D42
  8
AM_0
 10
194.7995980188895
 20
313.5772018065208
 30
0.0
 40
3.0
 50
180.0
 51
265.00000000000028
  0
LINE
  5
2D43
  8
AM_0
 10
181.7995980188895
 20
333.47870680652079
 30
0.0
 11
190.7995980188895
 21
333.47870680652079
 31
0.0
  0
ARC
  5
2D44
  8
AM_0
 10
190.7995980188895
 20
332.47870680652068
 30
0.0
 40
1.0
 50
0.0
 51
90.0
  0
ARC
  5
2D45
  8
AM_0
 10
231.7995980188895
 20
294.98793180652081
 30
0.0
 40
2.0
 50
0.0
 51
90.0
  0
LINE
  5
2D46
  8
AM_0
 10
390.2995680188896
 20
320.38945380652069
 30
0.0
 11
390.2995680188896
 21
375.55780380652089
 31
0.0
  0
LINE
  5
2D47
  8
AM_0
 10
354.81010801888948
 20
335.98918380652083
 30
0.0
 11
390.29959801888953
 21
371.47867380652082
 31
0.0
  0
LINE
  5
2D48
  8
AM_0
 10
270.29959801888958
 20
312.68311380652068
 30
0.0
 11
377.2930980188894
 21
312.68311380652068
 31
0.0
  0
LINE
  5
2D49
  8
AM_0
 10
292.29958801888938
 20
332.97871380652089
 30
0.0
 11
351.40543801888941
 21
334.52644380652077
 31
0.0
  0
ARC
  5
2D4A
  8
AM_0
 10
273.29959801888958
 20
324.5027538065209
 30
0.0
 40
3.0
 50
91.999998000000545
 51
180.00001000000091
  0
LINE
  5
2D4B
  8
AM_0
 10
282.29959801888958
 20
318.7813638065208
 30
0.0
 11
282.29959801888958
 21
330.69814380652082
 31
0.0
  0
LINE
  5
2D4C
  8
AM_0
 10
271.77811801888947
 20
290.86136880652077
 30
0.0
 11
280.72867801888952
 21
290.86136880652077
 31
0.0
  0
ARC
  5
2D4D
  8
AM_0
 10
280.29958801888938
 20
297.81079980652078
 30
0.0
 40
2.00000007
 50
0.0
 51
90.000003000000945
  0
ARC
  5
2D4E
  8
AM_0
 10
272.2996080188895
 20
301.8107688065208
 30
0.0
 40
2.00000007
 50
179.9999899999988
 51
270.0
  0
LINE
  5
2D4F
  8
AM_0
 10
272.2996080188895
 20
299.81080080652089
 30
0.0
 11
280.29958801888938
 21
299.81080080652089
 31
0.0
  0
ARC
  5
2D50
  8
AM_0
 10
280.29958801888938
 20
318.7813638065208
 30
0.0
 40
2.00000007
 50
270.0
 51
0.0
  0
ARC
  5
2D51
  8
AM_0
 10
267.29959801888958
 20
311.08054380652078
 30
0.0
 40
3.0
 50
272.0000000000004
 51
0.0
  0
ARC
  5
2D52
  8
AM_0
 10
272.2996080188895
 20
314.78134380652062
 30
0.0
 40
2.00000007
 50
90.000003000000945
 51
180.00001000000091
  0
LINE
  5
2D53
  8
AM_0
 10
272.2996080188895
 20
316.78135380652088
 30
0.0
 11
280.29958801888938
 21
316.78135380652088
 31
0.0
  0
ARC
  5
2D54
  8
AM_0
 10
280.29958801888938
 20
329.75026380652082
 30
0.0
 40
2.00000007
 50
272.0000000000004
 51
0.0
  0
LINE
  5
2D55
  8
AM_0
 10
273.19492801888958
 20
327.5009238065208
 30
0.0
 11
280.36942801888961
 21
327.75148380652081
 31
0.0
  0
LINE
  5
2D56
  8
AM_0
 10
284.22976801888922
 20
332.69689380652079
 30
0.0
 11
292.29958801888938
 21
332.97868380652068
 31
0.0
  0
ARC
  5
2D57
  8
AM_0
 10
284.29960801888939
 20
330.69814380652082
 30
0.0
 40
2.00000007
 50
91.999998000000545
 51
180.00001000000091
  0
ARC
  5
2D58
  8
AM_0
 10
357.2995680188896
 20
312.68311380652068
 30
0.0
 40
21.000000600000011
 50
354.07597999999939
 51
80.875524999999854
  0
ARC
  5
2D59
  8
AM_0
 10
393.29956801888949
 20
320.38945380652069
 30
0.0
 40
3.0
 50
179.9999899999988
 51
270.0
  0
ARC
  5
2D5A
  8
AM_0
 10
351.27454801888939
 20
339.5247438065208
 30
0.0
 40
5.0000001000000003
 50
271.49999999999932
 51
315.0
  0
LINE
  5
2D5B
  8
AM_0
 10
353.39959801888961
 20
334.5786438065208
 30
0.0
 11
360.62977801888962
 21
333.41740380652078
 31
0.0
  0
LINE
  5
2D5C
  8
AM_0
 10
394.01503801888958
 20
355.07032380652078
 30
0.0
 11
394.19485801888948
 21
355.07662380652079
 31
0.0
  0
ARC
  5
2D5D
  8
AM_0
 10
393.29956801888949
 20
375.55780380652089
 30
0.0
 40
3.0
 50
91.999998000000545
 51
180.00001000000091
  0
LINE
  5
2D5E
  8
ﾁｭｳｼﾝｾﾝ
 10
683.68061694293431
 20
128.7079578065208
 30
0.0
 11
683.68061694293431
 21
384.53003317318218
 31
0.0
  0
CIRCLE
  5
2D5F
  8
AM_0
 10
683.68061694293431
 20
261.47869080652077
 30
0.0
 40
99.000003000000021
  0
CIRCLE
  5
2D60
  8
AM_0
 10
683.68061694293431
 20
261.47869080652077
 30
0.0
 40
105.00000299999979
  0
LINE
  5
2D61
  8
AM_0
 10
405.2995680188896
 20
261.47869080652077
 30
0.0
 11
405.2995680188896
 21
378.97870380652091
 31
0.0
  0
LINE
  5
2D62
  8
AM_0
 10
409.29958801888932
 20
156.47868780652081
 30
0.0
 11
409.29958801888932
 21
366.47872380652092
 31
0.0
  0
LINE
  5
2D63
  8
AM_0
 10
397.29958801888938
 20
261.47869080652077
 30
0.0
 11
397.29958801888938
 21
352.07845380652083
 31
0.0
  0
CIRCLE
  5
2D64
  8
AM_0
 10
683.68061694293431
 20
261.47869080652077
 30
0.0
 40
29.000001000000001
  0
LINE
  5
2D65
  8
AM_0
 10
566.18061294293432
 20
261.47869080652077
 30
0.0
 11
566.18061294293432
 21
291.47867580652081
 31
0.0
  0
ARC
  5
2D66
  8
AM_0
 10
683.68061694293431
 20
261.47869080652077
 30
0.0
 40
89.000003999999961
 50
166.12423000000109
 51
179.5717700000001
  0
ARC
  5
2D67
  8
AM_0
 10
683.68061694293431
 20
261.47869080652077
 30
0.0
 40
48.0
 50
144.77683999999979
 51
180.00001000000091
  0
ARC
  5
2D68
  8
AM_0
 10
683.68061694293431
 20
261.47869080652077
 30
0.0
 40
48.0
 50
0.0
 51
35.223151999999843
  0
ARC
  5
2D69
  8
AM_0
 10
683.68061694293431
 20
261.47869080652077
 30
0.0
 40
89.000003999999961
 50
0.4282278599984297
 51
13.87576399999806
  0
LINE
  5
2D6A
  8
AM_0
 10
801.18060894293421
 20
261.47869080652077
 30
0.0
 11
801.18060894293421
 21
291.47867580652081
 31
0.0
  0
LINE
  5
2D6B
  8
ﾁｭｳｼﾝｾﾝ
 10
561.01294794293426
 20
261.47869080652077
 30
0.0
 11
805.49034894293425
 21
261.47869080652077
 31
0.0
  0
ARC
  5
2D6C
  8
AM_0
 10
683.68061694293431
 20
233.47870680652079
 30
0.0
 40
99.500004000000004
 50
242.8856599999979
 51
297.11435000000108
  0
LINE
  5
2D6D
  8
AM_0
 10
683.68061694293431
 20
143.97868680652081
 30
0.0
 11
713.68061694293442
 21
143.97868680652081
 31
0.0
  0
LINE
  5
2D6E
  8
ﾁｭｳｼﾝｾﾝ
 10
625.38765483529778
 20
233.47870680652079
 30
0.0
 11
741.220489982613
 21
233.47870680652079
 31
0.0
  0
ARC
  5
2D6F
  8
AM_0
 10
589.56806394293426
 20
167.36612580652081
 30
0.0
 40
20.000000700000001
 50
183.00000999999961
 51
267.0000000000008
  0
LINE
  5
2D70
  8
AM_0
 10
566.18058294293439
 20
231.4786908065208
 30
0.0
 11
569.5954379429345
 21
166.3194018065208
 31
0.0
  0
LINE
  5
2D71
  8
AM_0
 10
405.2995680188896
 20
143.97868680652081
 30
0.0
 11
405.2995680188896
 21
261.47869080652077
 31
0.0
  0
LINE
  5
2D72
  8
AM_0
 10
397.29958801888938
 20
170.11070880652079
 30
0.0
 11
397.29958801888938
 21
261.47869080652077
 31
0.0
  0
LINE
  5
2D73
  8
AM_0
 10
405.2995680188896
 20
156.47868780652081
 30
0.0
 11
409.29958801888932
 21
156.47868780652081
 31
0.0
  0
LINE
  5
2D74
  8
AM_0
 10
467.29960801888939
 20
280.47870780652062
 30
0.0
 11
422.29960801888922
 21
280.47870780652062
 31
0.0
  0
LINE
  5
2D75
  8
AM_0
 10
467.29960801888939
 20
277.47870780652062
 30
0.0
 11
409.29958801888932
 21
277.47870780652062
 31
0.0
  0
LINE
  5
2D76
  8
AM_0
 10
467.29960801888939
 20
245.47870680652079
 30
0.0
 11
409.29958801888932
 21
245.47870680652079
 31
0.0
  0
LINE
  5
2D77
  8
AM_0
 10
422.29960801888922
 20
277.47870780652062
 30
0.0
 11
422.29960801888922
 21
280.47870780652062
 31
0.0
  0
LINE
  5
2D78
  8
AM_0
 10
566.18061294293432
 20
261.47869080652077
 30
0.0
 11
566.18061294293432
 21
231.4786908065208
 31
0.0
  0
LINE
  5
2D79
  8
AM_0
 10
467.29960801888939
 20
245.47870680652079
 30
0.0
 11
467.29960801888939
 21
280.47870780652062
 31
0.0
  0
LINE
  5
2D7A
  8
AM_0
 10
653.68059894293435
 20
143.97868680652081
 30
0.0
 11
588.52134294293433
 21
147.39354480652079
 31
0.0
  0
CIRCLE
  5
2D7B
  8
AM_0
 10
588.22120194293439
 20
166.0192758065208
 30
0.0
 40
7.5000002999999982
  0
LINE
  5
2D7C
  8
AM_0
 10
683.68061694293431
 20
143.97868680652081
 30
0.0
 11
653.68059894293435
 21
143.97868680652081
 31
0.0
  0
ARC
  5
2D7D
  8
AM_0
 10
683.68061694293431
 20
233.47870680652079
 30
0.0
 40
93.500003999999976
 50
162.1467900000001
 51
183.00788
  0
LINE
  5
2D7E
  8
AM_0
 10
635.68059894293447
 20
261.47869080652077
 30
0.0
 11
635.68059894293447
 21
223.4787048065208
 31
0.0
  0
LINE
  5
2D7F
  8
AM_0
 10
630.68059794293436
 20
218.47870380652071
 30
0.0
 11
597.70386894293449
 21
218.47870380652071
 31
0.0
  0
ARC
  5
2D80
  8
AM_0
 10
597.70386894293449
 20
223.4787048065208
 30
0.0
 40
5.0000001000000003
 50
203.8444700000006
 51
270.0
  0
ARC
  5
2D81
  8
AM_0
 10
630.68059794293436
 20
223.4787048065208
 30
0.0
 40
5.0000001000000003
 50
270.0
 51
0.0
  0
ARC
  5
2D82
  8
AM_0
 10
683.68061694293431
 20
261.47869080652077
 30
0.0
 40
16.000000499999999
 50
108.2099600000016
 51
71.790051999998809
  0
ARC
  5
2D83
  8
AM_0
 10
683.68061694293431
 20
261.47869080652077
 30
0.0
 40
16.000000499999999
 50
108.2099600000016
 51
71.790051999998809
  0
CIRCLE
  5
2D84
  8
AM_5
 10
683.68061694293431
 20
261.47869080652077
 30
0.0
 40
4.000000199999997
  0
CIRCLE
  5
2D85
  8
AM_0
 10
683.68061694293431
 20
261.47869080652077
 30
0.0
 40
2.75000007
  0
CIRCLE
  5
2D86
  8
AM_0
 10
683.68061694293431
 20
261.47869080652077
 30
0.0
 40
2.75000007
  0
CIRCLE
  5
2D87
  8
AM_0
 10
683.68061694293431
 20
261.47869080652077
 30
0.0
 40
2.75000007
  0
POINT
  5
2D88
  8
AM_0
 10
683.68061694293431
 20
261.47869080652077
 30
0.0
  0
POINT
  5
2D89
  8
AM_0
 10
683.68061694293431
 20
261.47869080652077
 30
0.0
  0
LINE
  5
2D8A
  8
AM_0
 10
678.68060094293435
 20
272.4787068065209
 30
0.0
 11
688.68059994293435
 21
272.4787068065209
 31
0.0
  0
LINE
  5
2D8B
  8
AM_0
 10
678.68060094293435
 20
280.47870780652062
 30
0.0
 11
688.68059994293435
 21
280.47870780652062
 31
0.0
  0
LINE
  5
2D8C
  8
AM_0
 10
678.68060094293435
 20
272.4787068065209
 30
0.0
 11
678.68060094293435
 21
280.47870780652062
 31
0.0
  0
LINE
  5
2D8D
  8
AM_0
 10
688.68059994293435
 20
272.4787068065209
 30
0.0
 11
688.68059994293435
 21
280.47870780652062
 31
0.0
  0
LINE
  5
2D8E
  8
AM_0
 10
801.18061194293421
 20
231.47867580652081
 30
0.0
 11
797.76575694293422
 21
166.3194018065208
 31
0.0
  0
LINE
  5
2D8F
  8
AM_0
 10
713.68060194293457
 20
143.97868680652081
 30
0.0
 11
778.83989094293452
 21
147.3935298065208
 31
0.0
  0
CIRCLE
  5
2D90
  8
AM_0
 10
779.14002294293459
 20
166.0192758065208
 30
0.0
 40
7.5000002999999982
  0
ARC
  5
2D91
  8
AM_0
 10
777.79316694293425
 20
167.36612580652081
 30
0.0
 40
20.000000700000001
 50
272.99999999999909
 51
357.00000000000091
  0
ARC
  5
2D92
  8
AM_0
 10
683.68061694293431
 20
233.47870680652079
 30
0.0
 40
93.500003999999976
 50
356.99211999999977
 51
17.85321299999984
  0
LINE
  5
2D93
  8
AM_0
 10
731.68061094293444
 20
261.47869080652077
 30
0.0
 11
731.68061094293444
 21
223.4787048065208
 31
0.0
  0
LINE
  5
2D94
  8
AM_0
 10
736.68060894293444
 20
218.47870380652071
 30
0.0
 11
769.65734994293462
 21
218.47870380652071
 31
0.0
  0
ARC
  5
2D95
  8
AM_0
 10
736.68060894293444
 20
223.4787048065208
 30
0.0
 40
5.0000001000000003
 50
179.9999899999988
 51
270.0
  0
ARC
  5
2D96
  8
AM_0
 10
769.65734994293462
 20
223.4787048065208
 30
0.0
 40
5.0000001000000003
 50
270.0
 51
336.1555299999992
  0
LINE
  5
2D97
  8
AM_0
 10
801.18060894293421
 20
261.47869080652077
 30
0.0
 11
801.18060894293421
 21
231.4786908065208
 31
0.0
  0
ARC
  5
2D98
  8
AM_0
 10
714.24902094293452
 20
304.77503280652081
 30
0.0
 40
5.0000001000000003
 50
234.776859999999
 51
315.0
  0
ARC
  5
2D99
  8
AM_0
 10
683.68061694293431
 20
233.47870680652079
 30
0.0
 40
99.500004000000004
 50
58.838494000002051
 51
86.644179999999864
  0
LINE
  5
2D9A
  8
AM_0
 10
683.68061694293431
 20
378.97870380652091
 30
0.0
 11
713.68061694293442
 21
378.97870380652091
 31
0.0
  0
ARC
  5
2D9B
  8
AM_0
 10
589.56806394293426
 20
355.59124380652082
 30
0.0
 40
20.000000700000001
 50
92.999998999998368
 51
176.99999000000011
  0
LINE
  5
2D9C
  8
AM_0
 10
405.2995680188896
 20
366.47872380652092
 30
0.0
 11
409.29958801888932
 21
366.47872380652092
 31
0.0
  0
LINE
  5
2D9D
  8
AM_0
 10
566.18061294293432
 20
291.47867580652081
 30
0.0
 11
569.59546794293465
 21
356.63797380652079
 31
0.0
  0
ARC
  5
2D9E
  8
AM_0
 10
640.38427494293433
 20
292.04712780652068
 30
0.0
 40
5.0000001000000003
 50
324.77685000000031
 51
45.000000999999187
  0
LINE
  5
2D9F
  8
AM_0
 10
649.57665594293439
 20
301.23951180652091
 30
0.0
 11
620.34635394293446
 21
330.46978380652081
 31
0.0
  0
ARC
  5
2DA0
  8
AM_0
 10
611.15395494293432
 20
321.2774238065208
 30
0.0
 40
5.0000001000000003
 50
45.000000999999187
 51
140.49418000000091
  0
ARC
  5
2DA1
  8
AM_0
 10
683.68061694293431
 20
233.47870680652079
 30
0.0
 40
99.500004000000004
 50
125.86368999999939
 51
150.26975999999931
  0
LINE
  5
2DA2
  8
AM_0
 10
643.91979594293446
 20
295.5826518065208
 30
0.0
 11
614.68949394293406
 21
324.81292380652081
 31
0.0
  0
CIRCLE
  5
2DA3
  8
AM_0
 10
588.22120194293439
 20
356.93812380652082
 30
0.0
 40
7.5000002999999982
  0
ARC
  5
2DA4
  8
AM_0
 10
623.88187794293435
 20
334.00534380652078
 30
0.0
 40
5.0000001000000003
 50
129.50581999999901
 51
225.0
  0
ARC
  5
2DA5
  8
AM_0
 10
683.68061694293431
 20
261.47869080652077
 30
0.0
 40
48.0
 50
54.776850000000422
 51
125.2231400000008
  0
ARC
  5
2DA6
  8
AM_0
 10
653.11219494293425
 20
304.77503280652081
 30
0.0
 40
5.0000001000000003
 50
225.0
 51
305.22314999999952
  0
ARC
  5
2DA7
  8
AM_0
 10
677.68061694293431
 20
335.80291380652091
 30
0.0
 40
3.0
 50
273.35581999999999
 51
0.0
  0
ARC
  5
2DA8
  8
AM_0
 10
677.68061694293431
 20
341.99341380652078
 30
0.0
 40
3.0
 50
0.0
 51
90.000003000000945
  0
ARC
  5
2DA9
  8
AM_0
 10
683.68061694293431
 20
233.47870680652079
 30
0.0
 40
99.500004000000004
 50
93.355817999997413
 51
121.1614999999983
  0
ARC
  5
2DAA
  8
AM_0
 10
689.68061694293442
 20
335.80291380652091
 30
0.0
 40
3.0
 50
179.9999899999988
 51
266.64419000000049
  0
ARC
  5
2DAB
  8
AM_0
 10
689.68061694293442
 20
341.99341380652078
 30
0.0
 40
3.0
 50
90.000003000000945
 51
180.00001000000091
  0
LINE
  5
2DAC
  8
AM_0
 10
680.68061694293431
 20
341.99341380652078
 30
0.0
 11
680.68061694293431
 21
335.80291380652091
 31
0.0
  0
LINE
  5
2DAD
  8
AM_0
 10
686.68061694293408
 20
341.99341380652078
 30
0.0
 11
686.68061694293408
 21
335.80291380652091
 31
0.0
  0
LINE
  5
2DAE
  8
AM_0
 10
653.68059894293435
 20
378.97870380652091
 30
0.0
 11
588.52134294293433
 21
375.56386380652083
 31
0.0
  0
LINE
  5
2DAF
  8
AM_0
 10
683.68061694293431
 20
378.97870380652091
 30
0.0
 11
653.68059894293435
 21
378.97870380652091
 31
0.0
  0
ARC
  5
2DB0
  8
ﾁｭｳｼﾝｾﾝ1
 10
683.68061694293431
 20
261.47869080652077
 30
0.0
 40
135.00000299999991
 50
38.36839300000004
 51
52.256345999999361
  0
ARC
  5
2DB1
  8
AM_0
 10
777.79316694293425
 20
355.59124380652082
 30
0.0
 40
20.000000700000001
 50
3.0000000999988461
 51
86.999999000000216
  0
LINE
  5
2DB2
  8
ﾁｭｳｼﾝｾﾝ1
 10
768.69639000000814
 20
346.49446259643929
 30
0.0
 11
788.40096824037755
 21
366.1990537114192
 31
0.0
  0
CIRCLE
  5
2DB3
  8
AM_0
 10
779.14002294293459
 20
356.93812380652082
 30
0.0
 40
7.5000002999999982
  0
LINE
  5
2DB4
  8
AM_0
 10
717.78452994293445
 20
301.23951180652091
 30
0.0
 11
747.01484694293458
 21
330.46978380652081
 31
0.0
  0
ARC
  5
2DB5
  8
AM_0
 10
756.2072429429345
 20
321.2774238065208
 30
0.0
 40
5.0000001000000003
 50
39.505817999999088
 51
135.0
  0
ARC
  5
2DB6
  8
AM_0
 10
683.68061694293431
 20
233.47870680652079
 30
0.0
 40
99.500004000000004
 50
29.730243000001629
 51
54.136312000000359
  0
LINE
  5
2DB7
  8
AM_0
 10
723.44140494293447
 20
295.58261880652083
 30
0.0
 11
752.67170694293452
 21
324.81292380652081
 31
0.0
  0
ARC
  5
2DB8
  8
AM_0
 10
726.97694394293444
 20
292.04712780652068
 30
0.0
 40
5.0000001000000003
 50
135.0
 51
215.22314999999929
  0
ARC
  5
2DB9
  8
AM_0
 10
743.47933194293455
 20
334.00534380652078
 30
0.0
 40
5.0000001000000003
 50
315.0
 51
50.49418200000094
  0
LINE
  5
2DBA
  8
AM_0
 10
801.18061194293421
 20
291.47867580652081
 30
0.0
 11
797.76575994293444
 21
356.63794380652081
 31
0.0
  0
LINE
  5
2DBB
  8
AM_0
 10
713.68061694293442
 20
378.97867380652082
 30
0.0
 11
778.83989094293452
 21
375.56383380652079
 31
0.0
  0
LINE
  5
2DBC
  8
AM_0
 10
181.79954801888951
 20
466.05304601453628
 30
0.0
 11
181.79954801888951
 21
666.05304601453611
 31
0.0
  0
LINE
  5
2DBD
  8
AM_0
 10
191.79954801888951
 20
665.05304601453611
 30
0.0
 11
191.79954801888951
 21
467.05304601453622
 31
0.0
  0
LINE
  5
2DBE
  8
AM_0
 10
235.7995480188896
 20
492.55304601453611
 30
0.0
 11
194.53808101888939
 21
488.94313501453621
 31
0.0
  0
LINE
  5
2DBF
  8
AM_0
 10
194.79954801888951
 20
502.54382101453609
 30
0.0
 11
231.7995480188896
 21
502.54382101453609
 31
0.0
  0
LINE
  5
2DC0
  8
AM_0
 10
194.79954801888951
 20
526.57837001453618
 30
0.0
 11
233.7995480188896
 21
526.57837001453618
 31
0.0
  0
ARC
  5
2DC1
  8
AM_0
 10
194.79954801888951
 20
499.54382101453621
 30
0.0
 40
3.0
 50
90.0
 51
180.0
  0
ARC
  5
2DC2
  8
AM_0
 10
194.79954801888951
 20
485.95455101453632
 30
0.0
 40
3.0
 50
94.99999999999973
 51
180.0
  0
LINE
  5
2DC3
  8
AM_0
 10
181.79954801888951
 20
466.05304601453628
 30
0.0
 11
190.79954801888951
 21
466.05304601453628
 31
0.0
  0
ARC
  5
2DC4
  8
AM_0
 10
190.79954801888951
 20
467.05304601453622
 30
0.0
 40
1.0
 50
270.0
 51
0.0
  0
ARC
  5
2DC5
  8
AM_0
 10
194.79954801888951
 20
523.57837001453595
 30
0.0
 40
3.0
 50
90.0
 51
180.0
  0
LINE
  5
2DC6
  8
AM_0
 10
233.7995480188896
 20
504.54382101453621
 30
0.0
 11
233.7995480188896
 21
524.57837001453629
 31
0.0
  0
ARC
  5
2DC7
  8
AM_0
 10
231.7995480188896
 20
504.54382101453621
 30
0.0
 40
2.0
 50
270.0
 51
0.0
  0
ARC
  5
2DC8
  8
AM_0
 10
235.7995480188896
 20
524.57837001453629
 30
0.0
 40
2.0
 50
120.0000000000005
 51
180.0
  0
LINE
  5
2DC9
  8
AM_0
 10
235.7995480188896
 20
639.55304601453588
 30
0.0
 11
194.53808101888939
 21
643.16295601453635
 31
0.0
  0
LINE
  5
2DCA
  8
AM_0
 10
194.79954801888951
 20
629.56227101453612
 30
0.0
 11
231.7995480188896
 21
629.56227101453612
 31
0.0
  0
LINE
  5
2DCB
  8
AM_0
 10
194.79954801888951
 20
605.52772101453616
 30
0.0
 11
233.7995480188896
 21
605.52772101453616
 31
0.0
  0
ARC
  5
2DCC
  8
AM_0
 10
194.79954801888951
 20
608.52772101453616
 30
0.0
 40
3.0
 50
180.0
 51
270.0
  0
ARC
  5
2DCD
  8
AM_0
 10
194.79954801888951
 20
646.15154101453629
 30
0.0
 40
3.0
 50
180.0
 51
265.00000000000028
  0
ARC
  5
2DCE
  8
AM_0
 10
194.79954801888951
 20
632.56227101453612
 30
0.0
 40
3.0
 50
180.0
 51
270.0
  0
LINE
  5
2DCF
  8
AM_0
 10
181.79954801888951
 20
666.05304601453611
 30
0.0
 11
190.79954801888951
 21
666.05304601453611
 31
0.0
  0
ARC
  5
2DD0
  8
AM_0
 10
190.79954801888951
 20
665.05304601453611
 30
0.0
 40
1.0
 50
0.0
 51
90.0
  0
LINE
  5
2DD1
  8
AM_0
 10
233.7995480188896
 20
627.56227101453612
 30
0.0
 11
233.7995480188896
 21
607.52772101453638
 31
0.0
  0
ARC
  5
2DD2
  8
AM_0
 10
235.7995480188896
 20
607.52772101453638
 30
0.0
 40
2.0
 50
180.0
 51
239.99999999999949
  0
ARC
  5
2DD3
  8
AM_0
 10
231.7995480188896
 20
627.56227101453612
 30
0.0
 40
2.0
 50
0.0
 51
90.0
  0
ARC
  5
2DD4
  8
ﾁｭｳｼﾝｾﾝ1
 10
683.68061694293431
 20
261.47869080652077
 30
0.0
 40
135.00000299999991
 50
307.74365400000062
 51
321.63160699999992
  0
LINE
  5
2DD5
  8
ﾁｭｳｼﾝｾﾝ1
 10
768.69639000000814
 20
176.462919016602
 30
0.0
 11
788.40096824037755
 21
156.7583279016221
 31
0.0
  0
ARC
  5
2DD6
  8
ﾁｭｳｼﾝｾﾝ1
 10
683.68061694293431
 20
261.47869080652077
 30
0.0
 40
135.00000299999991
 50
218.36839299999991
 51
232.25634599999941
  0
LINE
  5
2DD7
  8
ﾁｭｳｼﾝｾﾝ1
 10
598.66484388586025
 20
176.462919016602
 30
0.0
 11
578.96026564549084
 21
156.7583279016221
 31
0.0
  0
ARC
  5
2DD8
  8
ﾁｭｳｼﾝｾﾝ1
 10
683.68061694293431
 20
261.47869080652077
 30
0.0
 40
135.00000299999991
 50
127.7436540000006
 51
141.6316069999998
  0
LINE
  5
2DD9
  8
ﾁｭｳｼﾝｾﾝ1
 10
598.66484388586025
 20
346.49446259643929
 30
0.0
 11
578.96026564549084
 21
366.1990537114192
 31
0.0
  0
TEXT
  5
2FCB
  8
AM_0
 10
580.18758705711434
 20
597.80106473353669
 30
0.0
 40
15.0
  1
VX08-040AF~VX08-100AF
  0
ENDSEC
  0
EOF
