  0
SECTION
  2
HEADER
  9
$ACADVER
  1
AC1009
  9
$INSBASE
 10
0.0
 20
0.0
 30
0.0
  9
$EXTMIN
 10
352.23892584121631
 20
256.70672114334462
 30
-0.0000000000112498
  9
$EXTMAX
 10
1140.2617293628409
 20
973.37044655137561
 30
0.0000000000002956
  9
$LIMMIN
 10
0.0
 20
0.0
  9
$LIMMAX
 10
1422.5
 20
925.0
  9
$ORTHOMODE
 70
     0
  9
$REGENMODE
 70
     1
  9
$FILLMODE
 70
     1
  9
$QTEXTMODE
 70
     0
  9
$MIRRTEXT
 70
     1
  9
$DRAGMODE
 70
     2
  9
$LTSCALE
 40
5.0
  9
$OSMODE
 70
   551
  9
$ATTMODE
 70
     1
  9
$TEXTSIZE
 40
2.5
  9
$TRACEWID
 40
1.0
  9
$TEXTSTYLE
  7
STANDARD
  9
$CLAYER
  8
AM_0
  9
$CELTYPE
  6
BYLAYER
  9
$CECOLOR
 62
   256
  9
$DIMSCALE
 40
1.0
  9
$DIMASZ
 40
2.5
  9
$DIMEXO
 40
1.0
  9
$DIMDLI
 40
8.0
  9
$DIMRND
 40
0.0
  9
$DIMDLE
 40
0.0
  9
$DIMEXE
 40
0.6
  9
$DIMTP
 40
0.1
  9
$DIMTM
 40
0.1
  9
$DIMTXT
 40
2.5
  9
$DIMCEN
 40
0.0
  9
$DIMTSZ
 40
0.0
  9
$DIMTOL
 70
     0
  9
$DIMLIM
 70
     0
  9
$DIMTIH
 70
     0
  9
$DIMTOH
 70
     0
  9
$DIMSE1
 70
     0
  9
$DIMSE2
 70
     0
  9
$DIMTAD
 70
     1
  9
$DIMZIN
 70
     8
  9
$DIMBLK
  1

  9
$DIMASO
 70
     1
  9
$DIMSHO
 70
     1
  9
$DIMPOST
  1

  9
$DIMAPOST
  1
"
  9
$DIMALT
 70
     0
  9
$DIMALTD
 70
     2
  9
$DIMALTF
 40
0.0393701
  9
$DIMLFAC
 40
1.0
  9
$DIMTOFL
 70
     1
  9
$DIMTVP
 40
0.0
  9
$DIMTIX
 70
     0
  9
$DIMSOXD
 70
     0
  9
$DIMSAH
 70
     0
  9
$DIMBLK1
  1

  9
$DIMBLK2
  1

  9
$DIMSTYLE
  2
AM_ISO
  9
$DIMCLRD
 70
   256
  9
$DIMCLRE
 70
   256
  9
$DIMCLRT
 70
     4
  9
$DIMTFAC
 40
0.71
  9
$DIMGAP
 40
0.8
  9
$LUNITS
 70
     2
  9
$LUPREC
 70
     2
  9
$SKETCHINC
 40
1.0
  9
$FILLETRAD
 40
25.0
  9
$AUNITS
 70
     0
  9
$AUPREC
 70
     0
  9
$MENU
  1
.
  9
$ELEVATION
 40
0.0
  9
$PELEVATION
 40
0.0
  9
$THICKNESS
 40
0.0
  9
$LIMCHECK
 70
     0
  9
$BLIPMODE
 70
     0
  9
$CHAMFERA
 40
10.0
  9
$CHAMFERB
 40
5.0
  9
$SKPOLY
 70
     0
  9
$TDCREATE
 40
2452066.471316007
  9
$TDUPDATE
 40
2458541.5452338769
  9
$TDINDWG
 40
0.1256323611
  9
$TDUSRTIMER
 40
0.125632338
  9
$USRTIMER
 70
     1
  9
$ANGBASE
 50
0.0
  9
$ANGDIR
 70
     0
  9
$PDMODE
 70
     0
  9
$PDSIZE
 40
0.0
  9
$PLINEWID
 40
0.0
  9
$COORDS
 70
     1
  9
$SPLFRAME
 70
     0
  9
$SPLINETYPE
 70
     6
  9
$SPLINESEGS
 70
     8
  9
$ATTDIA
 70
     1
  9
$ATTREQ
 70
     1
  9
$HANDLING
 70
     1
  9
$HANDSEED
  5
3736
  9
$SURFTAB1
 70
     6
  9
$SURFTAB2
 70
     6
  9
$SURFTYPE
 70
     6
  9
$SURFU
 70
     6
  9
$SURFV
 70
     6
  9
$UCSNAME
  2

  9
$UCSORG
 10
0.0
 20
0.0
 30
0.0
  9
$UCSXDIR
 10
1.0
 20
0.0
 30
0.0
  9
$UCSYDIR
 10
0.0
 20
1.0
 30
0.0
  9
$PUCSNAME
  2

  9
$PUCSORG
 10
0.0
 20
0.0
 30
0.0
  9
$PUCSXDIR
 10
1.0
 20
0.0
 30
0.0
  9
$PUCSYDIR
 10
0.0
 20
1.0
 30
0.0
  9
$USERI1
 70
     0
  9
$USERI2
 70
     0
  9
$USERI3
 70
     0
  9
$USERI4
 70
     0
  9
$USERI5
 70
     0
  9
$USERR1
 40
0.0
  9
$USERR2
 40
0.0
  9
$USERR3
 40
0.0
  9
$USERR4
 40
0.0
  9
$USERR5
 40
0.0
  9
$WORLDVIEW
 70
     1
  9
$SHADEDGE
 70
     3
  9
$SHADEDIF
 70
    70
  9
$TILEMODE
 70
     1
  9
$MAXACTVP
 70
    64
  9
$PLIMCHECK
 70
     0
  9
$PEXTMIN
 10
1.0000000000000000E+020
 20
1.0000000000000000E+020
 30
1.0000000000000000E+020
  9
$PEXTMAX
 10
-1.0000000000000000E+020
 20
-1.0000000000000000E+020
 30
-1.0000000000000000E+020
  9
$PLIMMIN
 10
0.0
 20
0.0
  9
$PLIMMAX
 10
420.0
 20
297.0
  9
$UNITMODE
 70
     0
  9
$VISRETAIN
 70
     1
  9
$PLINEGEN
 70
     0
  9
$PSLTSCALE
 70
     1
  0
ENDSEC
  0
SECTION
  2
TABLES
  0
TABLE
  2
VPORT
 70
     1
  0
VPORT
  2
*ACTIVE
 70
     0
 10
0.0
 20
0.0
 11
1.0
 21
1.0
 12
746.25032760202896
 22
615.03858384735997
 13
0.0
 23
0.0
 14
12.5
 24
12.5
 15
50.0
 25
50.0
 16
0.0
 26
0.0
 36
1.0
 17
0.0
 27
0.0
 37
0.0
 40
721.58361368314331
 41
1.7571592210767459
 42
50.0
 43
0.0
 44
0.0
 50
0.0
 51
0.0
 71
     0
 72
   100
 73
     1
 74
     3
 75
     0
 76
     0
 77
     0
 78
     0
  0
ENDTAB
  0
TABLE
  2
LTYPE
 70
    26
  0
LTYPE
  2
CONTINUOUS
 70
     0
  3
Solid line
 72
    65
 73
     0
 40
0.0
  0
LTYPE
  2
AM_ISO02W050
 70
     0
  3
__ __ __ __ __ __ __ __ __ __ __ __ __ __ __
 72
    65
 73
     2
 40
7.5
 49
6.0
 49
-1.5
  0
LTYPE
  2
AM_ISO08W050
 70
     0
  3
____ . ____ . ____ . ____ . ____ . ____ . ____
 72
    65
 73
     4
 40
18.0
 49
12.0
 49
-1.5
 49
3.0
 49
-1.5
  0
LTYPE
  2
AM_ISO09W050
 70
     0
  3
_____ . . _____ . . _____ . . ____ .. ____
 72
    65
 73
     6
 40
22.5
 49
12.0
 49
-1.5
 49
3.0
 49
-1.5
 49
3.0
 49
-1.5
  0
LTYPE
  2
AMCONSTR
 70
     0
  3
_______________________
 72
    65
 73
     2
 40
9999.0
 49
9999.0
 49
0.0
  0
LTYPE
  2
AM_ISO08W050X2
 70
     0
  3
__ . __ . __ . __ . __ . __
 72
    65
 73
     4
 40
9.0
 49
6.0
 49
-0.75
 49
1.5
 49
-0.75
  0
LTYPE
  2
AM_ISO02W050X2
 70
     0
  3
 _ _ _ _ _ _ _ _ _ _ _ _
 72
    65
 73
     2
 40
3.75
 49
3.0
 49
-0.75
  0
LTYPE
  2
AMZIGZAG
 70
     0
  3
/\/-/\/-/\/-/\/-/\/-/\/
 72
    65
 73
     2
 40
11.000099999999991
 49
0.0001
 49
-11.0
  0
LTYPE
  2
ACISOWELD
 70
     0
  3
_ _ _ _ _
 72
    65
 73
     2
 40
2.0
 49
2.0
 49
-1.0
  0
LTYPE
  2
ACISOTGB
 70
     0
  3
__ . . __ . .
 72
    65
 73
     6
 40
9.0
 49
4.0
 49
-1.0
 49
1.0
 49
-1.0
 49
1.0
 49
-1.0
  0
LTYPE
  2
ACISOTGL
 70
     0
  3
_ _ _ _ _
 72
    65
 73
     2
 40
3.0
 49
2.0
 49
-1.0
  0
LTYPE
  2
CENTER
 70
     0
  3
__ . __
 72
    65
 73
     4
 40
7.0
 49
4.0
 49
-1.0
 49
1.0
 49
-1.0
  0
LTYPE
  2
PHANTOM2
 70
     0
  3
Phantom (.5x) ___ _ _ ___ _ _ ___ _ _ ___ _ _
 72
    65
 73
     6
 40
31.75
 49
15.875
 49
-3.174999999999998
 49
3.174999999999998
 49
-3.174999999999998
 49
3.174999999999998
 49
-3.174999999999998
  0
LTYPE
  2
ACANSTGBM
 70
     0
  3
__ . . __ . .
 72
    65
 73
     6
 40
9.0
 49
4.0
 49
-1.0
 49
1.0
 49
-1.0
 49
1.0
 49
-1.0
  0
LTYPE
  2
ACANSTGLM
 70
     0
  3
_ _ _ _ _
 72
    65
 73
     2
 40
3.0
 49
2.0
 49
-1.0
  0
LTYPE
  2
GEN7
 70
     0
  3
____ . ____ . ____ . ____ . ____ . ____ . ____
 72
    65
 73
     4
 40
14.25
 49
9.75
 49
-1.5
 49
1.5
 49
-1.5
  0
LTYPE
  2
GEN7A
 70
     0
  3
__ . __ . __
 72
    65
 73
     4
 40
7.375
 49
4.75
 49
-0.875
 49
0.875
 49
-0.875
  0
LTYPE
  2
ACJISTGB
 70
     0
  3
__ . . __ . .
 72
    65
 73
     6
 40
9.0
 49
4.0
 49
-1.0
 49
1.0
 49
-1.0
 49
1.0
 49
-1.0
  0
LTYPE
  2
ACJISTGL
 70
     0
  3
_ _ _ _ _
 72
    65
 73
     2
 40
3.0
 49
2.0
 49
-1.0
  0
LTYPE
  2
HIDDEN
 70
     0
  3
Hidden __ __ __ __ __ __ __ __ __ __ __ __ __ _
 72
    65
 73
     2
 40
0.375
 49
0.25
 49
-0.125
  0
LTYPE
  2
CENTER2
 70
     0
  3
Center (.5x) ___ _ ___ _ ___ _ ___ _ ___ _ ___
 72
    65
 73
     4
 40
1.125
 49
0.75
 49
-0.125
 49
0.125
 49
-0.125
  0
LTYPE
  2
HIDDEN2
 70
     0
  3
Hidden (.5x) _ _ _ _ _ _ _ _ _ _ _ _ _ _ _ _ _
 72
    65
 73
     2
 40
0.1875
 49
0.125
 49
-0.0625
  0
LTYPE
  2
AMZIGZAG2
 70
     0
  3
/\/-/\/-/\/-/\/-/\/-/\/
 72
    65
 73
     2
 40
0.4401
 49
0.0001
 49
-0.4400000000000002
  0
LTYPE
  2
ACANSTGB
 70
     0
  3
__ . . __ . .
 72
    65
 73
     6
 40
0.35433070866
 49
0.15748031496
 49
-0.03937007874
 49
0.03937007874
 49
-0.03937007874
 49
0.03937007874
 49
-0.03937007874
  0
LTYPE
  2
ACANSTGL
 70
     0
  3
_ _ _ _ _
 72
    65
 73
     2
 40
0.11811023622
 49
0.07874015748
 49
-0.03937007874
  0
ENDTAB
  0
TABLE
  2
LAYER
 70
     6
  0
LAYER
  2
0
 70
     0
 62
     7
  6
CONTINUOUS
  0
LAYER
  2
AM_0
 70
     0
 62
     7
  6
CONTINUOUS
  0
LAYER
  2
AM_5
 70
     0
 62
     2
  6
CONTINUOUS
  0
LAYER
  2
DEFPOINTS
 70
     0
 62
     7
  6
CONTINUOUS
  0
LAYER
  2
ﾁｭｳｼﾝｾﾝ
 70
     0
 62
     1
  6
GEN7
  0
LAYER
  2
ﾁｭｳｼﾝｾﾝ1
 70
     0
 62
     1
  6
GEN7A
  0
ENDTAB
  0
TABLE
  2
STYLE
 70
     9
  0
STYLE
  2
STANDARD
 70
     0
 40
0.0
 41
0.8299999999999999
 50
0.0
 71
     0
 42
2.5
  3
txt.shx
  4
bigfont.shx
  0
STYLE
  2
ANNOTATIVE
 70
     0
 40
0.0
 41
1.0
 50
0.0
 71
     0
 42
0.2
  3
txt
  4

  0
STYLE
  2

 70
     1
 40
0.0
 41
1.0
 50
0.0
 71
     0
 42
2.5
  3
ltypeshp.shx
  4

  0
STYLE
  2
ACISOTS
 70
     0
 40
1.0
 41
1.0
 50
0.0
 71
     0
 42
2.5
  3
isocp.shx
  4
extfont.shx
  0
STYLE
  2
ACISOGDT
 70
     0
 40
0.0
 41
1.0
 50
0.0
 71
     0
 42
2.5
  3
amgdt.shx
  4

  0
STYLE
  2
ACANSTS
 70
     0
 40
1.0
 41
1.0
 50
0.0
 71
     0
 42
2.5
  3
romans.shx
  4
bigfont.shx
  0
STYLE
  2
ACANSGDT
 70
     0
 40
0.0
 41
1.0
 50
0.0
 71
     0
 42
2.5
  3
amgdt.shx
  4

  0
STYLE
  2
ACJISTS
 70
     0
 40
1.0
 41
1.0
 50
0.0
 71
     0
 42
2.5
  3
isocp.shx
  4
bigfont.shx
  0
STYLE
  2
ACJISGDT
 70
     0
 40
0.0
 41
1.0
 50
0.0
 71
     0
 42
2.5
  3
amgdt.shx
  4

  0
ENDTAB
  0
TABLE
  2
VIEW
 70
     6
  0
VIEW
  2
AM_VIEW1
 70
     0
 40
462.5
 10
416.07965009208078
 20
693.75
 41
832.15930018416213
 11
0.0
 21
0.0
 31
1.0
 12
0.0
 22
0.0
 32
0.0
 42
50.0
 43
0.0
 44
0.0
 50
0.0
 71
     0
  0
VIEW
  2
AM_VIEW2
 70
     0
 40
462.5
 10
1006.420349907918
 20
693.75
 41
832.15930018416213
 11
0.0
 21
0.0
 31
1.0
 12
0.0
 22
0.0
 32
0.0
 42
50.0
 43
0.0
 44
0.0
 50
0.0
 71
     0
  0
VIEW
  2
AM_VIEW3
 70
     0
 40
462.5
 10
416.07965009208078
 20
231.25
 41
832.15930018416213
 11
0.0
 21
0.0
 31
1.0
 12
0.0
 22
0.0
 32
0.0
 42
50.0
 43
0.0
 44
0.0
 50
0.0
 71
     0
  0
VIEW
  2
AM_VIEW4
 70
     0
 40
462.5
 10
1006.420349907918
 20
231.25
 41
832.15930018416213
 11
0.0
 21
0.0
 31
1.0
 12
0.0
 22
0.0
 32
0.0
 42
50.0
 43
0.0
 44
0.0
 50
0.0
 71
     0
  0
VIEW
  2
AM_VIEW5
 70
     0
 40
462.5
 10
711.24999999999966
 20
462.5
 41
832.15930018416179
 11
0.0
 21
0.0
 31
1.0
 12
0.0
 22
0.0
 32
0.0
 42
50.0
 43
0.0
 44
0.0
 50
0.0
 71
     0
  0
VIEW
  2
AM_VIEW6
 70
     0
 40
924.99075000000005
 10
711.24999999999966
 20
462.5
 41
1664.3019571823199
 11
0.0
 21
0.0
 31
1.0
 12
0.0
 22
0.0
 32
0.0
 42
50.0
 43
0.0
 44
0.0
 50
0.0
 71
     0
  0
ENDTAB
  0
TABLE
  2
UCS
 70
     0
  0
ENDTAB
  0
TABLE
  2
APPID
 70
    95
  0
APPID
  2
ACAD
 70
     0
  0
APPID
  2
ACADANNOTATIVE
 70
     0
  0
APPID
  2
MCAD_NO_VIS
 70
     0
  0
APPID
  2
ACAD_TEMP_GRAPHIC
 70
     0
  0
APPID
  2
ACATTRIBSERVICES
 70
     0
  0
APPID
  2
GENIUS_GENREC_14
 70
     0
  0
APPID
  2
GENIUS_GENOBJ-N-REC_13
 70
     0
  0
APPID
  2
GENIUS_GENODEF_13
 70
     0
  0
APPID
  2
GENIUS_GENOLIS_13
 70
     0
  0
APPID
  2
GENIUS_GENOBJ-N-TIT_13
 70
     0
  0
APPID
  2
GENIUS_GENOENT_13
 70
     0
  0
APPID
  2
GENIUS_GENTITLE_13
 70
     0
  0
APPID
  2
GENIUS_GENOREF_13
 70
     0
  0
APPID
  2
GENIUS_GENSCREG_15
 70
     0
  0
APPID
  2
GENIUS_GENOBJ-N-SDF_13
 70
     0
  0
APPID
  2
GENIUS_GENFIL_13
 70
     0
  0
APPID
  2
GENIUS_GENOBJ-N-CHA_13
 70
     0
  0
APPID
  2
GENIUS_GENDTOL_13
 70
     0
  0
APPID
  2
GENIUS_GENOBJ-N-FIL_13
 70
     0
  0
APPID
  2
AD_DRAW
 70
     0
  0
APPID
  2
DESIGNERASSEMBLIES
 70
     0
  0
APPID
  2
ASURF_PCURVE_APPNAME
 70
     0
  0
APPID
  2
GENIUS_GE3SECT_13
 70
     0
  0
APPID
  2
GENIUS_GENCFG_13
 70
     0
  0
APPID
  2
GENIUS_GE3CFG0_13
 70
     0
  0
APPID
  2
GENIUS_GENCFG0_13
 70
     0
  0
APPID
  2
GENIUS_GENCFG1_13
 70
     0
  0
APPID
  2
GENIUS_GENCFG2_13
 70
     0
  0
APPID
  2
GENIUS_GENCFG3_13
 70
     0
  0
APPID
  2
GENIUS_GENCFG4_13
 70
     0
  0
APPID
  2
GENIUS_GEVCFG0_13
 70
     0
  0
APPID
  2
GENIUS_GENHINW_13
 70
     0
  0
APPID
  2
GENIUS_FIRSTVISTXT_14
 70
     0
  0
APPID
  2
GENIUS_GENOBJ-N-LEADER_13
 70
     0
  0
APPID
  2
GEV_VCCNULL_SWITCH_OFF
 70
     0
  0
APPID
  2
GENIUS_GEFCFG0_13
 70
     0
  0
APPID
  2
GENIUS_GENZVEED_13
 70
     0
  0
APPID
  2
GENIUS_GENSCREG_13
 70
     0
  0
APPID
  2
GENIUS_DUMCFG0_13
 70
     0
  0
APPID
  2
GEVID936201362
 70
     0
  0
APPID
  2
GEVDC
 70
     0
  0
APPID
  2
GEVCON
 70
     0
  0
APPID
  2
VCC
 70
     0
  0
APPID
  2
GEVPT
 70
     0
  0
APPID
  2
GEVIT
 70
     0
  0
APPID
  2
GENBH
 70
     0
  0
APPID
  2
GEVMK
 70
     0
  0
APPID
  2
GENIUS_GENBH_13
 70
     0
  0
APPID
  2
GENIUS_GENOBJ-NBEHI-BHF_13
 70
     0
  0
APPID
  2
GENIUS_GENOBJ-NBEHI-BHB_13
 70
     0
  0
APPID
  2
GENIUS_GENOBJ-F-DESC_13
 70
     0
  0
APPID
  2
GENIUS_GEFDESC_14
 70
     0
  0
APPID
  2
GENIUS_GENOBJ-F-PART_13
 70
     0
  0
APPID
  2
GENIUS_GEFSTDP_13
 70
     0
  0
APPID
  2
GENIUS_GEFPARTINS_13
 70
     0
  0
APPID
  2
GENIUS_GENTRA_14
 70
     0
  0
APPID
  2
GENIUS_GENINF13_13
 70
     0
  0
APPID
  2
GENIUS_GENOBJ-N-INFOPT_13
 70
     0
  0
APPID
  2
GENIUS_GENOBJ-N-RSSYM_13
 70
     0
  0
APPID
  2
GENIUS_GENSYMENT_13
 70
     0
  0
APPID
  2
GENIUS_GENSCSYM_13
 70
     0
  0
APPID
  2
GENIUS_GEFINFNAM_13
 70
     0
  0
APPID
  2
GENIUS_GENOBJ-N-CEN_13
 70
     0
  0
APPID
  2
GENIUS_GENOBJ-N-CRS_13
 70
     0
  0
APPID
  2
GENIUS_GENOBJ-N-CRC_13
 70
     0
  0
APPID
  2
GENIUS_GENCRC_14
 70
     0
  0
APPID
  2
GEVID942827039
 70
     0
  0
APPID
  2
GEVID942827040
 70
     0
  0
APPID
  2
GEVID942827041
 70
     0
  0
APPID
  2
GENIUS_GENOBJ-F-SCPASSM_13
 70
     0
  0
APPID
  2
GENIUS_GENDIMSH_14
 70
     0
  0
APPID
  2
GEVID942827042
 70
     0
  0
APPID
  2
GEVID946020473
 70
     0
  0
APPID
  2
GEVID946020474
 70
     0
  0
APPID
  2
GEVID946020475
 70
     0
  0
APPID
  2
GENIUS_GENOBJ-N-HTC_13
 70
     0
  0
APPID
  2
GENIUS_GENHATCH_13
 70
     0
  0
APPID
  2
GEVID948854295
 70
     0
  0
APPID
  2
GEVID939402019
 70
     0
  0
APPID
  2
GEVID952919491
 70
     0
  0
APPID
  2
GEVID952919492
 70
     0
  0
APPID
  2
GENIUS_GEFWELD_13
 70
     0
  0
APPID
  2
GENIUS_GENOBJ-F-WELS_13
 70
     0
  0
APPID
  2
GEVID952919493
 70
     0
  0
APPID
  2
GENIUS_GENOBJ-N-RSBK_13
 70
     0
  0
APPID
  2
GENIUS_GENOBJ-N-LIB_13
 70
     0
  0
APPID
  2
GENIUS_GENSCALE_13
 70
     0
  0
APPID
  2
GEVID986376691
 70
     0
  0
APPID
  2
DCO15
 70
     0
  0
APPID
  2
ACAD_DSTYLE_DIMBREAK
 70
     0
  0
APPID
  2
ACAD_DSTYLE_DIMJAG
 70
     0
  0
APPID
  2
ACAD_NAV_VCDISPLAY
 70
     0
  0
APPID
  2
ACADANNOPO
 70
     0
  0
APPID
  2
ACAD_EXEMPT_FROM_CAD_STANDARDS
 70
     0
  0
APPID
  2
ACAD_MLEADERVER
 70
     0
  0
ENDTAB
  0
TABLE
  2
DIMSTYLE
 70
    22
  0
DIMSTYLE
  2
STANDARD
 70
     0
  3

  4

  5

  6

  7

 40
1.0
 41
0.18
 42
0.0625
 43
0.38
 44
0.18
 45
0.0
 46
0.0
 47
0.0
 48
0.0
140
0.18
141
0.09
142
0.0
143
25.399999999999999
144
1.0
145
0.0
146
1.0
147
0.09
 71
     0
 72
     0
 73
     1
 74
     1
 75
     0
 76
     0
 77
     0
 78
     0
170
     0
171
     2
172
     0
173
     0
174
     0
175
     0
176
     0
177
     0
178
     0
  0
DIMSTYLE
  2
ANNOTATIVE
 70
     0
  3

  4

  5

  6

  7

 40
1.0
 41
0.18
 42
0.0625
 43
0.38
 44
0.18
 45
0.0
 46
0.0
 47
0.0
 48
0.0
140
0.18
141
0.09
142
0.0
143
25.399999999999999
144
1.0
145
0.0
146
1.0
147
0.09
 71
     0
 72
     0
 73
     1
 74
     1
 75
     0
 76
     0
 77
     0
 78
     0
170
     0
171
     2
172
     0
173
     0
174
     0
175
     0
176
     0
177
     0
178
     0
  0
DIMSTYLE
  2
AM_ISO
 70
     0
  3

  4
"
  5

  6

  7

 40
1.0
 41
2.5
 42
1.0
 43
8.0
 44
0.6
 45
0.0
 46
0.0
 47
0.1
 48
0.1
140
2.5
141
0.0
142
0.0
143
0.0393701
144
1.0
145
0.0
146
0.71
147
0.8
 71
     0
 72
     0
 73
     0
 74
     0
 75
     0
 76
     0
 77
     1
 78
     8
170
     0
171
     2
172
     1
173
     0
174
     0
175
     0
176
   256
177
   256
178
     4
  0
DIMSTYLE
  2
AM_ISO$3
 70
     0
  3

  4
"
  5

  6

  7

 40
1.0
 41
2.5
 42
1.0
 43
8.0
 44
0.6
 45
0.0
 46
0.0
 47
0.1
 48
0.1
140
2.5
141
0.0
142
0.0
143
0.0393701
144
1.0
145
0.0
146
0.71
147
0.8
 71
     0
 72
     0
 73
     0
 74
     1
 75
     0
 76
     0
 77
     1
 78
     8
170
     0
171
     2
172
     0
173
     0
174
     0
175
     0
176
   256
177
   256
178
     4
  0
DIMSTYLE
  2
AM_ISO$4
 70
     0
  3

  4
"
  5

  6

  7

 40
1.0
 41
2.5
 42
1.0
 43
8.0
 44
0.6
 45
0.0
 46
0.0
 47
0.1
 48
0.1
140
2.5
141
0.0
142
0.0
143
0.0393701
144
1.0
145
0.0
146
0.71
147
0.8
 71
     0
 72
     0
 73
     0
 74
     1
 75
     0
 76
     0
 77
     1
 78
     8
170
     0
171
     2
172
     0
173
     0
174
     0
175
     0
176
   256
177
   256
178
     4
  0
DIMSTYLE
  2
AM_ISO$6
 70
     0
  3

  4
"
  5

  6

  7

 40
1.0
 41
2.5
 42
1.0
 43
8.0
 44
0.6
 45
0.0
 46
0.0
 47
0.1
 48
0.1
140
2.5
141
0.0
142
0.0
143
0.0393701
144
1.0
145
0.0
146
0.71
147
0.8
 71
     0
 72
     0
 73
     0
 74
     0
 75
     0
 76
     0
 77
     0
 78
     8
170
     0
171
     2
172
     1
173
     0
174
     0
175
     0
176
   256
177
   256
178
     4
  0
DIMSTYLE
  2
AM_ISO$7
 70
     0
  3

  4
"
  5

  6

  7

 40
1.0
 41
2.5
 42
1.0
 43
8.0
 44
0.6
 45
0.0
 46
0.0
 47
0.1
 48
0.1
140
2.5
141
0.0
142
0.0
143
0.0393701
144
1.0
145
0.0
146
0.71
147
0.8
 71
     0
 72
     0
 73
     0
 74
     0
 75
     0
 76
     0
 77
     1
 78
     8
170
     0
171
     2
172
     1
173
     0
174
     0
175
     0
176
   256
177
   256
178
     4
  0
DIMSTYLE
  2
AM_ISO$SF
 70
     0
  3

  4
"
  5

  6

  7

 40
1.0
 41
2.5
 42
1.0
 43
10.0
 44
1.0
 45
0.0
 46
0.0
 47
0.1
 48
0.1
140
3.5
141
0.0
142
0.0
143
0.0393701
144
1.0
145
0.0
146
0.71
147
1.5
 71
     0
 72
     0
 73
     0
 74
     0
 75
     1
 76
     1
 77
     1
 78
     8
170
     0
171
     2
172
     1
173
     0
174
     0
175
     0
176
   256
177
   256
178
     2
  0
DIMSTYLE
  2
AM_ISO$SH
 70
     0
  3

  4
"
  5

  6

  7

 40
1.0
 41
2.5
 42
1.0
 43
10.0
 44
1.0
 45
0.0
 46
0.0
 47
0.1
 48
0.1
140
3.5
141
0.0
142
0.0
143
0.0393701
144
2.0
145
0.0
146
0.71
147
1.5
 71
     0
 72
     0
 73
     0
 74
     0
 75
     1
 76
     1
 77
     1
 78
     8
170
     0
171
     2
172
     1
173
     1
174
     0
175
     0
176
   256
177
   256
178
     2
  0
DIMSTYLE
  2
AM_JIS
 70
     0
  3

  4
"
  5

  6

  7

 40
1.0
 41
2.5
 42
1.0
 43
7.0
 44
1.0
 45
0.0
 46
0.0
 47
0.1
 48
0.1000000001
140
2.5
141
0.0
142
0.0
143
0.0393701
144
1.0
145
0.0
146
0.71
147
1.0
 71
     0
 72
     0
 73
     0
 74
     0
 75
     0
 76
     0
 77
     3
 78
     8
170
     0
171
     2
172
     1
173
     0
174
     0
175
     0
176
   256
177
   256
178
     4
  0
DIMSTYLE
  2
AM_JIS$3
 70
     0
  3

  4
"
  5

  6

  7

 40
1.0
 41
2.5
 42
1.0
 43
7.0
 44
1.0
 45
0.0
 46
0.0
 47
0.1
 48
0.1000000001
140
2.5
141
0.0
142
0.0
143
0.0393701
144
1.0
145
0.0
146
0.71
147
1.0
 71
     0
 72
     0
 73
     0
 74
     1
 75
     0
 76
     0
 77
     3
 78
     8
170
     0
171
     2
172
     0
173
     0
174
     0
175
     0
176
   256
177
   256
178
     4
  0
DIMSTYLE
  2
AM_JIS$4
 70
     0
  3

  4
"
  5

  6

  7

 40
1.0
 41
2.5
 42
1.0
 43
7.0
 44
1.0
 45
0.0
 46
0.0
 47
0.1
 48
0.1000000001
140
2.5
141
0.0
142
0.0
143
0.0393701
144
1.0
145
0.0
146
0.71
147
1.0
 71
     0
 72
     0
 73
     0
 74
     0
 75
     0
 76
     0
 77
     3
 78
     8
170
     0
171
     2
172
     0
173
     0
174
     0
175
     0
176
   256
177
   256
178
     4
  0
DIMSTYLE
  2
AM_JIS$6
 70
     0
  3

  4
"
  5

  6

  7

 40
1.0
 41
2.5
 42
1.0
 43
7.0
 44
1.0
 45
0.0
 46
0.0
 47
0.1
 48
0.1000000001
140
2.5
141
0.0
142
0.0
143
0.0393701
144
1.0
145
0.0
146
0.71
147
1.0
 71
     0
 72
     0
 73
     0
 74
     0
 75
     0
 76
     0
 77
     0
 78
     8
170
     0
171
     2
172
     1
173
     0
174
     0
175
     0
176
   256
177
   256
178
     4
  0
DIMSTYLE
  2
AM_JIS$7
 70
     0
  3

  4
"
  5

  6

  7

 40
1.0
 41
2.5
 42
1.0
 43
7.0
 44
1.0
 45
0.0
 46
0.0
 47
0.1
 48
0.1000000001
140
2.5
141
0.0
142
0.0
143
0.0393701
144
1.0
145
0.0
146
0.71
147
1.0
 71
     0
 72
     0
 73
     0
 74
     0
 75
     0
 76
     0
 77
     3
 78
     8
170
     0
171
     2
172
     1
173
     0
174
     0
175
     0
176
   256
177
   256
178
     4
  0
DIMSTYLE
  2
AM_JIS$SF
 70
     0
  3

  4
"
  5

  6

  7

 40
1.0
 41
2.5
 42
1.0
 43
10.0
 44
1.0
 45
0.0
 46
0.0
 47
0.1
 48
0.1
140
3.5
141
0.0
142
0.0
143
0.0393701
144
1.0
145
0.0
146
0.71
147
1.5
 71
     0
 72
     0
 73
     0
 74
     0
 75
     1
 76
     1
 77
     3
 78
     8
170
     0
171
     2
172
     1
173
     0
174
     0
175
     0
176
   256
177
   256
178
     4
  0
DIMSTYLE
  2
AM_JIS$SH
 70
     0
  3

  4
"
  5

  6

  7

 40
1.0
 41
2.5
 42
1.0
 43
10.0
 44
1.0
 45
0.0
 46
0.0
 47
0.1
 48
0.1
140
3.5
141
0.0
142
0.0
143
0.0393701
144
1.0
145
0.0
146
0.71
147
1.5
 71
     0
 72
     0
 73
     0
 74
     0
 75
     1
 76
     0
 77
     3
 78
     8
170
     0
171
     2
172
     1
173
     1
174
     0
175
     0
176
   256
177
   256
178
     4
  0
DIMSTYLE
  2
AM_ANSI
 70
     0
  3

  4
mm
  5

  6

  7

 40
1.0
 41
0.1
 42
0.05
 43
0.5
 44
0.1
 45
0.0
 46
0.0
 47
0.1
 48
0.1
140
0.12
141
0.0
142
0.0
143
25.399999999999999
144
1.0
145
0.0
146
0.71
147
0.06
 71
     0
 72
     0
 73
     1
 74
     1
 75
     0
 76
     0
 77
     0
 78
     7
170
     0
171
     2
172
     0
173
     0
174
     0
175
     0
176
   256
177
   256
178
     2
  0
DIMSTYLE
  2
AM_ANSI$3
 70
     0
  3

  4
mm
  5

  6

  7

 40
1.0
 41
0.1
 42
0.05
 43
0.5
 44
0.1
 45
0.0
 46
0.0
 47
0.1
 48
0.1
140
0.12
141
0.0
142
0.0
143
25.399999999999999
144
1.0
145
0.0
146
0.71
147
0.06
 71
     0
 72
     0
 73
     1
 74
     1
 75
     0
 76
     0
 77
     0
 78
     7
170
     0
171
     2
172
     0
173
     0
174
     0
175
     0
176
   256
177
   256
178
     2
  0
DIMSTYLE
  2
AM_ANSI$4
 70
     0
  3

  4
mm
  5

  6

  7

 40
1.0
 41
0.1
 42
0.05
 43
0.5
 44
0.1
 45
0.0
 46
0.0
 47
0.1
 48
0.1
140
0.12
141
0.0
142
0.0
143
25.399999999999999
144
1.0
145
0.0
146
0.71
147
0.06
 71
     0
 72
     0
 73
     1
 74
     1
 75
     0
 76
     0
 77
     0
 78
     7
170
     0
171
     2
172
     0
173
     0
174
     0
175
     0
176
   256
177
   256
178
     2
  0
DIMSTYLE
  2
AM_ANSI$7
 70
     0
  3

  4
mm
  5

  6

  7

 40
1.0
 41
0.1
 42
0.05
 43
0.5
 44
0.1
 45
0.0
 46
0.0
 47
0.1
 48
0.1
140
0.24
141
0.0
142
0.0
143
25.399999999999999
144
1.0
145
0.0
146
0.71
147
0.06
 71
     0
 72
     0
 73
     1
 74
     1
 75
     0
 76
     0
 77
     0
 78
     7
170
     0
171
     2
172
     0
173
     0
174
     0
175
     0
176
   256
177
   256
178
     2
  0
DIMSTYLE
  2
AM_ANSI$SF
 70
     0
  3

  4
mm
  5

  6

  7

 40
1.0
 41
0.1
 42
0.05
 43
0.5
 44
0.1
 45
0.0
 46
0.0
 47
0.1
 48
0.1
140
0.12
141
0.0
142
0.0
143
25.399999999999999
144
1.0
145
0.0
146
0.71
147
0.06
 71
     0
 72
     0
 73
     1
 74
     1
 75
     1
 76
     1
 77
     0
 78
     7
170
     0
171
     2
172
     0
173
     0
174
     0
175
     0
176
   256
177
   256
178
     2
  0
DIMSTYLE
  2
AM_ANSI$SH
 70
     0
  3

  4
mm
  5

  6

  7

 40
1.0
 41
0.1
 42
0.05
 43
0.5
 44
0.1
 45
0.0
 46
0.0
 47
0.1
 48
0.1
140
0.12
141
0.0
142
0.0
143
25.399999999999999
144
1.0
145
0.0
146
0.71
147
0.06
 71
     0
 72
     0
 73
     1
 74
     1
 75
     1
 76
     1
 77
     0
 78
     7
170
     0
171
     2
172
     0
173
     1
174
     0
175
     0
176
   256
177
   256
178
     2
  0
ENDTAB
  0
ENDSEC
  0
SECTION
  2
BLOCKS
  0
BLOCK
  8
0
  2
$MODEL_SPACE
 70
     0
 10
0.0
 20
0.0
 30
0.0
  3
$MODEL_SPACE
  1

  0
ENDBLK
  5
359C
  8
0
  0
BLOCK
 67
     1
  8
0
  2
$PAPER_SPACE
 70
     0
 10
0.0
 20
0.0
 30
0.0
  3
$PAPER_SPACE
  1

  0
ENDBLK
  5
3598
 67
     1
  8
0
  0
BLOCK
  8
0
  2
GENAXEH
 70
     0
 10
0.0
 20
0.0
 30
0.0
  3
GENAXEH
  1

  0
LINE
  5
3356
  8
0
 10
-1.0
 20
0.0
 30
0.0
 11
1.0
 21
0.0
 31
0.0
  0
ENDBLK
  5
3357
  8
0
  0
BLOCK
  8
0
  2
_OPEN30
 70
     0
 10
0.0
 20
0.0
 30
0.0
  3
_OPEN30
  1

  0
LINE
  5
335A
  8
0
 62
     0
 10
-1.0
 20
0.26794919
 30
0.0
 11
0.0
 21
0.0
 31
0.0
  0
LINE
  5
335B
  8
0
 62
     0
 10
0.0
 20
0.0
 30
0.0
 11
-1.0
 21
-0.26794919
 31
0.0
  0
LINE
  5
335C
  8
0
 62
     0
 10
0.0
 20
0.0
 30
0.0
 11
-1.0
 21
0.0
 31
0.0
  0
ENDBLK
  5
335D
  8
0
  0
BLOCK
  8
0
  2
_NONE
 70
     0
 10
0.0
 20
0.0
 30
0.0
  3
_NONE
  1

  0
ENDBLK
  5
3360
  8
0
  0
BLOCK
  8
0
  2
*U5
 70
     1
 10
0.0
 20
0.0
 30
0.0
  3
*U5
  1

  0
TEXT
  5
3363
  8
AM_0
 62
     4
 10
801.7930368305972
 20
399.53666014608802
 30
0.0
 40
12.5
  1
\U+2205
 50
90.0
 41
0.8299999999999999
  0
TEXT
  5
3364
  8
AM_0
 62
     4
 10
801.7930368305972
 20
409.91166014608802
 30
0.0
 40
12.5
  1
240
 50
90.0
 41
0.8299999999999999
  0
TEXT
  5
3365
  8
AM_0
 62
     4
 10
801.7930368305972
 20
439.30749347942123
 30
0.0
 40
10.0
  1
h7
 50
90.0
 41
0.8299999999999999
  0
ENDBLK
  5
3366
  8
0
  0
BLOCK
  8
0
  2
*U6
 70
     1
 10
0.0
 20
0.0
 30
0.0
  3
*U6
  1

  0
TEXT
  5
3369
  8
AM_0
 62
     4
 10
359.75275434360162
 20
371.04708681275491
 30
0.0
 40
12.5
  1
\U+2205
 50
90.0
 41
0.8299999999999999
  0
TEXT
  5
336A
  8
AM_0
 62
     4
 10
359.75275434360162
 20
381.42208681275491
 30
0.0
 40
12.5
  1
200
 50
90.0
 41
0.8299999999999999
  0
ENDBLK
  5
336B
  8
0
  0
BLOCK
  8
0
  2
*U7
 70
     1
 10
0.0
 20
0.0
 30
0.0
  3
*U7
  1

  0
TEXT
  5
336E
  8
AM_0
 62
     4
 10
391.99729437867131
 20
363.2658368127548
 30
0.0
 40
12.5
  1
\U+2205
 50
90.0
 41
0.8299999999999999
  0
TEXT
  5
336F
  8
AM_0
 62
     4
 10
391.99729437867131
 20
373.64083681275451
 30
0.0
 40
12.5
  1
130
 50
90.0
 41
0.8299999999999999
  0
TEXT
  5
3370
  8
AM_0
 62
     4
 10
391.99729437867131
 20
399.57833681275451
 30
0.0
 40
10.0
  1
G7
 50
90.0
 41
0.8299999999999999
  0
ENDBLK
  5
3371
  8
0
  0
BLOCK
  8
0
  2
*U8
 70
     1
 10
0.0
 20
0.0
 30
0.0
  3
*U8
  1

  0
TEXT
  5
3374
  8
AM_0
 62
     4
 10
1052.644377792145
 20
622.28734175855595
 30
0.0
 40
12.5
  1
o
 41
0.8299999999999999
  0
TEXT
  5
3375
  8
AM_0
 62
     4
 10
1064.9955682683351
 20
622.28734175855595
 30
0.0
 40
12.5
  1
 285
 41
0.8299999999999999
  0
ENDBLK
  5
3376
  8
0
  0
BLOCK
  8
0
  2
*U9
 70
     1
 10
0.0
 20
0.0
 30
0.0
  3
*U9
  1

  0
TEXT
  5
3379
  8
AM_0
 62
     4
 10
981.26040018108961
 20
628.66358831700848
 30
0.0
 40
12.5
  1
o
 41
0.8299999999999999
  0
TEXT
  5
337A
  8
AM_0
 62
     4
 10
993.61159065727963
 20
628.66358831700848
 30
0.0
 40
12.5
  1
 285
 41
0.8299999999999999
  0
ENDBLK
  5
337B
  8
0
  0
BLOCK
  8
0
  2
*U10
 70
     1
 10
0.0
 20
0.0
 30
0.0
  3
*U10
  1

  0
TEXT
  5
337E
  8
AM_0
 62
     4
 10
730.40905921954197
 20
405.91290670454072
 30
0.0
 40
12.5
  1
\U+2205
 50
90.0
 41
0.8299999999999999
  0
TEXT
  5
337F
  8
AM_0
 62
     4
 10
730.40905921954197
 20
416.28790670454072
 30
0.0
 40
12.5
  1
240
 50
90.0
 41
0.8299999999999999
  0
TEXT
  5
3380
  8
AM_0
 62
     4
 10
730.40905921954197
 20
445.68374003787397
 30
0.0
 40
10.0
  1
h7
 50
90.0
 41
0.8299999999999999
  0
ENDBLK
  5
3381
  8
0
  0
BLOCK
  8
0
  2
*U11
 70
     1
 10
0.0
 20
0.0
 30
0.0
  3
*U11
  1

  0
TEXT
  5
3384
  8
AM_0
 62
     4
 10
288.36877673254622
 20
377.42333337120772
 30
0.0
 40
12.5
  1
\U+2205
 50
90.0
 41
0.8299999999999999
  0
TEXT
  5
3385
  8
AM_0
 62
     4
 10
288.36877673254622
 20
387.79833337120772
 30
0.0
 40
12.5
  1
200
 50
90.0
 41
0.8299999999999999
  0
ENDBLK
  5
3386
  8
0
  0
BLOCK
  8
0
  2
*U12
 70
     1
 10
0.0
 20
0.0
 30
0.0
  3
*U12
  1

  0
TEXT
  5
3389
  8
AM_0
 62
     4
 10
320.61331676761608
 20
369.6420833712076
 30
0.0
 40
12.5
  1
\U+2205
 50
90.0
 41
0.8299999999999999
  0
TEXT
  5
338A
  8
AM_0
 62
     4
 10
320.61331676761608
 20
380.01708337120772
 30
0.0
 40
12.5
  1
130
 50
90.0
 41
0.8299999999999999
  0
TEXT
  5
338B
  8
AM_0
 62
     4
 10
320.61331676761608
 20
405.95458337120772
 30
0.0
 40
10.0
  1
G7
 50
90.0
 41
0.8299999999999999
  0
ENDBLK
  5
338C
  8
0
  0
BLOCK
  8
0
  2
_ACMFILLEDHALF
 70
     0
 10
0.0
 20
0.0
 30
0.0
  3
_ACMFILLEDHALF
  1

  0
TRACE
  5
36A2
  8
AM_0
 62
     0
 10
-0.8
 20
0.0
 30
0.0
 11
-1.0
 21
0.166666666
 31
0.0
 12
0.0
 22
0.0
 32
0.0
 13
0.0
 23
0.0
 33
0.0
  0
LINE
  5
36A3
  8
AM_0
 62
     0
 10
-1.0
 20
0.0
 30
0.0
 11
-0.8
 21
0.0
 31
0.0
  0
ENDBLK
  5
36A1
  8
0
  0
ENDSEC
  0
SECTION
  2
ENTITIES
  0
LINE
  5
338E
  8
ﾁｭｳｼﾝｾﾝ
 10
352.26268206847681
 20
830.79815787304165
 30
0.0
 11
677.92699387156597
 21
830.79815787304165
 31
0.0
  0
POLYLINE
  5
338F
  8
AM_0
 66
     1
 10
0.0
 20
0.0
 30
0.0
  0
VERTEX
  5
3390
  8
AM_0
 10
551.27726387156576
 20
882.36267787304189
 30
0.0
 42
0.030646372
  0
VERTEX
  5
3391
  8
AM_0
 10
546.86772387156554
 20
848.079267873042
 30
0.0
 42
0.064801293
  0
VERTEX
  5
3392
  8
AM_0
 10
551.27726387156576
 20
779.23361787304157
 30
0.0
  0
SEQEND
  5
3393
  8
AM_0
  0
LINE
  5
3394
  8
AM_0
 10
596.41301387156591
 20
808.29815787304165
 30
0.0
 11
596.41301387156591
 21
853.29815787304153
 31
0.0
  0
LINE
  5
3395
  8
AM_0
 10
666.41301387156591
 20
809.79815787304165
 30
0.0
 11
666.41301387156591
 21
851.79815787304165
 31
0.0
  0
LINE
  5
3396
  8
AM_0
 10
572.41301387156591
 20
691.80719787304167
 30
0.0
 11
572.41301387156591
 21
969.77252787304155
 31
0.0
  0
LINE
  5
3397
  8
AM_0
 10
590.41301387156568
 20
688.29815787304187
 30
0.0
 11
590.41301387156568
 21
973.29815787304165
 31
0.0
  0
LINE
  5
3398
  8
AM_0
 10
580.41301387156591
 20
719.84088787304165
 30
0.0
 11
580.41301387156591
 21
941.75543787304161
 31
0.0
  0
LINE
  5
3399
  8
AM_0
 10
594.41301387156568
 20
710.79815787304165
 30
0.0
 11
594.41301387156568
 21
950.79815787304165
 31
0.0
  0
LINE
  5
339A
  8
AM_0
 10
412.91295387156572
 20
757.29815787304165
 30
0.0
 11
412.91295387156572
 21
904.29821787304195
 31
0.0
  0
LINE
  5
339B
  8
AM_0
 10
474.41301387156562
 20
691.06018787304185
 30
0.0
 11
474.41301387156562
 21
826.79815787304165
 31
0.0
  0
LINE
  5
339C
  8
AM_0
 10
461.41295387156578
 20
694.58838787304171
 30
0.0
 11
461.41295387156578
 21
821.25872787304195
 31
0.0
  0
LINE
  5
339D
  8
AM_0
 10
447.41301387156579
 20
716.69018787304185
 30
0.0
 11
447.41301387156579
 21
826.79815787304165
 31
0.0
  0
LINE
  5
339E
  8
AM_0
 10
530.10051387156591
 20
757.89605787304174
 30
0.0
 11
572.41301387156591
 21
757.89605787304174
 31
0.0
  0
LINE
  5
339F
  8
AM_0
 10
474.41301387156562
 20
701.66778787304156
 30
0.0
 11
572.41301387156591
 21
698.24554787304157
 31
0.0
  0
LINE
  5
33A0
  8
AM_0
 10
474.41301387156562
 20
691.06018787304185
 30
0.0
 11
575.34661387156575
 21
688.82452787304157
 31
0.0
  0
LINE
  5
33A1
  8
AM_0
 10
570.26561387156585
 20
733.79449787304156
 30
0.0
 11
537.76287387156594
 21
753.23236787304211
 31
0.0
  0
LINE
  5
33A2
  8
AM_0
 10
569.97930387156566
 20
727.55157787304188
 30
0.0
 11
528.56072387156576
 21
752.32135787304173
 31
0.0
  0
LINE
  5
33A3
  8
AM_0
 10
474.41301387156562
 20
779.23358787304164
 30
0.0
 11
572.41301387156591
 21
779.23358787304164
 31
0.0
  0
LINE
  5
33A4
  8
AM_0
 10
463.34319387156597
 20
702.05438787304172
 30
0.0
 11
474.41301387156562
 21
701.66778787304156
 31
0.0
  0
LINE
  5
33A5
  8
AM_0
 10
461.41295387156578
 20
779.23358787304164
 30
0.0
 11
474.41301387156562
 21
779.23358787304164
 31
0.0
  0
LINE
  5
33A6
  8
AM_0
 10
461.41295387156578
 20
753.23236787304211
 30
0.0
 11
474.41301387156562
 21
753.23236787304211
 31
0.0
  0
LINE
  5
33A7
  8
AM_0
 10
464.24303387156601
 20
691.59320787304171
 30
0.0
 11
474.41301387156562
 21
691.06024787304159
 31
0.0
  0
ARC
  5
33A8
  8
AM_0
 10
442.41301387156579
 20
751.26495787304168
 30
0.0
 40
5.0
 50
0.0
 51
87.999999999996248
  0
LINE
  5
33A9
  8
AM_0
 10
449.89202387156593
 20
713.71911787304157
 30
0.0
 11
458.93395387156568
 21
712.12481787304171
 31
0.0
  0
ARC
  5
33AA
  8
AM_0
 10
450.41301387156579
 20
716.6735878730417
 30
0.0
 40
3.0
 50
179.9999899999988
 51
260.00000000000119
  0
ARC
  5
33AB
  8
AM_0
 10
464.41295387156578
 20
694.58838787304171
 30
0.0
 40
3.0
 50
180.00001000000091
 51
266.99999000000008
  0
ARC
  5
33AC
  8
AM_0
 10
463.41301387156579
 20
704.05316787304173
 30
0.0
 40
2.0
 50
179.9999899999988
 51
268.00000999999861
  0
ARC
  5
33AD
  8
AM_0
 10
458.41301387156562
 20
709.1704778730417
 30
0.0
 40
3.0
 50
0.0
 51
79.999998000001099
  0
LINE
  5
33AE
  8
AM_0
 10
412.91295387156572
 20
757.29815787304165
 30
0.0
 11
442.58751387156582
 21
756.26190787304188
 31
0.0
  0
LINE
  5
33AF
  8
AM_0
 10
412.91301387156562
 20
791.3234878730417
 30
0.0
 11
447.41301387156579
 21
791.3234878730417
 31
0.0
  0
LINE
  5
33B0
  8
AM_0
 10
412.91301387156562
 20
769.21954787304173
 30
0.0
 11
447.41301387156579
 21
769.21954787304173
 31
0.0
  0
ARC
  5
33B1
  8
AM_0
 10
530.10051387156591
 20
754.89605787304174
 30
0.0
 40
3.0
 50
90.00000299999769
 51
239.11901999999981
  0
ARC
  5
33B2
  8
AM_0
 10
526.20879387156594
 20
750.23236787304188
 30
0.0
 40
3.0
 50
59.11902300000196
 51
90.00000299999769
  0
LINE
  5
33B3
  8
AM_0
 10
474.41301387156562
 20
753.23236787304211
 30
0.0
 11
526.20879387156594
 21
753.23236787304211
 31
0.0
  0
ARC
  5
33B4
  8
AM_0
 10
575.41301387156591
 20
691.82379787304171
 30
0.0
 40
3.0
 50
179.9999899999988
 51
268.00000999999861
  0
LINE
  5
33B5
  8
AM_0
 10
596.41301387156591
 20
809.79815787304165
 30
0.0
 11
666.41301387156591
 21
809.79815787304165
 31
0.0
  0
LINE
  5
33B6
  8
AM_0
 10
562.281673871566
 20
757.89605787304174
 30
0.0
 11
572.41301387156591
 21
750.33801787304174
 31
0.0
  0
LINE
  5
33B7
  8
AM_0
 10
575.30828387156555
 20
688.82562787304198
 30
0.0
 11
590.41301387156568
 21
688.29815787304187
 31
0.0
  0
POLYLINE
  5
33B8
  8
AM_0
 66
     1
 10
0.0
 20
0.0
 30
0.0
  0
VERTEX
  5
33B9
  8
AM_0
 10
564.75412387156598
 20
730.67617787304164
 30
0.0
 42
0.0052467582
  0
VERTEX
  5
33BA
  8
AM_0
 10
567.17434387156595
 20
724.2663478730417
 30
0.0
 42
0.0052066449
  0
VERTEX
  5
33BB
  8
AM_0
 10
569.72801387156585
 20
717.908517873042
 30
0.0
 42
0.0051740769
  0
VERTEX
  5
33BC
  8
AM_0
 10
572.41301387156591
 20
711.60528787304168
 30
0.0
  0
SEQEND
  5
33BD
  8
AM_0
  0
ARC
  5
33BE
  8
AM_0
 10
575.41301387156591
 20
719.84088787304165
 30
0.0
 40
5.0
 50
267.99999999999631
 51
0.0
  0
ARC
  5
33BF
  8
AM_0
 10
567.41301387156591
 20
723.26037787304165
 30
0.0
 40
5.0
 50
0.0
 51
59.11901699999779
  0
LINE
  5
33C0
  8
AM_0
 10
590.41301387156568
 20
710.79815787304165
 30
0.0
 11
594.41301387156568
 21
710.79815787304165
 31
0.0
  0
ARC
  5
33C1
  8
AM_0
 10
577.41301387156579
 20
764.66375787304173
 30
0.0
 40
5.0
 50
90.00000299999769
 51
180.00001000000091
  0
LINE
  5
33C2
  8
AM_0
 10
594.41301387156568
 20
808.29815787304165
 30
0.0
 11
596.41301387156591
 21
808.29815787304165
 31
0.0
  0
LINE
  5
33C3
  8
AM_0
 10
530.10051387156591
 20
903.70025787304189
 30
0.0
 11
572.41301387156591
 21
903.70025787304189
 31
0.0
  0
LINE
  5
33C4
  8
AM_0
 10
474.41301387156562
 20
970.53613787304153
 30
0.0
 11
575.3465538715659
 21
972.77185787304188
 31
0.0
  0
LINE
  5
33C5
  8
AM_0
 10
474.41301387156562
 20
959.92852787304184
 30
0.0
 11
572.41308387156585
 21
963.35070787304153
 31
0.0
  0
LINE
  5
33C6
  8
AM_0
 10
474.41301387156562
 20
882.36273787304174
 30
0.0
 11
572.41301387156591
 21
882.36273787304174
 31
0.0
  0
LINE
  5
33C7
  8
AM_0
 10
569.97930387156566
 20
934.04480787304158
 30
0.0
 11
528.56072387156576
 21
909.27496787304199
 31
0.0
  0
LINE
  5
33C8
  8
AM_0
 10
570.26561387156585
 20
927.80175787304165
 30
0.0
 11
537.76287387156594
 21
908.36395787304184
 31
0.0
  0
ARC
  5
33C9
  8
AM_0
 10
450.41301387156579
 20
944.92273787304157
 30
0.0
 40
3.0
 50
99.999999999998593
 51
180.00001000000091
  0
LINE
  5
33CA
  8
AM_0
 10
461.41295387156578
 20
840.33758787304146
 30
0.0
 11
461.41295387156578
 21
967.00793787304167
 31
0.0
  0
LINE
  5
33CB
  8
AM_0
 10
474.41301387156562
 20
834.79815787304165
 30
0.0
 11
474.41301387156562
 21
970.53613787304153
 31
0.0
  0
ARC
  5
33CC
  8
AM_0
 10
474.91308387156562
 20
830.79815787304165
 30
0.0
 40
3.9999962
 50
270.0
 51
90.00000299999769
  0
LINE
  5
33CD
  8
AM_0
 10
441.91308387156568
 20
834.79815787304165
 30
0.0
 11
474.91308387156562
 21
834.79815787304165
 31
0.0
  0
LINE
  5
33CE
  8
AM_0
 10
441.91308387156568
 20
826.79815787304165
 30
0.0
 11
474.91308387156562
 21
826.79815787304165
 31
0.0
  0
LINE
  5
33CF
  8
AM_0
 10
461.41295387156578
 20
908.36395787304184
 30
0.0
 11
474.41301387156562
 21
908.36395787304184
 31
0.0
  0
LINE
  5
33D0
  8
AM_0
 10
461.41295387156578
 20
882.36273787304174
 30
0.0
 11
474.41301387156562
 21
882.36273787304174
 31
0.0
  0
LINE
  5
33D1
  8
AM_0
 10
447.41301387156579
 20
834.79815787304165
 30
0.0
 11
447.41301387156579
 21
944.93933787304184
 31
0.0
  0
LINE
  5
33D2
  8
AM_0
 10
412.91301387156562
 20
870.27282787304159
 30
0.0
 11
447.41301387156579
 21
870.27282787304159
 31
0.0
  0
ARC
  5
33D3
  8
AM_0
 10
458.41308387156568
 20
830.79815787304165
 30
0.0
 40
10.0
 50
203.5782699999985
 51
336.4217200000013
  0
ARC
  5
33D4
  8
AM_0
 10
458.41308387156568
 20
830.79815787304165
 30
0.0
 40
10.0
 50
23.57803699999776
 51
156.42196000000081
  0
ARC
  5
33D5
  8
AM_0
 10
441.91308387156568
 20
830.79815787304165
 30
0.0
 40
3.9999962
 50
90.00000299999769
 51
270.0
  0
LINE
  5
33D6
  8
AM_0
 10
412.91301387156562
 20
904.29821787304195
 30
0.0
 11
442.58745387156591
 21
905.33447787304169
 31
0.0
  0
LINE
  5
33D7
  8
AM_0
 10
412.91301387156562
 20
892.37677787304165
 30
0.0
 11
447.41301387156579
 21
892.37677787304165
 31
0.0
  0
ARC
  5
33D8
  8
AM_0
 10
442.41301387156579
 20
910.3313678730417
 30
0.0
 40
5.0
 50
272.00000000000369
 51
0.0
  0
LINE
  5
33D9
  8
AM_0
 10
474.41301387156562
 20
908.36395787304184
 30
0.0
 11
526.20879387156594
 21
908.36395787304184
 31
0.0
  0
ARC
  5
33DA
  8
AM_0
 10
530.10051387156591
 20
906.70025787304155
 30
0.0
 40
3.0
 50
120.8809700000043
 51
270.0
  0
ARC
  5
33DB
  8
AM_0
 10
526.20879387156594
 20
911.36395787304195
 30
0.0
 40
3.0
 50
270.0
 51
300.88098000000002
  0
LINE
  5
33DC
  8
AM_0
 10
464.25597387156591
 20
970.00384787304165
 30
0.0
 11
474.41301387156562
 21
970.53613787304153
 31
0.0
  0
LINE
  5
33DD
  8
AM_0
 10
463.34325387156559
 20
959.54193787304189
 30
0.0
 11
474.41301387156562
 21
959.92852787304184
 31
0.0
  0
LINE
  5
33DE
  8
AM_0
 10
449.89214387156602
 20
947.87719787304195
 30
0.0
 11
458.93395387156568
 21
949.47155787304189
 31
0.0
  0
ARC
  5
33DF
  8
AM_0
 10
458.41301387156562
 20
952.42590787304164
 30
0.0
 40
3.0
 50
280.00001000000128
 51
0.0
  0
ARC
  5
33E0
  8
AM_0
 10
463.41301387156579
 20
957.54315787304165
 30
0.0
 40
2.0
 50
91.999998000000545
 51
180.00001000000091
  0
ARC
  5
33E1
  8
AM_0
 10
464.41295387156578
 20
967.00793787304167
 30
0.0
 40
3.0
 50
92.999999000001679
 51
180.00001000000091
  0
POLYLINE
  5
33E2
  8
AM_0
 66
     1
 10
0.0
 20
0.0
 30
0.0
  0
VERTEX
  5
33E3
  8
AM_0
 10
572.41301387156591
 20
949.99102787304184
 30
0.0
  0
VERTEX
  5
33E4
  8
AM_0
 10
564.75419387156603
 20
930.92033787304172
 30
0.0
 42
-1.0
  0
SEQEND
  5
33E5
  8
AM_0
  0
ARC
  5
33E6
  8
AM_0
 10
575.41301387156591
 20
941.75543787304161
 30
0.0
 40
5.0
 50
0.0
 51
91.999998000000545
  0
LINE
  5
33E7
  8
AM_0
 10
596.41301387156591
 20
851.79815787304165
 30
0.0
 11
666.41301387156591
 21
851.79815787304165
 31
0.0
  0
LINE
  5
33E8
  8
AM_0
 10
610.41301387156591
 20
836.79815787304165
 30
0.0
 11
666.41301387156591
 21
836.79815787304165
 31
0.0
  0
LINE
  5
33E9
  8
AM_0
 10
610.41301387156591
 20
824.79815787304153
 30
0.0
 11
666.41301387156591
 21
824.79815787304153
 31
0.0
  0
ARC
  5
33EA
  8
AM_0
 10
610.41301387156591
 20
830.79815787304165
 30
0.0
 40
6.0000037999999991
 50
90.00000299999769
 51
270.0
  0
LINE
  5
33EB
  8
AM_0
 10
610.41301387156591
 20
836.79815787304165
 30
0.0
 11
610.41301387156591
 21
824.79815787304153
 31
0.0
  0
LINE
  5
33EC
  8
AM_0
 10
594.41301387156568
 20
853.29815787304153
 30
0.0
 11
596.41301387156591
 21
853.29815787304153
 31
0.0
  0
LINE
  5
33ED
  8
AM_0
 10
562.281673871566
 20
903.70025787304189
 30
0.0
 11
572.41301387156591
 21
911.25830787304164
 31
0.0
  0
ARC
  5
33EE
  8
AM_0
 10
577.41301387156579
 20
896.93255787304167
 30
0.0
 40
5.0
 50
179.9999899999988
 51
270.0
  0
ARC
  5
33EF
  8
AM_0
 10
567.41301387156591
 20
938.33593787304164
 30
0.0
 40
5.0
 50
300.88098000000002
 51
0.0
  0
LINE
  5
33F0
  8
AM_0
 10
575.30822387156616
 20
972.7707578730417
 30
0.0
 11
590.41301387156568
 21
973.29821787304161
 31
0.0
  0
ARC
  5
33F1
  8
AM_0
 10
575.41301387156591
 20
969.77252787304155
 30
0.0
 40
3.0
 50
91.999998000000545
 51
180.00001000000091
  0
LINE
  5
33F2
  8
AM_0
 10
590.41301387156568
 20
950.79815787304165
 30
0.0
 11
594.41301387156568
 21
950.79815787304165
 31
0.0
  0
LINE
  5
33F3
  8
ﾁｭｳｼﾝｾﾝ
 10
430.54906387156569
 20
432.71500003787418
 30
0.0
 11
671.20521387156612
 21
432.71500003787418
 31
0.0
  0
LINE
  5
33F4
  8
AM_0
 10
596.41301387156579
 20
453.7150350378742
 30
0.0
 11
666.41301387156557
 21
453.7150350378742
 31
0.0
  0
LINE
  5
33F5
  8
AM_0
 10
596.41301387156579
 20
411.71500003787418
 30
0.0
 11
666.41301387156557
 21
411.71500003787418
 31
0.0
  0
LINE
  5
33F6
  8
AM_0
 10
610.41301387156579
 20
456.71500003787418
 30
0.0
 11
666.41301387156557
 21
456.71500003787418
 31
0.0
  0
LINE
  5
33F7
  8
AM_0
 10
412.91301387156562
 20
468.21500003787429
 30
0.0
 11
371.6515468715657
 21
471.82491003787419
 31
0.0
  0
LINE
  5
33F8
  8
AM_0
 10
358.91301387156579
 20
294.71500003787418
 30
0.0
 11
358.91301387156579
 21
494.71500003787418
 31
0.0
  0
LINE
  5
33F9
  8
AM_0
 10
368.91301387156579
 20
493.71500003787429
 30
0.0
 11
368.91301387156579
 21
295.71500003787418
 31
0.0
  0
ARC
  5
33FA
  8
AM_0
 10
442.413113871566
 20
474.24823503787422
 30
0.0
 40
5.0
 50
271.99999999999687
 51
0.0
  0
LINE
  5
33FB
  8
AM_0
 10
594.41311387156588
 20
432.71500003787418
 30
0.0
 11
594.41311387156588
 21
552.71498003787428
 31
0.0
  0
LINE
  5
33FC
  8
AM_0
 10
580.41301387156579
 20
432.71500003787418
 30
0.0
 11
580.41301387156579
 21
543.67228003787375
 31
0.0
  0
LINE
  5
33FD
  8
AM_0
 10
571.27856387156555
 20
451.06797003787432
 30
0.0
 11
555.02566387156583
 21
500.2039850378743
 31
0.0
  0
LINE
  5
33FE
  8
AM_0
 10
590.41301387156568
 20
290.21500003787412
 30
0.0
 11
590.41301387156568
 21
575.21498003787428
 31
0.0
  0
LINE
  5
33FF
  8
AM_0
 10
572.413113871566
 20
454.20185003787418
 30
0.0
 11
572.413113871566
 21
571.68938003787434
 31
0.0
  0
LINE
  5
3400
  8
AM_0
 10
474.41311387156571
 20
264.7150300378741
 30
0.0
 11
474.41311387156571
 21
524.71500503787433
 31
0.0
  0
LINE
  5
3401
  8
AM_0
 10
412.91301387156562
 20
468.21500503787422
 30
0.0
 11
442.58751387156582
 21
469.2512600378742
 31
0.0
  0
LINE
  5
3402
  8
AM_0
 10
461.41301387156568
 20
267.10037503787407
 30
0.0
 11
461.41301387156568
 21
522.32969003787389
 31
0.0
  0
LINE
  5
3403
  8
AM_0
 10
447.413113871566
 20
280.59047503787428
 30
0.0
 11
447.413113871566
 21
522.71503503787415
 31
0.0
  0
LINE
  5
3404
  8
ﾁｭｳｼﾝｾﾝ
 10
352.26268206847681
 20
394.71500003787418
 30
0.0
 11
453.81971745938148
 21
394.71500003787418
 31
0.0
  0
LINE
  5
3405
  8
AM_0
 10
412.91301387156562
 20
456.29364503787411
 30
0.0
 11
447.413113871566
 21
456.29364503787411
 31
0.0
  0
LINE
  5
3406
  8
AM_0
 10
412.91301387156562
 20
434.18967503787422
 30
0.0
 11
447.413113871566
 21
434.18967503787422
 31
0.0
  0
LINE
  5
3407
  8
AM_0
 10
412.91301387156562
 20
333.1363550378743
 30
0.0
 11
447.413113871566
 21
333.1363550378743
 31
0.0
  0
LINE
  5
3408
  8
AM_0
 10
412.91301387156562
 20
355.24033003787417
 30
0.0
 11
447.413113871566
 21
355.24033003787417
 31
0.0
  0
ARC
  5
3409
  8
AM_0
 10
414.91311387156583
 20
318.14337503787402
 30
0.0
 40
3.0000000500000001
 50
0.0
 51
88.000000000002899
  0
ARC
  5
340A
  8
AM_0
 10
420.9131138715656
 20
314.9639950378741
 30
0.0
 40
3.0000000500000001
 50
179.9999899999988
 51
265.00000000000028
  0
LINE
  5
340B
  8
AM_0
 10
412.91301387156562
 20
321.2150300378741
 30
0.0
 11
412.91301387156562
 21
468.2150350378742
 31
0.0
  0
LINE
  5
340C
  8
AM_0
 10
358.91301387156579
 20
294.71500003787418
 30
0.0
 11
367.91301387156562
 21
294.71500003787418
 31
0.0
  0
LINE
  5
340D
  8
AM_0
 10
412.91301387156562
 20
321.21500003787418
 30
0.0
 11
371.6515468715657
 21
317.60508903787439
 31
0.0
  0
ARC
  5
340E
  8
AM_0
 10
367.91301387156562
 20
295.71500003787418
 30
0.0
 40
1.0
 50
270.0
 51
0.0
  0
ARC
  5
340F
  8
AM_0
 10
371.91301387156568
 20
314.61650503787428
 30
0.0
 40
3.0
 50
94.99999999999973
 51
180.0
  0
LINE
  5
3410
  8
AM_0
 10
412.91301387156562
 20
321.2150300378741
 30
0.0
 11
415.01776387156571
 21
321.14151503787429
 31
0.0
  0
LINE
  5
3411
  8
AM_0
 10
371.91301387156568
 20
355.2403240378743
 30
0.0
 11
410.91301387156579
 21
355.2403240378743
 31
0.0
  0
LINE
  5
3412
  8
AM_0
 10
371.91301387156568
 20
331.20577503787428
 30
0.0
 11
408.91301387156579
 21
331.20577503787428
 31
0.0
  0
ARC
  5
3413
  8
AM_0
 10
371.91301387156568
 20
328.20577503787439
 30
0.0
 40
3.0
 50
90.0
 51
180.0
  0
ARC
  5
3414
  8
AM_0
 10
371.91301387156568
 20
352.2403240378743
 30
0.0
 40
3.0
 50
90.0
 51
180.0
  0
LINE
  5
3415
  8
AM_0
 10
410.91301387156579
 20
333.20577503787428
 30
0.0
 11
410.91301387156579
 21
353.2403240378743
 31
0.0
  0
ARC
  5
3416
  8
AM_0
 10
408.91301387156579
 20
333.20577503787428
 30
0.0
 40
2.0
 50
270.0
 51
0.0
  0
ARC
  5
3417
  8
AM_0
 10
412.91301387156562
 20
353.2403240378743
 30
0.0
 40
2.0
 50
120.0000000000005
 51
180.0
  0
LINE
  5
3418
  8
AM_0
 10
371.91301387156568
 20
458.22422503787431
 30
0.0
 11
408.91301387156579
 21
458.22422503787431
 31
0.0
  0
LINE
  5
3419
  8
AM_0
 10
371.91301387156568
 20
434.18967503787439
 30
0.0
 11
410.91301387156579
 21
434.18967503787439
 31
0.0
  0
ARC
  5
341A
  8
AM_0
 10
371.91301387156568
 20
437.18967503787439
 30
0.0
 40
3.0
 50
180.0
 51
270.0
  0
ARC
  5
341B
  8
AM_0
 10
371.91301387156568
 20
461.22422503787419
 30
0.0
 40
3.0
 50
180.0
 51
270.0
  0
LINE
  5
341C
  8
AM_0
 10
410.91301387156579
 20
456.22422503787419
 30
0.0
 11
410.91301387156579
 21
436.18967503787422
 31
0.0
  0
ARC
  5
341D
  8
AM_0
 10
412.91301387156562
 20
436.18967503787422
 30
0.0
 40
2.0
 50
180.0
 51
239.99999999999949
  0
ARC
  5
341E
  8
AM_0
 10
408.91301387156579
 20
456.22422503787419
 30
0.0
 40
2.0
 50
0.0
 51
90.0
  0
LINE
  5
341F
  8
AM_0
 10
417.91301387156579
 20
314.9639950378741
 30
0.0
 11
417.91301387156579
 21
332.71500003787412
 31
0.0
  0
LINE
  5
3420
  8
AM_0
 10
580.41301387156579
 20
432.71500003787418
 30
0.0
 11
580.41301387156579
 21
321.7577250378742
 31
0.0
  0
LINE
  5
3421
  8
AM_0
 10
594.41311387156588
 20
432.71500003787418
 30
0.0
 11
594.41311387156588
 21
312.71500003787412
 31
0.0
  0
LINE
  5
3422
  8
AM_0
 10
572.413113871566
 20
292.69302503787418
 30
0.0
 11
572.413113871566
 21
341.20816503787421
 31
0.0
  0
ARC
  5
3423
  8
AM_0
 10
502.41311387156583
 20
321.631900037874
 30
0.0
 40
9.7211409999999994
 50
90.00000299999769
 51
270.0
  0
LINE
  5
3424
  8
AM_0
 10
502.41311387156583
 20
313.75742003787428
 30
0.0
 11
502.41311387156583
 21
329.8573950378742
 31
0.0
  0
LINE
  5
3425
  8
AM_0
 10
461.41301387156568
 20
272.99774503787421
 30
0.0
 11
551.1967138715662
 21
272.99774503787421
 31
0.0
  0
LINE
  5
3426
  8
AM_0
 10
461.41301387156568
 20
287.45453003787418
 30
0.0
 11
576.23656387156575
 21
287.45453003787418
 31
0.0
  0
LINE
  5
3427
  8
AM_0
 10
502.41311387156583
 20
311.91077003787427
 30
0.0
 11
572.413113871566
 21
311.91077003787427
 31
0.0
  0
LINE
  5
3428
  8
AM_0
 10
474.41296387156598
 20
264.71501503787431
 30
0.0
 11
534.14156387156595
 21
263.1509600378742
 31
0.0
  0
LINE
  5
3429
  8
AM_0
 10
463.34326387156568
 20
265.1015650378742
 30
0.0
 11
474.41311387156571
 21
264.71500003787412
 31
0.0
  0
ARC
  5
342A
  8
AM_0
 10
463.41311387156537
 20
267.10037503787407
 30
0.0
 40
2.0000000500000001
 50
179.9999899999988
 51
268.00000999999861
  0
ARC
  5
342B
  8
AM_0
 10
458.41311387156549
 20
273.08731503787408
 30
0.0
 40
3.0000000500000001
 50
0.0
 51
79.999998000001099
  0
LINE
  5
342C
  8
AM_0
 10
449.89211387156558
 20
277.6360500378741
 30
0.0
 11
458.93401387156598
 21
276.04172003787409
 31
0.0
  0
ARC
  5
342D
  8
AM_0
 10
450.41301387156579
 20
280.59047503787428
 30
0.0
 40
3.0000000500000001
 50
179.9999899999988
 51
260.00000000000119
  0
ARC
  5
342E
  8
AM_0
 10
444.41311387156583
 20
306.88513503787419
 30
0.0
 40
3.0000000500000001
 50
0.0
 51
84.999996999998572
  0
LINE
  5
342F
  8
AM_0
 10
420.6515638715656
 20
311.97543503787409
 30
0.0
 11
444.67451387156581
 21
309.87369003787421
 31
0.0
  0
LINE
  5
3430
  8
AM_0
 10
575.51776387156565
 20
289.6948900378743
 30
0.0
 11
590.41311387156577
 21
290.2150300378741
 31
0.0
  0
LINE
  5
3431
  8
AM_0
 10
534.14156387156595
 20
263.15099003787412
 30
0.0
 11
580.41301387156579
 21
289.8658200378743
 31
0.0
  0
ARC
  5
3432
  8
AM_0
 10
575.41301387156579
 20
292.69302503787418
 30
0.0
 40
3.0000000500000001
 50
179.9999899999988
 51
271.99999000000139
  0
ARC
  5
3433
  8
AM_0
 10
575.41301387156579
 20
321.7577250378742
 30
0.0
 40
5.0
 50
268.0000000000029
 51
0.0
  0
LINE
  5
3434
  8
AM_0
 10
590.41301387156568
 20
312.71500003787412
 30
0.0
 11
594.41311387156588
 21
312.71500003787412
 31
0.0
  0
LINE
  5
3435
  8
AM_0
 10
461.41301387156568
 20
404.69602003787418
 30
0.0
 11
580.41301387156579
 21
404.69602003787418
 31
0.0
  0
LINE
  5
3436
  8
AM_0
 10
461.41301387156568
 20
384.73401503787409
 30
0.0
 11
580.41301387156579
 21
384.73401503787409
 31
0.0
  0
LINE
  5
3437
  8
AM_0
 10
502.41311387156583
 20
331.35303003787408
 30
0.0
 11
572.413113871566
 21
331.35303003787408
 31
0.0
  0
ARC
  5
3438
  8
AM_0
 10
577.41311387156588
 20
341.20816503787421
 30
0.0
 40
5.0
 50
90.00000299999769
 51
180.00001000000091
  0
ARC
  5
3439
  8
AM_0
 10
576.02566387156583
 20
452.63816003787417
 30
0.0
 40
5.0
 50
198.30292000000031
 51
270.0
  0
LINE
  5
343A
  8
AM_0
 10
576.02566387156583
 20
447.63816003787429
 30
0.0
 11
580.41301387156579
 21
447.63816003787429
 31
0.0
  0
LINE
  5
343B
  8
AM_0
 10
596.41301387156579
 20
410.21500003787418
 30
0.0
 11
596.41301387156579
 21
455.21500003787418
 31
0.0
  0
LINE
  5
343C
  8
AM_0
 10
594.41311387156588
 20
410.21500003787418
 30
0.0
 11
596.41301387156579
 21
410.21500003787418
 31
0.0
  0
LINE
  5
343D
  8
AM_0
 10
594.41311387156588
 20
455.21500003787418
 30
0.0
 11
596.41301387156579
 21
455.21500003787418
 31
0.0
  0
LINE
  5
343E
  8
AM_0
 10
610.41301387156579
 20
456.71500003787418
 30
0.0
 11
610.41301387156579
 21
453.7150350378742
 31
0.0
  0
LINE
  5
343F
  8
AM_0
 10
358.91301387156579
 20
494.71500003787418
 30
0.0
 11
367.91301387156562
 21
494.71500003787418
 31
0.0
  0
ARC
  5
3440
  8
AM_0
 10
371.91301387156568
 20
474.81349503787442
 30
0.0
 40
3.0
 50
180.0
 51
265.00000000000028
  0
ARC
  5
3441
  8
AM_0
 10
367.91301387156562
 20
493.71500003787429
 30
0.0
 40
1.0
 50
0.0
 51
90.0
  0
LINE
  5
3442
  8
AM_0
 10
525.91311387156566
 20
500.20392503787423
 30
0.0
 11
553.36611387156574
 21
500.20392503787423
 31
0.0
  0
LINE
  5
3443
  8
AM_0
 10
570.26571387156559
 20
529.71868003787415
 30
0.0
 11
528.5076638715658
 21
504.74579503787419
 31
0.0
  0
LINE
  5
3444
  8
AM_0
 10
461.41301387156568
 20
516.43232003787421
 30
0.0
 11
537.32361387156595
 21
516.43232003787421
 31
0.0
  0
LINE
  5
3445
  8
AM_0
 10
474.41301387156562
 20
524.71503503787415
 30
0.0
 11
544.30121387156566
 21
526.54513003787406
 31
0.0
  0
ARC
  5
3446
  8
AM_0
 10
504.61286387156559
 20
526.51013003787409
 30
0.0
 40
30.946884499999999
 50
307.55230999999719
 51
335.59612999999888
  0
ARC
  5
3447
  8
AM_0
 10
458.41311387156549
 20
545.21498003787428
 30
0.0
 40
20.500000499999992
 50
304.61364000000401
 51
235.3863500000021
  0
CIRCLE
  5
3448
  8
AM_0
 10
458.41311387156549
 20
545.21498003787428
 30
0.0
 40
12.5
  0
LINE
  5
3449
  8
AM_0
 10
461.41301387156568
 20
501.97553003787419
 30
0.0
 11
523.47456387156615
 21
501.97553003787419
 31
0.0
  0
LINE
  5
344A
  8
AM_0
 10
463.34326387156568
 20
524.32847003787424
 30
0.0
 11
474.41301387156562
 21
524.71503503787415
 31
0.0
  0
LINE
  5
344B
  8
AM_0
 10
472.413113871566
 20
524.71503503787415
 30
0.0
 11
474.41311387156571
 21
524.71503503787415
 31
0.0
  0
ARC
  5
344C
  8
AM_0
 10
463.41311387156537
 20
522.32969003787389
 30
0.0
 40
2.0000000500000001
 50
91.999998000000545
 51
180.00001000000091
  0
ARC
  5
344D
  8
AM_0
 10
449.41311387156571
 20
522.71503503787415
 30
0.0
 40
2.0000000500000001
 50
131.4096200000032
 51
180.00001000000091
  0
ARC
  5
344E
  8
AM_0
 10
458.41311387156549
 20
516.34275003787423
 30
0.0
 40
3.0000000500000001
 50
279.99999999999852
 51
0.0
  0
LINE
  5
344F
  8
AM_0
 10
449.89211387156558
 20
511.7940150378742
 30
0.0
 11
458.93401387156598
 21
513.38834503787427
 31
0.0
  0
ARC
  5
3450
  8
AM_0
 10
450.41301387156579
 20
508.83957503787428
 30
0.0
 40
3.0000000500000001
 50
99.999999999998593
 51
180.00001000000091
  0
LINE
  5
3451
  8
AM_0
 10
458.41311387156549
 20
532.71508003787415
 30
0.0
 11
465.916513871566
 21
531.32973003787424
 31
0.0
  0
LINE
  5
3452
  8
AM_0
 10
450.59596387156569
 20
531.21508003787415
 30
0.0
 11
466.23016387156611
 21
531.21508003787415
 31
0.0
  0
LINE
  5
3453
  8
AM_0
 10
448.09021387156582
 20
524.21506503787396
 30
0.0
 11
462.74571387156601
 21
524.21506503787396
 31
0.0
  0
ARC
  5
3454
  8
AM_0
 10
451.09126387156613
 20
530.34628003787429
 30
0.0
 40
1.0
 50
100.4607200000025
 51
164.99999000000179
  0
LINE
  5
3455
  8
AM_0
 10
448.41301387156579
 20
524.21503503787415
 30
0.0
 11
450.12526387156578
 21
530.60513003787423
 31
0.0
  0
ARC
  5
3456
  8
AM_0
 10
444.49611387156563
 20
525.05149003787426
 30
0.0
 40
4.000000049999997
 50
347.9293300000017
 51
55.386359000001512
  0
LINE
  5
3457
  8
AM_0
 10
450.90966387156573
 20
531.32968003787403
 30
0.0
 11
458.41311387156549
 21
532.71503003787404
 31
0.0
  0
ARC
  5
3458
  8
AM_0
 10
465.73491387156622
 20
530.34628003787429
 30
0.0
 40
1.0
 50
15.000000000000741
 51
79.539281000002589
  0
ARC
  5
3459
  8
AM_0
 10
472.3300138715656
 20
525.05149003787426
 30
0.0
 40
4.000000049999997
 50
124.6136499999977
 51
187.86824999999891
  0
LINE
  5
345A
  8
AM_0
 10
468.33596387156592
 20
524.50284503787395
 30
0.0
 11
466.70081387156557
 21
530.60518003787411
 31
0.0
  0
LINE
  5
345B
  8
AM_0
 10
472.413113871566
 20
524.64521003787422
 30
0.0
 11
472.413113871566
 21
524.71503503787415
 31
0.0
  0
ARC
  5
345C
  8
AM_0
 10
525.91311387156566
 20
505.20392503787423
 30
0.0
 40
5.0
 50
229.76332999999909
 51
270.0
  0
LINE
  5
345D
  8
AM_0
 10
547.70596387156627
 20
528.0078300378741
 30
0.0
 11
570.94861387156595
 21
551.25053003787411
 31
0.0
  0
LINE
  5
345E
  8
AM_0
 10
556.35576387156596
 20
501.1963250378742
 30
0.0
 11
572.41301387156579
 21
513.17514503787424
 31
0.0
  0
ARC
  5
345F
  8
AM_0
 10
553.36611387156574
 20
505.20392503787423
 30
0.0
 40
5.0
 50
270.0
 51
306.72320999999818
  0
LINE
  5
3460
  8
AM_0
 10
569.97931387156575
 20
535.96163003787433
 30
0.0
 11
532.92041387156576
 21
513.79905003787405
 31
0.0
  0
LINE
  5
3461
  8
AM_0
 10
547.62081387156593
 20
522.59037003787421
 30
0.0
 11
546.29536387156611
 21
526.59738003787425
 31
0.0
  0
ARC
  5
3462
  8
AM_0
 10
544.17036387156611
 20
531.54338003787404
 30
0.0
 40
5.0
 50
271.50000000000261
 51
315.0
  0
ARC
  5
3463
  8
AM_0
 10
567.413113871566
 20
540.25278003787412
 30
0.0
 40
5.0
 50
300.88098000000002
 51
0.0
  0
LINE
  5
3464
  8
AM_0
 10
575.30836387156603
 20
574.68753003787424
 30
0.0
 11
590.41311387156577
 21
575.21498003787428
 31
0.0
  0
ARC
  5
3465
  8
AM_0
 10
575.41301387156579
 20
543.67228003787375
 30
0.0
 40
5.0
 50
0.0
 51
91.999998000000545
  0
ARC
  5
3466
  8
AM_0
 10
567.413113871566
 20
554.78603003787396
 30
0.0
 40
5.0
 50
315.0
 51
0.0
  0
ARC
  5
3467
  8
AM_0
 10
575.41301387156579
 20
571.68938003787434
 30
0.0
 40
3.0000000500000001
 50
91.999998000000545
 51
180.00001000000091
  0
LINE
  5
3468
  8
AM_0
 10
590.41301387156568
 20
552.71498003787428
 30
0.0
 11
594.41311387156588
 21
552.71498003787428
 31
0.0
  0
CIRCLE
  5
3469
  8
AM_0
 10
951.38206620270114
 20
432.71500003787418
 30
0.0
 40
120.0
  0
CIRCLE
  5
346A
  8
AM_0
 10
951.38206620270114
 20
432.71500003787418
 30
0.0
 40
113.0
  0
ARC
  5
346B
  8
AM_0
 10
951.38206620270114
 20
432.71500003787418
 30
0.0
 40
61.999994999999998
 50
0.0
 51
36.416318000003159
  0
ARC
  5
346C
  8
AM_0
 10
951.38206620270114
 20
432.71500003787418
 30
0.0
 40
61.999994999999998
 50
142.1149900000004
 51
180.00001000000091
  0
ARC
  5
346D
  8
AM_0
 10
951.38206620270114
 20
394.71500003787418
 30
0.0
 40
122.0
 50
22.571981999999569
 51
55.326819999998243
  0
ARC
  5
346E
  8
AM_0
 10
951.38206620270114
 20
394.71500003787418
 30
0.0
 40
122.0
 50
124.67318000000159
 51
157.4280199999998
  0
CIRCLE
  5
346F
  8
AM_0
 10
951.38206620270114
 20
432.71500003787418
 30
0.0
 40
41.000000499999992
  0
LINE
  5
3470
  8
ﾁｭｳｼﾝｾﾝ
 10
951.38206620270114
 20
581.29131380621629
 30
0.0
 11
951.38206620270114
 21
256.74544003787412
 31
0.0
  0
LINE
  5
3471
  8
AM_0
 10
808.882076202701
 20
482.71500503787422
 30
0.0
 11
808.882076202701
 21
432.71500003787418
 31
0.0
  0
LINE
  5
3472
  8
AM_0
 10
1093.8820512027
 20
482.71500503787422
 30
0.0
 11
1093.8820512027
 21
432.71500003787418
 31
0.0
  0
LINE
  5
3473
  8
ﾁｭｳｼﾝｾﾝ
 10
801.79578141004833
 20
432.71500003787418
 30
0.0
 11
1101.9084185795659
 21
432.71500003787418
 31
0.0
  0
LINE
  5
3474
  8
AM_0
 10
1056.904561202701
 20
404.71500003787418
 30
0.0
 11
1021.3820662027
 21
404.71500003787418
 31
0.0
  0
LINE
  5
3475
  8
AM_0
 10
1073.0538812027
 20
292.71787003787421
 30
0.0
 11
1001.382036202701
 21
290.2150300378741
 31
0.0
  0
ARC
  5
3476
  8
AM_0
 10
830.37332620270115
 20
311.70630503787407
 30
0.0
 40
19.000000499999999
 50
182.0000000000004
 51
268.0000000000029
  0
LINE
  5
3477
  8
AM_0
 10
666.41301387156557
 20
411.71500003787418
 30
0.0
 11
666.41301387156557
 21
456.71500003787418
 31
0.0
  0
ARC
  5
3478
  8
ﾁｭｳｼﾝｾﾝ1
 10
951.38206620270114
 20
432.71500003787492
 30
0.0
 40
170.0000050000001
 50
218.7742532361884
 51
231.01461
  0
LINE
  5
3479
  8
ﾁｭｳｼﾝｾﾝ1
 10
819.85439002068301
 20
301.18738549823962
 30
0.0
 11
843.24548060189716
 21
324.57844896750998
 31
0.0
  0
LINE
  5
347A
  8
AM_0
 10
811.38492620270085
 20
311.04321503787412
 30
0.0
 11
808.882076202701
 21
382.71503003787421
 31
0.0
  0
ARC
  5
347B
  8
AM_0
 10
951.38206620270114
 20
394.71500003787418
 30
0.0
 40
130.0
 50
246.6310400000028
 51
293.36895999999689
  0
LINE
  5
347C
  8
AM_0
 10
901.38206620270114
 20
290.21500003787412
 30
0.0
 11
951.38206620270114
 21
290.21500003787412
 31
0.0
  0
LINE
  5
347D
  8
AM_0
 10
829.71017620270129
 20
292.71787003787421
 30
0.0
 11
901.38200620270084
 21
290.2150300378741
 31
0.0
  0
CIRCLE
  5
347E
  8
AM_0
 10
831.17392620270095
 20
312.50687003787408
 30
0.0
 40
9.5
  0
LINE
  5
347F
  8
AM_0
 10
876.72279620270115
 20
279.54353503787428
 30
0.0
 11
873.60344120270145
 21
291.18509503787408
 31
0.0
  0
LINE
  5
3480
  8
AM_0
 10
888.97023120270148
 20
272.4724600378741
 30
0.0
 11
899.817461202701
 21
275.37897003787413
 31
0.0
  0
ARC
  5
3481
  8
AM_0
 10
886.38206620270114
 20
282.13171503787407
 30
0.0
 40
10.0
 50
195.0000099999981
 51
285.00000000000148
  0
LINE
  5
3482
  8
AM_0
 10
1001.382066202701
 20
290.21500003787412
 30
0.0
 11
951.38206620270114
 21
290.21500003787412
 31
0.0
  0
LINE
  5
3483
  8
AM_0
 10
1026.0413362027
 20
279.54353503787428
 30
0.0
 11
1029.1606912027
 21
291.18506003787428
 31
0.0
  0
LINE
  5
3484
  8
AM_0
 10
1013.793901202701
 20
272.47244503787408
 30
0.0
 11
1002.946641202701
 21
275.37897003787413
 31
0.0
  0
ARC
  5
3485
  8
AM_0
 10
1016.3820662027
 20
282.13171503787407
 30
0.0
 40
10.0
 50
254.99999999999821
 51
344.99999999999909
  0
LINE
  5
3486
  8
ﾁｭｳｼﾝｾﾝ
 10
889.38206620270103
 20
394.71500003787418
 30
0.0
 11
1013.217333425113
 21
394.71500003787418
 31
0.0
  0
LINE
  5
3487
  8
AM_0
 10
808.882076202701
 20
382.71500003787418
 30
0.0
 11
808.882076202701
 21
432.71500003787418
 31
0.0
  0
LINE
  5
3488
  8
AM_0
 10
845.85957120270155
 20
404.71500003787418
 30
0.0
 11
881.38206620270103
 21
404.71500003787418
 31
0.0
  0
ARC
  5
3489
  8
AM_0
 10
845.85957120270155
 20
409.71500003787418
 30
0.0
 40
5.0
 50
192.29603999999881
 51
270.0
  0
LINE
  5
348A
  8
AM_0
 10
889.38206620270103
 20
432.71500003787418
 30
0.0
 11
889.38206620270103
 21
412.71500003787418
 31
0.0
  0
ARC
  5
348B
  8
AM_0
 10
881.38206620270103
 20
412.71500003787418
 30
0.0
 40
8.0
 50
270.0
 51
0.0
  0
ARC
  5
348C
  8
AM_0
 10
951.38206620270114
 20
432.71500003787418
 30
0.0
 40
20.9999985
 50
106.6015499999988
 51
73.398451999997818
  0
CIRCLE
  5
348D
  8
AM_5
 10
951.38206620270114
 20
432.71500003787418
 30
0.0
 40
5.0
  0
CIRCLE
  5
348E
  8
AM_0
 10
951.38206620270114
 20
432.71500003787418
 30
0.0
 40
3.5000000500000001
  0
LINE
  5
348F
  8
AM_0
 10
945.38206620270114
 20
448.71503503787397
 30
0.0
 11
957.38206620270125
 21
448.71503503787397
 31
0.0
  0
LINE
  5
3490
  8
AM_0
 10
945.38206620270114
 20
456.71500003787418
 30
0.0
 11
957.38206620270125
 21
456.71500003787418
 31
0.0
  0
LINE
  5
3491
  8
AM_0
 10
945.38206620270114
 20
456.71500003787418
 30
0.0
 11
945.38206620270114
 21
448.71503503787397
 31
0.0
  0
LINE
  5
3492
  8
AM_0
 10
957.38206620270125
 20
456.71500003787418
 30
0.0
 11
957.38206620270125
 21
448.71503503787397
 31
0.0
  0
LINE
  5
3493
  8
AM_0
 10
1013.382036202701
 20
432.71500003787418
 30
0.0
 11
1013.382036202701
 21
412.71500003787418
 31
0.0
  0
ARC
  5
3494
  8
AM_0
 10
1021.3820662027
 20
412.71500003787418
 30
0.0
 40
8.0
 50
179.9999899999988
 51
270.0
  0
LINE
  5
3495
  8
AM_0
 10
1091.379231202701
 20
311.04321503787412
 30
0.0
 11
1093.882066202701
 21
382.71500003787418
 31
0.0
  0
ARC
  5
3496
  8
AM_0
 10
1072.390796202701
 20
311.70630503787407
 30
0.0
 40
19.000000499999999
 50
271.99999999999687
 51
357.9999999999992
  0
CIRCLE
  5
3497
  8
AM_0
 10
1071.590196202701
 20
312.50687003787408
 30
0.0
 40
9.5
  0
LINE
  5
3498
  8
AM_0
 10
1093.8820512027
 20
382.71500003787418
 30
0.0
 11
1093.8820512027
 21
432.71500003787418
 31
0.0
  0
ARC
  5
3499
  8
AM_0
 10
1056.904561202701
 20
409.71500003787418
 30
0.0
 40
5.0
 50
270.0
 51
347.70395000000082
  0
LINE
  5
349A
  8
AM_0
 10
1073.0538812027
 20
572.71213003787398
 30
0.0
 11
1001.382036202701
 21
575.21498003787428
 31
0.0
  0
LINE
  5
349B
  8
AM_0
 10
1030.957051202701
 20
505.2189700378741
 30
0.0
 11
1001.7630812027001
 21
476.02500003787389
 31
0.0
  0
ARC
  5
349C
  8
AM_0
 10
830.37332620270115
 20
553.72373003787425
 30
0.0
 40
19.000000499999999
 50
91.999998000000545
 51
177.9999999999994
  0
ARC
  5
349D
  8
AM_0
 10
951.38206620270114
 20
432.71500003787418
 30
0.0
 40
61.999994999999998
 50
53.583681000000588
 51
126.41631999999819
  0
LINE
  5
349E
  8
AM_0
 10
901.38206620270114
 20
575.21498003787428
 30
0.0
 11
951.38206620270114
 21
575.21498003787428
 31
0.0
  0
LINE
  5
349F
  8
AM_0
 10
811.38482620270099
 20
554.38683003787423
 30
0.0
 11
808.88202620270079
 21
482.71500503787422
 31
0.0
  0
LINE
  5
34A0
  8
AM_0
 10
878.87812620270131
 20
512.29001503787424
 30
0.0
 11
908.07209620270123
 21
483.09604503787432
 31
0.0
  0
LINE
  5
34A1
  8
AM_0
 10
871.80705120270102
 20
505.21894003787418
 30
0.0
 11
901.00102120270117
 21
476.0249700378742
 31
0.0
  0
ARC
  5
34A2
  8
AM_0
 10
868.27153120270123
 20
501.68338503787419
 30
0.0
 40
5.0
 50
45.00000100000149
 51
140.31278000000091
  0
ARC
  5
34A3
  8
AM_0
 10
897.46553120270084
 20
472.48944503787419
 30
0.0
 40
5.0
 50
323.58368000000172
 51
45.00000100000149
  0
ARC
  5
34A4
  8
AM_0
 10
911.60765120270082
 20
486.63160003787419
 30
0.0
 40
5.0
 50
225.0
 51
306.41631999999822
  0
ARC
  5
34A5
  8
AM_0
 10
882.41368120270124
 20
515.82554003787425
 30
0.0
 40
5.0
 50
129.6872200000015
 51
225.0
  0
LINE
  5
34A6
  8
AM_0
 10
829.71022620270151
 20
572.71213003787398
 30
0.0
 11
901.38206620270114
 21
575.21498003787428
 31
0.0
  0
CIRCLE
  5
34A7
  8
AM_0
 10
831.17392620270095
 20
552.92313003787422
 30
0.0
 40
9.5
  0
ARC
  5
34A8
  8
AM_0
 10
959.88206620270091
 20
540.37998003787425
 30
0.0
 40
5.0
 50
85.485944000000941
 51
180.00001000000091
  0
ARC
  5
34A9
  8
AM_0
 10
942.88206620270091
 20
540.37998003787425
 30
0.0
 40
5.0
 50
0.0
 51
94.514061000000083
  0
ARC
  5
34AA
  8
AM_0
 10
951.38206620270114
 20
394.71500003787418
 30
0.0
 40
122.0
 50
60.143060000003558
 51
86.162371999997163
  0
ARC
  5
34AB
  8
AM_0
 10
942.88206620270091
 20
521.4302450378741
 30
0.0
 40
5.0
 50
273.83763000000209
 51
0.0
  0
ARC
  5
34AC
  8
AM_0
 10
951.38206620270114
 20
394.71500003787492
 30
0.0
 40
122.0
 50
93.837626000003567
 51
119.8569400000037
  0
LINE
  5
34AD
  8
AM_0
 10
954.88206620270114
 20
540.37998003787425
 30
0.0
 11
954.88206620270114
 21
521.4302450378741
 31
0.0
  0
LINE
  5
34AE
  8
AM_0
 10
947.88206620270114
 20
540.37998003787425
 30
0.0
 11
947.88206620270114
 21
521.4302450378741
 31
0.0
  0
ARC
  5
34AF
  8
AM_0
 10
959.88206620270091
 20
521.4302450378741
 30
0.0
 40
5.0
 50
179.9999899999988
 51
266.16236000000072
  0
LINE
  5
34B0
  8
AM_0
 10
1023.8859712027
 20
512.29001503787424
 30
0.0
 11
994.69200120270182
 21
483.09604503787432
 31
0.0
  0
ARC
  5
34B1
  8
AM_0
 10
991.15648120270112
 20
486.63160003787419
 30
0.0
 40
5.0
 50
233.58368000000161
 51
315.0
  0
ARC
  5
34B2
  8
AM_0
 10
1005.298631202701
 20
472.48944503787419
 30
0.0
 40
5.0
 50
135.0
 51
216.41631999999831
  0
ARC
  5
34B3
  8
AM_0
 10
1020.350481202701
 20
515.82554003787425
 30
0.0
 40
5.0
 50
315.0
 51
50.312775000000542
  0
LINE
  5
34B4
  8
AM_0
 10
1001.382066202701
 20
575.21498003787428
 30
0.0
 11
951.38206620270114
 21
575.21498003787428
 31
0.0
  0
LINE
  5
34B5
  8
AM_0
 10
1091.379231202701
 20
554.38683003787423
 30
0.0
 11
1093.882066202701
 21
482.71500503787422
 31
0.0
  0
ARC
  5
34B6
  8
ﾁｭｳｼﾝｾﾝ1
 10
951.38206620269193
 20
432.71500003786463
 30
0.0
 40
170.00000500001249
 50
38.933611087964209
 51
51.014604000000709
  0
LINE
  5
34B7
  8
ﾁｭｳｼﾝｾﾝ1
 10
1082.1480263239459
 20
563.48100133639468
 30
0.0
 11
1059.59463634279
 21
540.927636256509
 31
0.0
  0
ARC
  5
34B8
  8
AM_0
 10
1034.4925712027009
 20
501.68338503787419
 30
0.0
 40
5.0
 50
39.687223999999532
 51
135.0
  0
ARC
  5
34B9
  8
AM_0
 10
1072.390796202701
 20
553.72373003787425
 30
0.0
 40
19.000000499999999
 50
2.0000000000004712
 51
88.000000000002899
  0
CIRCLE
  5
34BA
  8
AM_0
 10
1071.590196202701
 20
552.92313003787422
 30
0.0
 40
9.5
  0
LINE
  5
34BB
  8
AM_0
 10
368.91295387156572
 20
929.7981253730419
 30
0.0
 11
368.91295387156572
 21
731.79812537304156
 31
0.0
  0
LINE
  5
34BC
  8
AM_0
 10
358.91295387156572
 20
730.79812537304156
 30
0.0
 11
358.91295387156572
 21
930.7981253730419
 31
0.0
  0
LINE
  5
34BD
  8
AM_0
 10
371.91295387156572
 20
767.288900373042
 30
0.0
 11
408.91295387156572
 21
767.288900373042
 31
0.0
  0
LINE
  5
34BE
  8
AM_0
 10
412.91295387156572
 20
757.29812537304178
 30
0.0
 11
371.65148687156579
 21
753.68821437304155
 31
0.0
  0
LINE
  5
34BF
  8
AM_0
 10
358.91295387156572
 20
730.79812537304156
 30
0.0
 11
367.91295387156572
 21
730.79812537304156
 31
0.0
  0
ARC
  5
34C0
  8
AM_0
 10
367.91295387156572
 20
731.79812537304156
 30
0.0
 40
1.0
 50
270.0
 51
0.0
  0
ARC
  5
34C1
  8
AM_0
 10
371.91295387156572
 20
750.69963037304171
 30
0.0
 40
3.0
 50
94.99999999999973
 51
180.0
  0
ARC
  5
34C2
  8
AM_0
 10
371.91295387156572
 20
764.28890037304166
 30
0.0
 40
3.0
 50
90.0
 51
180.0
  0
ARC
  5
34C3
  8
AM_0
 10
408.91295387156572
 20
769.288900373042
 30
0.0
 40
2.0
 50
270.0
 51
0.0
  0
LINE
  5
34C4
  8
AM_0
 10
371.91295387156572
 20
870.27280037304195
 30
0.0
 11
410.91295387156578
 21
870.27280037304195
 31
0.0
  0
LINE
  5
34C5
  8
AM_0
 10
371.91295387156572
 20
894.30735037304169
 30
0.0
 11
408.91295387156572
 21
894.30735037304169
 31
0.0
  0
LINE
  5
34C6
  8
AM_0
 10
371.91295387156572
 20
791.32344937304174
 30
0.0
 11
410.91295387156578
 21
791.32344937304174
 31
0.0
  0
LINE
  5
34C7
  8
AM_0
 10
412.91295387156572
 20
904.29812537304167
 30
0.0
 11
371.65148687156579
 21
907.90803537304157
 31
0.0
  0
ARC
  5
34C8
  8
AM_0
 10
371.91295387156572
 20
788.32344937304174
 30
0.0
 40
3.0
 50
90.0
 51
180.0
  0
ARC
  5
34C9
  8
AM_0
 10
371.91295387156572
 20
873.2728003730416
 30
0.0
 40
3.0
 50
180.0
 51
270.0
  0
ARC
  5
34CA
  8
AM_0
 10
371.91295387156572
 20
897.30735037304157
 30
0.0
 40
3.0
 50
180.0
 51
270.0
  0
ARC
  5
34CB
  8
AM_0
 10
371.91295387156572
 20
910.89662037304174
 30
0.0
 40
3.0
 50
180.0
 51
265.00000000000028
  0
ARC
  5
34CC
  8
AM_0
 10
408.91295387156572
 20
892.30735037304169
 30
0.0
 40
2.0
 50
0.0
 51
90.0
  0
LINE
  5
34CD
  8
AM_0
 10
358.91295387156572
 20
930.7981253730419
 30
0.0
 11
367.91295387156572
 21
930.7981253730419
 31
0.0
  0
ARC
  5
34CE
  8
AM_0
 10
367.91295387156572
 20
929.7981253730419
 30
0.0
 40
1.0
 50
0.0
 51
90.0
  0
LINE
  5
34CF
  8
AM_0
 10
410.91295387156578
 20
769.288900373042
 30
0.0
 11
410.91295387156578
 21
789.32344937304174
 31
0.0
  0
LINE
  5
34D0
  8
AM_0
 10
412.91295387156572
 20
757.29815537304171
 30
0.0
 11
415.0177038715658
 21
757.22464037304178
 31
0.0
  0
ARC
  5
34D1
  8
AM_0
 10
412.91295387156572
 20
789.32344937304174
 30
0.0
 40
2.0
 50
120.0000000000005
 51
180.0
  0
LINE
  5
34D2
  8
AM_0
 10
410.91295387156578
 20
892.30735037304169
 30
0.0
 11
410.91295387156578
 21
872.2728003730416
 31
0.0
  0
ARC
  5
34D3
  8
AM_0
 10
412.91295387156572
 20
872.2728003730416
 30
0.0
 40
2.0
 50
180.0
 51
239.99999999999949
  0
ARC
  5
34D4
  8
ﾁｭｳｼﾝｾﾝ1
 10
951.38206620271069
 20
432.71500003786463
 30
0.0
 40
170.00000500001249
 50
128.98539599999879
 51
141.06638891203539
  0
LINE
  5
34D5
  8
ﾁｭｳｼﾝｾﾝ1
 10
820.61610608145702
 20
563.48100133639559
 30
0.0
 11
843.16949606261312
 21
540.92763625650969
 31
0.0
  0
ARC
  5
34D6
  8
ﾁｭｳｼﾝｾﾝ1
 10
951.38206620270148
 20
432.71500003787492
 30
0.0
 40
170.0000050000001
 50
308.98538999999971
 51
321.22574676381112
  0
LINE
  5
34D7
  8
ﾁｭｳｼﾝｾﾝ1
 10
1082.909742384719
 20
301.187385498239
 30
0.0
 11
1059.5186518035041
 21
324.57844896750919
 31
0.0
  0
TEXT
  5
36C7
  8
AM_0
 10
837.7014938510024
 20
876.22136091180744
 30
0.0
 40
15.0
  1
VX08-120AF~VX08-200AF
  0
ENDSEC
  0
EOF
