  0
SECTION
  2
HEADER
  9
$ACADVER
  1
AC1009
  9
$INSBASE
 10
0.0
 20
0.0
 30
0.0
  9
$EXTMIN
 10
271.71104793985251
 20
224.935162882729
 30
-0.0000000000000058
  9
$EXTMAX
 10
1309.8912080149059
 20
1041.941397448192
 30
0.0000000000000104
  9
$LIMMIN
 10
0.0
 20
0.0
  9
$LIMMAX
 10
1422.5
 20
925.0
  9
$ORTHOMODE
 70
     0
  9
$REGENMODE
 70
     1
  9
$FILLMODE
 70
     1
  9
$QTEXTMODE
 70
     0
  9
$MIRRTEXT
 70
     1
  9
$DRAGMODE
 70
     2
  9
$LTSCALE
 40
5.0
  9
$OSMODE
 70
   551
  9
$ATTMODE
 70
     1
  9
$TEXTSIZE
 40
2.5
  9
$TRACEWID
 40
1.0
  9
$TEXTSTYLE
  7
STANDARD
  9
$CLAYER
  8
AM_0
  9
$CELTYPE
  6
BYLAYER
  9
$CECOLOR
 62
   256
  9
$DIMSCALE
 40
1.0
  9
$DIMASZ
 40
2.5
  9
$DIMEXO
 40
1.0
  9
$DIMDLI
 40
8.0
  9
$DIMRND
 40
0.0
  9
$DIMDLE
 40
0.0
  9
$DIMEXE
 40
0.6
  9
$DIMTP
 40
0.1
  9
$DIMTM
 40
0.1
  9
$DIMTXT
 40
2.5
  9
$DIMCEN
 40
0.0
  9
$DIMTSZ
 40
0.0
  9
$DIMTOL
 70
     0
  9
$DIMLIM
 70
     0
  9
$DIMTIH
 70
     0
  9
$DIMTOH
 70
     0
  9
$DIMSE1
 70
     0
  9
$DIMSE2
 70
     0
  9
$DIMTAD
 70
     1
  9
$DIMZIN
 70
     8
  9
$DIMBLK
  1

  9
$DIMASO
 70
     1
  9
$DIMSHO
 70
     1
  9
$DIMPOST
  1

  9
$DIMAPOST
  1
"
  9
$DIMALT
 70
     0
  9
$DIMALTD
 70
     2
  9
$DIMALTF
 40
0.0393701
  9
$DIMLFAC
 40
1.0
  9
$DIMTOFL
 70
     1
  9
$DIMTVP
 40
0.0
  9
$DIMTIX
 70
     0
  9
$DIMSOXD
 70
     0
  9
$DIMSAH
 70
     0
  9
$DIMBLK1
  1

  9
$DIMBLK2
  1

  9
$DIMSTYLE
  2
AM_ISO
  9
$DIMCLRD
 70
   256
  9
$DIMCLRE
 70
   256
  9
$DIMCLRT
 70
     4
  9
$DIMTFAC
 40
0.71
  9
$DIMGAP
 40
0.8
  9
$LUNITS
 70
     2
  9
$LUPREC
 70
     2
  9
$SKETCHINC
 40
1.0
  9
$FILLETRAD
 40
25.0
  9
$AUNITS
 70
     0
  9
$AUPREC
 70
     0
  9
$MENU
  1
.
  9
$ELEVATION
 40
0.0
  9
$PELEVATION
 40
0.0
  9
$THICKNESS
 40
0.0
  9
$LIMCHECK
 70
     0
  9
$BLIPMODE
 70
     0
  9
$CHAMFERA
 40
10.0
  9
$CHAMFERB
 40
5.0
  9
$SKPOLY
 70
     0
  9
$TDCREATE
 40
2452066.4886901388
  9
$TDUPDATE
 40
2458541.5456946869
  9
$TDINDWG
 40
0.1395419907
  9
$TDUSRTIMER
 40
0.1395419792
  9
$USRTIMER
 70
     1
  9
$ANGBASE
 50
0.0
  9
$ANGDIR
 70
     0
  9
$PDMODE
 70
     0
  9
$PDSIZE
 40
0.0
  9
$PLINEWID
 40
0.0
  9
$COORDS
 70
     1
  9
$SPLFRAME
 70
     0
  9
$SPLINETYPE
 70
     6
  9
$SPLINESEGS
 70
     8
  9
$ATTDIA
 70
     1
  9
$ATTREQ
 70
     1
  9
$HANDLING
 70
     1
  9
$HANDSEED
  5
32C7
  9
$SURFTAB1
 70
     6
  9
$SURFTAB2
 70
     6
  9
$SURFTYPE
 70
     6
  9
$SURFU
 70
     6
  9
$SURFV
 70
     6
  9
$UCSNAME
  2

  9
$UCSORG
 10
0.0
 20
0.0
 30
0.0
  9
$UCSXDIR
 10
1.0
 20
0.0
 30
0.0
  9
$UCSYDIR
 10
0.0
 20
1.0
 30
0.0
  9
$PUCSNAME
  2

  9
$PUCSORG
 10
0.0
 20
0.0
 30
0.0
  9
$PUCSXDIR
 10
1.0
 20
0.0
 30
0.0
  9
$PUCSYDIR
 10
0.0
 20
1.0
 30
0.0
  9
$USERI1
 70
     0
  9
$USERI2
 70
     0
  9
$USERI3
 70
     0
  9
$USERI4
 70
     0
  9
$USERI5
 70
     0
  9
$USERR1
 40
0.0
  9
$USERR2
 40
0.0
  9
$USERR3
 40
0.0
  9
$USERR4
 40
0.0
  9
$USERR5
 40
0.0
  9
$WORLDVIEW
 70
     1
  9
$SHADEDGE
 70
     3
  9
$SHADEDIF
 70
    70
  9
$TILEMODE
 70
     1
  9
$MAXACTVP
 70
    64
  9
$PLIMCHECK
 70
     0
  9
$PEXTMIN
 10
1.0000000000000000E+020
 20
1.0000000000000000E+020
 30
1.0000000000000000E+020
  9
$PEXTMAX
 10
-1.0000000000000000E+020
 20
-1.0000000000000000E+020
 30
-1.0000000000000000E+020
  9
$PLIMMIN
 10
-5.81024169921875
 20
-5.8737497329711923
  9
$PLIMMAX
 10
291.17926025390619
 20
204.1207418441771
  9
$UNITMODE
 70
     0
  9
$VISRETAIN
 70
     1
  9
$PLINEGEN
 70
     0
  9
$PSLTSCALE
 70
     1
  0
ENDSEC
  0
SECTION
  2
TABLES
  0
TABLE
  2
VPORT
 70
     1
  0
VPORT
  2
*ACTIVE
 70
     0
 10
0.0
 20
0.0
 11
1.0
 21
1.0
 12
790.801127977379
 22
633.43828016546047
 13
0.0
 23
0.0
 14
12.5
 24
12.5
 15
50.0
 25
50.0
 16
0.0
 26
0.0
 36
1.0
 17
0.0
 27
0.0
 37
0.0
 40
822.61497301785755
 41
1.757159221076747
 42
50.0
 43
0.0
 44
0.0
 50
0.0
 51
0.0
 71
     0
 72
   100
 73
     1
 74
     3
 75
     0
 76
     0
 77
     0
 78
     0
  0
ENDTAB
  0
TABLE
  2
LTYPE
 70
    26
  0
LTYPE
  2
CONTINUOUS
 70
     0
  3
Solid line
 72
    65
 73
     0
 40
0.0
  0
LTYPE
  2
AM_ISO02W050
 70
     0
  3
__ __ __ __ __ __ __ __ __ __ __ __ __ __ __
 72
    65
 73
     2
 40
7.5
 49
6.0
 49
-1.5
  0
LTYPE
  2
AM_ISO08W050
 70
     0
  3
____ . ____ . ____ . ____ . ____ . ____ . ____
 72
    65
 73
     4
 40
18.0
 49
12.0
 49
-1.5
 49
3.0
 49
-1.5
  0
LTYPE
  2
AM_ISO09W050
 70
     0
  3
_____ . . _____ . . _____ . . ____ .. ____
 72
    65
 73
     6
 40
22.5
 49
12.0
 49
-1.5
 49
3.0
 49
-1.5
 49
3.0
 49
-1.5
  0
LTYPE
  2
AMCONSTR
 70
     0
  3
_______________________
 72
    65
 73
     2
 40
9999.0
 49
9999.0
 49
0.0
  0
LTYPE
  2
AM_ISO08W050X2
 70
     0
  3
__ . __ . __ . __ . __ . __
 72
    65
 73
     4
 40
9.0
 49
6.0
 49
-0.75
 49
1.5
 49
-0.75
  0
LTYPE
  2
AM_ISO02W050X2
 70
     0
  3
 _ _ _ _ _ _ _ _ _ _ _ _
 72
    65
 73
     2
 40
3.75
 49
3.0
 49
-0.75
  0
LTYPE
  2
AMZIGZAG
 70
     0
  3
/\/-/\/-/\/-/\/-/\/-/\/
 72
    65
 73
     2
 40
11.000099999999991
 49
0.0001
 49
-11.0
  0
LTYPE
  2
ACISOWELD
 70
     0
  3
_ _ _ _ _
 72
    65
 73
     2
 40
2.0
 49
2.0
 49
-1.0
  0
LTYPE
  2
ACISOTGB
 70
     0
  3
__ . . __ . .
 72
    65
 73
     6
 40
9.0
 49
4.0
 49
-1.0
 49
1.0
 49
-1.0
 49
1.0
 49
-1.0
  0
LTYPE
  2
ACISOTGL
 70
     0
  3
_ _ _ _ _
 72
    65
 73
     2
 40
3.0
 49
2.0
 49
-1.0
  0
LTYPE
  2
CENTER
 70
     0
  3
__ . __
 72
    65
 73
     4
 40
7.0
 49
4.0
 49
-1.0
 49
1.0
 49
-1.0
  0
LTYPE
  2
PHANTOM2
 70
     0
  3
Phantom (.5x) ___ _ _ ___ _ _ ___ _ _ ___ _ _
 72
    65
 73
     6
 40
31.75
 49
15.875
 49
-3.174999999999998
 49
3.174999999999998
 49
-3.174999999999998
 49
3.174999999999998
 49
-3.174999999999998
  0
LTYPE
  2
ACANSTGBM
 70
     0
  3
__ . . __ . .
 72
    65
 73
     6
 40
9.0
 49
4.0
 49
-1.0
 49
1.0
 49
-1.0
 49
1.0
 49
-1.0
  0
LTYPE
  2
ACANSTGLM
 70
     0
  3
_ _ _ _ _
 72
    65
 73
     2
 40
3.0
 49
2.0
 49
-1.0
  0
LTYPE
  2
GEN7
 70
     0
  3
____ . ____ . ____ . ____ . ____ . ____ . ____
 72
    65
 73
     4
 40
14.25
 49
9.75
 49
-1.5
 49
1.5
 49
-1.5
  0
LTYPE
  2
GEN7A
 70
     0
  3
__ . __ . __
 72
    65
 73
     4
 40
7.375
 49
4.75
 49
-0.875
 49
0.875
 49
-0.875
  0
LTYPE
  2
ACJISTGB
 70
     0
  3
__ . . __ . .
 72
    65
 73
     6
 40
9.0
 49
4.0
 49
-1.0
 49
1.0
 49
-1.0
 49
1.0
 49
-1.0
  0
LTYPE
  2
ACJISTGL
 70
     0
  3
_ _ _ _ _
 72
    65
 73
     2
 40
3.0
 49
2.0
 49
-1.0
  0
LTYPE
  2
HIDDEN
 70
     0
  3
Hidden __ __ __ __ __ __ __ __ __ __ __ __ __ _
 72
    65
 73
     2
 40
0.375
 49
0.25
 49
-0.125
  0
LTYPE
  2
CENTER2
 70
     0
  3
Center (.5x) ___ _ ___ _ ___ _ ___ _ ___ _ ___
 72
    65
 73
     4
 40
1.125
 49
0.75
 49
-0.125
 49
0.125
 49
-0.125
  0
LTYPE
  2
HIDDEN2
 70
     0
  3
Hidden (.5x) _ _ _ _ _ _ _ _ _ _ _ _ _ _ _ _ _
 72
    65
 73
     2
 40
0.1875
 49
0.125
 49
-0.0625
  0
LTYPE
  2
AMZIGZAG2
 70
     0
  3
/\/-/\/-/\/-/\/-/\/-/\/
 72
    65
 73
     2
 40
0.4401
 49
0.0001
 49
-0.4400000000000002
  0
LTYPE
  2
ACANSTGB
 70
     0
  3
__ . . __ . .
 72
    65
 73
     6
 40
0.35433070866
 49
0.15748031496
 49
-0.03937007874
 49
0.03937007874
 49
-0.03937007874
 49
0.03937007874
 49
-0.03937007874
  0
LTYPE
  2
ACANSTGL
 70
     0
  3
_ _ _ _ _
 72
    65
 73
     2
 40
0.11811023622
 49
0.07874015748
 49
-0.03937007874
  0
ENDTAB
  0
TABLE
  2
LAYER
 70
    10
  0
LAYER
  2
0
 70
     0
 62
     7
  6
CONTINUOUS
  0
LAYER
  2
AM_0
 70
     0
 62
     7
  6
CONTINUOUS
  0
LAYER
  2
AM_5
 70
     0
 62
     2
  6
CONTINUOUS
  0
LAYER
  2
DEFPOINTS
 70
     0
 62
     7
  6
CONTINUOUS
  0
LAYER
  2
AM_VIEWS
 70
     0
 62
    -1
  6
CONTINUOUS
  0
LAYER
  2
ﾁｭｳｼﾝｾﾝ
 70
     0
 62
     1
  6
GEN7
  0
LAYER
  2
ﾁｭｳｼﾝｾﾝ1
 70
     0
 62
     1
  6
GEN7A
  0
LAYER
  2
GEV_FROZEN
 70
     1
 62
     7
  6
CONTINUOUS
  0
LAYER
  2
BHII
 70
     0
 62
     7
  6
CONTINUOUS
  0
LAYER
  2
CENN
 70
     0
 62
     7
  6
CONTINUOUS
  0
ENDTAB
  0
TABLE
  2
STYLE
 70
     8
  0
STYLE
  2
STANDARD
 70
     0
 40
0.0
 41
0.8299999999999999
 50
0.0
 71
     0
 42
2.5
  3
txt.shx
  4
bigfont.shx
  0
STYLE
  2

 70
     1
 40
0.0
 41
1.0
 50
0.0
 71
     0
 42
2.5
  3
ltypeshp.shx
  4

  0
STYLE
  2
ACISOTS
 70
     0
 40
1.0
 41
1.0
 50
0.0
 71
     0
 42
2.5
  3
isocp.shx
  4
extfont.shx
  0
STYLE
  2
ACISOGDT
 70
     0
 40
0.0
 41
1.0
 50
0.0
 71
     0
 42
2.5
  3
amgdt.shx
  4

  0
STYLE
  2
ACANSTS
 70
     0
 40
1.0
 41
1.0
 50
0.0
 71
     0
 42
2.5
  3
romans.shx
  4
bigfont.shx
  0
STYLE
  2
ACANSGDT
 70
     0
 40
0.0
 41
1.0
 50
0.0
 71
     0
 42
2.5
  3
amgdt.shx
  4

  0
STYLE
  2
ACJISTS
 70
     0
 40
1.0
 41
1.0
 50
0.0
 71
     0
 42
2.5
  3
isocp.shx
  4
bigfont.shx
  0
STYLE
  2
ACJISGDT
 70
     0
 40
0.0
 41
1.0
 50
0.0
 71
     0
 42
2.5
  3
amgdt.shx
  4

  0
ENDTAB
  0
TABLE
  2
VIEW
 70
     6
  0
VIEW
  2
AM_VIEW1
 70
     0
 40
462.5
 10
416.07965009208078
 20
693.75
 41
832.15930018416213
 11
0.0
 21
0.0
 31
1.0
 12
0.0
 22
0.0
 32
0.0
 42
50.0
 43
0.0
 44
0.0
 50
0.0
 71
     0
  0
VIEW
  2
AM_VIEW2
 70
     0
 40
462.5
 10
1006.420349907918
 20
693.75
 41
832.15930018416213
 11
0.0
 21
0.0
 31
1.0
 12
0.0
 22
0.0
 32
0.0
 42
50.0
 43
0.0
 44
0.0
 50
0.0
 71
     0
  0
VIEW
  2
AM_VIEW3
 70
     0
 40
462.5
 10
416.07965009208078
 20
231.25
 41
832.15930018416213
 11
0.0
 21
0.0
 31
1.0
 12
0.0
 22
0.0
 32
0.0
 42
50.0
 43
0.0
 44
0.0
 50
0.0
 71
     0
  0
VIEW
  2
AM_VIEW4
 70
     0
 40
462.5
 10
1006.420349907918
 20
231.25
 41
832.15930018416213
 11
0.0
 21
0.0
 31
1.0
 12
0.0
 22
0.0
 32
0.0
 42
50.0
 43
0.0
 44
0.0
 50
0.0
 71
     0
  0
VIEW
  2
AM_VIEW5
 70
     0
 40
462.5
 10
711.24999999999966
 20
462.5
 41
832.15930018416157
 11
0.0
 21
0.0
 31
1.0
 12
0.0
 22
0.0
 32
0.0
 42
50.0
 43
0.0
 44
0.0
 50
0.0
 71
     0
  0
VIEW
  2
AM_VIEW6
 70
     0
 40
924.99075000000005
 10
711.24999999999966
 20
462.5
 41
1664.3019571823199
 11
0.0
 21
0.0
 31
1.0
 12
0.0
 22
0.0
 32
0.0
 42
50.0
 43
0.0
 44
0.0
 50
0.0
 71
     0
  0
ENDTAB
  0
TABLE
  2
UCS
 70
     0
  0
ENDTAB
  0
TABLE
  2
APPID
 70
    94
  0
APPID
  2
ACAD
 70
     0
  0
APPID
  2
MCAD_NO_VIS
 70
     0
  0
APPID
  2
ACAD_TEMP_GRAPHIC
 70
     0
  0
APPID
  2
ACATTRIBSERVICES
 70
     0
  0
APPID
  2
GENIUS_GENREC_14
 70
     0
  0
APPID
  2
GENIUS_GENOBJ-N-REC_13
 70
     0
  0
APPID
  2
GENIUS_GENODEF_13
 70
     0
  0
APPID
  2
GENIUS_GENOLIS_13
 70
     0
  0
APPID
  2
GENIUS_GENOBJ-N-TIT_13
 70
     0
  0
APPID
  2
GENIUS_GENOENT_13
 70
     0
  0
APPID
  2
GENIUS_GENTITLE_13
 70
     0
  0
APPID
  2
GENIUS_GENOREF_13
 70
     0
  0
APPID
  2
GENIUS_GENSCREG_15
 70
     0
  0
APPID
  2
GENIUS_GENOBJ-N-SDF_13
 70
     0
  0
APPID
  2
GENIUS_GENFIL_13
 70
     0
  0
APPID
  2
GENIUS_GENOBJ-N-CHA_13
 70
     0
  0
APPID
  2
GENIUS_GENDTOL_13
 70
     0
  0
APPID
  2
GENIUS_GENOBJ-N-FIL_13
 70
     0
  0
APPID
  2
AD_DRAW
 70
     0
  0
APPID
  2
DESIGNERASSEMBLIES
 70
     0
  0
APPID
  2
ASURF_PCURVE_APPNAME
 70
     0
  0
APPID
  2
GENIUS_GE3SECT_13
 70
     0
  0
APPID
  2
GENIUS_GENCFG_13
 70
     0
  0
APPID
  2
GENIUS_GE3CFG0_13
 70
     0
  0
APPID
  2
GENIUS_GENCFG0_13
 70
     0
  0
APPID
  2
GENIUS_GENCFG1_13
 70
     0
  0
APPID
  2
GENIUS_GENCFG2_13
 70
     0
  0
APPID
  2
GENIUS_GENCFG3_13
 70
     0
  0
APPID
  2
GENIUS_GENCFG4_13
 70
     0
  0
APPID
  2
GENIUS_GEVCFG0_13
 70
     0
  0
APPID
  2
GENIUS_GENHINW_13
 70
     0
  0
APPID
  2
GENIUS_FIRSTVISTXT_14
 70
     0
  0
APPID
  2
GENIUS_GENOBJ-N-LEADER_13
 70
     0
  0
APPID
  2
GEV_VCCNULL_SWITCH_OFF
 70
     0
  0
APPID
  2
GENIUS_GEFCFG0_13
 70
     0
  0
APPID
  2
GENIUS_GENZVEED_13
 70
     0
  0
APPID
  2
GENIUS_GENSCREG_13
 70
     0
  0
APPID
  2
GENIUS_DUMCFG0_13
 70
     0
  0
APPID
  2
GEVID936201362
 70
     0
  0
APPID
  2
GEVDC
 70
     0
  0
APPID
  2
GEVCON
 70
     0
  0
APPID
  2
VCC
 70
     0
  0
APPID
  2
GEVPT
 70
     0
  0
APPID
  2
GEVIT
 70
     0
  0
APPID
  2
GENBH
 70
     0
  0
APPID
  2
GEVMK
 70
     0
  0
APPID
  2
GENIUS_GENBH_13
 70
     0
  0
APPID
  2
GENIUS_GENOBJ-NBEHI-BHF_13
 70
     0
  0
APPID
  2
GENIUS_GENOBJ-NBEHI-BHB_13
 70
     0
  0
APPID
  2
GENIUS_GENOBJ-F-DESC_13
 70
     0
  0
APPID
  2
GENIUS_GEFDESC_14
 70
     0
  0
APPID
  2
GENIUS_GENOBJ-F-PART_13
 70
     0
  0
APPID
  2
GENIUS_GEFSTDP_13
 70
     0
  0
APPID
  2
GENIUS_GEFPARTINS_13
 70
     0
  0
APPID
  2
GENIUS_GENTRA_14
 70
     0
  0
APPID
  2
GENIUS_GENINF13_13
 70
     0
  0
APPID
  2
GENIUS_GENOBJ-N-INFOPT_13
 70
     0
  0
APPID
  2
GENIUS_GENOBJ-N-RSSYM_13
 70
     0
  0
APPID
  2
GENIUS_GENSYMENT_13
 70
     0
  0
APPID
  2
GENIUS_GENSCSYM_13
 70
     0
  0
APPID
  2
GENIUS_GEFINFNAM_13
 70
     0
  0
APPID
  2
GENIUS_GENOBJ-N-CEN_13
 70
     0
  0
APPID
  2
GENIUS_GENOBJ-N-CRS_13
 70
     0
  0
APPID
  2
GENIUS_GENOBJ-N-CRC_13
 70
     0
  0
APPID
  2
GENIUS_GENCRC_14
 70
     0
  0
APPID
  2
GEVID942827039
 70
     0
  0
APPID
  2
GEVID942827040
 70
     0
  0
APPID
  2
GEVID942827041
 70
     0
  0
APPID
  2
GENIUS_GENOBJ-F-SCPASSM_13
 70
     0
  0
APPID
  2
GENIUS_GENDIMSH_14
 70
     0
  0
APPID
  2
GEVID942827042
 70
     0
  0
APPID
  2
GEVID946020473
 70
     0
  0
APPID
  2
GEVID946020474
 70
     0
  0
APPID
  2
GEVID946020475
 70
     0
  0
APPID
  2
GENIUS_GENOBJ-N-HTC_13
 70
     0
  0
APPID
  2
GENIUS_GENHATCH_13
 70
     0
  0
APPID
  2
GEVID948854295
 70
     0
  0
APPID
  2
GEVID939402019
 70
     0
  0
APPID
  2
GEVID952919491
 70
     0
  0
APPID
  2
GEVID952919492
 70
     0
  0
APPID
  2
GENIUS_GEFWELD_13
 70
     0
  0
APPID
  2
GENIUS_GENOBJ-F-WELS_13
 70
     0
  0
APPID
  2
GEVID952919493
 70
     0
  0
APPID
  2
GENIUS_GENOBJ-N-RSBK_13
 70
     0
  0
APPID
  2
GENIUS_GENOBJ-N-LIB_13
 70
     0
  0
APPID
  2
GENIUS_GENSCALE_13
 70
     0
  0
APPID
  2
GEVID986376691
 70
     0
  0
APPID
  2
DCO15
 70
     0
  0
APPID
  2
ACAD_DSTYLE_DIMBREAK
 70
     0
  0
APPID
  2
ACAD_DSTYLE_DIMJAG
 70
     0
  0
APPID
  2
ACAD_NAV_VCDISPLAY
 70
     0
  0
APPID
  2
ACADANNOPO
 70
     0
  0
APPID
  2
ACAD_EXEMPT_FROM_CAD_STANDARDS
 70
     0
  0
APPID
  2
ACAD_MLEADERVER
 70
     0
  0
ENDTAB
  0
TABLE
  2
DIMSTYLE
 70
    21
  0
DIMSTYLE
  2
AM_ISO
 70
     0
  3

  4
"
  5

  6

  7

 40
1.0
 41
2.5
 42
1.0
 43
8.0
 44
0.6
 45
0.0
 46
0.0
 47
0.1
 48
0.1
140
2.5
141
0.0
142
0.0
143
0.0393701
144
1.0
145
0.0
146
0.71
147
0.8
 71
     0
 72
     0
 73
     0
 74
     0
 75
     0
 76
     0
 77
     1
 78
     8
170
     0
171
     2
172
     1
173
     0
174
     0
175
     0
176
   256
177
   256
178
     4
  0
DIMSTYLE
  2
AM_ISO$3
 70
     0
  3

  4
"
  5

  6

  7

 40
1.0
 41
2.5
 42
1.0
 43
8.0
 44
0.6
 45
0.0
 46
0.0
 47
0.1
 48
0.1
140
2.5
141
0.0
142
0.0
143
0.0393701
144
1.0
145
0.0
146
0.71
147
0.8
 71
     0
 72
     0
 73
     0
 74
     1
 75
     0
 76
     0
 77
     1
 78
     8
170
     0
171
     2
172
     0
173
     0
174
     0
175
     0
176
   256
177
   256
178
     4
  0
DIMSTYLE
  2
AM_ISO$4
 70
     0
  3

  4
"
  5

  6

  7

 40
1.0
 41
2.5
 42
1.0
 43
8.0
 44
0.6
 45
0.0
 46
0.0
 47
0.1
 48
0.1
140
2.5
141
0.0
142
0.0
143
0.0393701
144
1.0
145
0.0
146
0.71
147
0.8
 71
     0
 72
     0
 73
     0
 74
     1
 75
     0
 76
     0
 77
     1
 78
     8
170
     0
171
     2
172
     0
173
     0
174
     0
175
     0
176
   256
177
   256
178
     4
  0
DIMSTYLE
  2
AM_ISO$6
 70
     0
  3

  4
"
  5

  6

  7

 40
1.0
 41
2.5
 42
1.0
 43
8.0
 44
0.6
 45
0.0
 46
0.0
 47
0.1
 48
0.1
140
2.5
141
0.0
142
0.0
143
0.0393701
144
1.0
145
0.0
146
0.71
147
0.8
 71
     0
 72
     0
 73
     0
 74
     0
 75
     0
 76
     0
 77
     0
 78
     8
170
     0
171
     2
172
     1
173
     0
174
     0
175
     0
176
   256
177
   256
178
     4
  0
DIMSTYLE
  2
AM_ISO$7
 70
     0
  3

  4
"
  5

  6

  7

 40
1.0
 41
2.5
 42
1.0
 43
8.0
 44
0.6
 45
0.0
 46
0.0
 47
0.1
 48
0.1
140
2.5
141
0.0
142
0.0
143
0.0393701
144
1.0
145
0.0
146
0.71
147
0.8
 71
     0
 72
     0
 73
     0
 74
     0
 75
     0
 76
     0
 77
     1
 78
     8
170
     0
171
     2
172
     1
173
     0
174
     0
175
     0
176
   256
177
   256
178
     4
  0
DIMSTYLE
  2
AM_ISO$SF
 70
     0
  3

  4
"
  5

  6

  7

 40
1.0
 41
2.5
 42
1.0
 43
10.0
 44
1.0
 45
0.0
 46
0.0
 47
0.1
 48
0.1
140
3.5
141
0.0
142
0.0
143
0.0393701
144
1.0
145
0.0
146
0.71
147
1.5
 71
     0
 72
     0
 73
     0
 74
     0
 75
     1
 76
     1
 77
     1
 78
     8
170
     0
171
     2
172
     1
173
     0
174
     0
175
     0
176
   256
177
   256
178
     2
  0
DIMSTYLE
  2
AM_ISO$SH
 70
     0
  3

  4
"
  5

  6

  7

 40
1.0
 41
2.5
 42
1.0
 43
10.0
 44
1.0
 45
0.0
 46
0.0
 47
0.1
 48
0.1
140
3.5
141
0.0
142
0.0
143
0.0393701
144
2.0
145
0.0
146
0.71
147
1.5
 71
     0
 72
     0
 73
     0
 74
     0
 75
     1
 76
     1
 77
     1
 78
     8
170
     0
171
     2
172
     1
173
     1
174
     0
175
     0
176
   256
177
   256
178
     2
  0
DIMSTYLE
  2
STANDARD
 70
     0
  3

  4

  5

  6

  7

 40
1.0
 41
0.18
 42
0.0625
 43
0.38
 44
0.18
 45
0.0
 46
0.0
 47
0.0
 48
0.0
140
0.18
141
0.09
142
0.0
143
25.399999999999999
144
1.0
145
0.0
146
1.0
147
0.09
 71
     0
 72
     0
 73
     1
 74
     1
 75
     0
 76
     0
 77
     0
 78
     0
170
     0
171
     2
172
     0
173
     0
174
     0
175
     0
176
     0
177
     0
178
     0
  0
DIMSTYLE
  2
AM_JIS
 70
     0
  3

  4
"
  5

  6

  7

 40
1.0
 41
2.5
 42
1.0
 43
7.0
 44
1.0
 45
0.0
 46
0.0
 47
0.1
 48
0.1000000001
140
2.5
141
0.0
142
0.0
143
0.0393701
144
1.0
145
0.0
146
0.71
147
1.0
 71
     0
 72
     0
 73
     0
 74
     0
 75
     0
 76
     0
 77
     3
 78
     8
170
     0
171
     2
172
     1
173
     0
174
     0
175
     0
176
   256
177
   256
178
     4
  0
DIMSTYLE
  2
AM_JIS$3
 70
     0
  3

  4
"
  5

  6

  7

 40
1.0
 41
2.5
 42
1.0
 43
7.0
 44
1.0
 45
0.0
 46
0.0
 47
0.1
 48
0.1000000001
140
2.5
141
0.0
142
0.0
143
0.0393701
144
1.0
145
0.0
146
0.71
147
1.0
 71
     0
 72
     0
 73
     0
 74
     1
 75
     0
 76
     0
 77
     3
 78
     8
170
     0
171
     2
172
     0
173
     0
174
     0
175
     0
176
   256
177
   256
178
     4
  0
DIMSTYLE
  2
AM_JIS$4
 70
     0
  3

  4
"
  5

  6

  7

 40
1.0
 41
2.5
 42
1.0
 43
7.0
 44
1.0
 45
0.0
 46
0.0
 47
0.1
 48
0.1000000001
140
2.5
141
0.0
142
0.0
143
0.0393701
144
1.0
145
0.0
146
0.71
147
1.0
 71
     0
 72
     0
 73
     0
 74
     0
 75
     0
 76
     0
 77
     3
 78
     8
170
     0
171
     2
172
     0
173
     0
174
     0
175
     0
176
   256
177
   256
178
     4
  0
DIMSTYLE
  2
AM_JIS$6
 70
     0
  3

  4
"
  5

  6

  7

 40
1.0
 41
2.5
 42
1.0
 43
7.0
 44
1.0
 45
0.0
 46
0.0
 47
0.1
 48
0.1000000001
140
2.5
141
0.0
142
0.0
143
0.0393701
144
1.0
145
0.0
146
0.71
147
1.0
 71
     0
 72
     0
 73
     0
 74
     0
 75
     0
 76
     0
 77
     0
 78
     8
170
     0
171
     2
172
     1
173
     0
174
     0
175
     0
176
   256
177
   256
178
     4
  0
DIMSTYLE
  2
AM_JIS$7
 70
     0
  3

  4
"
  5

  6

  7

 40
1.0
 41
2.5
 42
1.0
 43
7.0
 44
1.0
 45
0.0
 46
0.0
 47
0.1
 48
0.1000000001
140
2.5
141
0.0
142
0.0
143
0.0393701
144
1.0
145
0.0
146
0.71
147
1.0
 71
     0
 72
     0
 73
     0
 74
     0
 75
     0
 76
     0
 77
     3
 78
     8
170
     0
171
     2
172
     1
173
     0
174
     0
175
     0
176
   256
177
   256
178
     4
  0
DIMSTYLE
  2
AM_JIS$SF
 70
     0
  3

  4
"
  5

  6

  7

 40
1.0
 41
2.5
 42
1.0
 43
10.0
 44
1.0
 45
0.0
 46
0.0
 47
0.1
 48
0.1
140
3.5
141
0.0
142
0.0
143
0.0393701
144
1.0
145
0.0
146
0.71
147
1.5
 71
     0
 72
     0
 73
     0
 74
     0
 75
     1
 76
     1
 77
     3
 78
     8
170
     0
171
     2
172
     1
173
     0
174
     0
175
     0
176
   256
177
   256
178
     4
  0
DIMSTYLE
  2
AM_JIS$SH
 70
     0
  3

  4
"
  5

  6

  7

 40
1.0
 41
2.5
 42
1.0
 43
10.0
 44
1.0
 45
0.0
 46
0.0
 47
0.1
 48
0.1
140
3.5
141
0.0
142
0.0
143
0.0393701
144
1.0
145
0.0
146
0.71
147
1.5
 71
     0
 72
     0
 73
     0
 74
     0
 75
     1
 76
     0
 77
     3
 78
     8
170
     0
171
     2
172
     1
173
     1
174
     0
175
     0
176
   256
177
   256
178
     4
  0
DIMSTYLE
  2
AM_ANSI
 70
     0
  3

  4
mm
  5

  6

  7

 40
1.0
 41
0.1
 42
0.05
 43
0.5
 44
0.1
 45
0.0
 46
0.0
 47
0.1
 48
0.1
140
0.12
141
0.0
142
0.0
143
25.399999999999999
144
1.0
145
0.0
146
0.71
147
0.06
 71
     0
 72
     0
 73
     1
 74
     1
 75
     0
 76
     0
 77
     0
 78
     7
170
     0
171
     2
172
     0
173
     0
174
     0
175
     0
176
   256
177
   256
178
     2
  0
DIMSTYLE
  2
AM_ANSI$3
 70
     0
  3

  4
mm
  5

  6

  7

 40
1.0
 41
0.1
 42
0.05
 43
0.5
 44
0.1
 45
0.0
 46
0.0
 47
0.1
 48
0.1
140
0.12
141
0.0
142
0.0
143
25.399999999999999
144
1.0
145
0.0
146
0.71
147
0.06
 71
     0
 72
     0
 73
     1
 74
     1
 75
     0
 76
     0
 77
     0
 78
     7
170
     0
171
     2
172
     0
173
     0
174
     0
175
     0
176
   256
177
   256
178
     2
  0
DIMSTYLE
  2
AM_ANSI$4
 70
     0
  3

  4
mm
  5

  6

  7

 40
1.0
 41
0.1
 42
0.05
 43
0.5
 44
0.1
 45
0.0
 46
0.0
 47
0.1
 48
0.1
140
0.12
141
0.0
142
0.0
143
25.399999999999999
144
1.0
145
0.0
146
0.71
147
0.06
 71
     0
 72
     0
 73
     1
 74
     1
 75
     0
 76
     0
 77
     0
 78
     7
170
     0
171
     2
172
     0
173
     0
174
     0
175
     0
176
   256
177
   256
178
     2
  0
DIMSTYLE
  2
AM_ANSI$7
 70
     0
  3

  4
mm
  5

  6

  7

 40
1.0
 41
0.1
 42
0.05
 43
0.5
 44
0.1
 45
0.0
 46
0.0
 47
0.1
 48
0.1
140
0.24
141
0.0
142
0.0
143
25.399999999999999
144
1.0
145
0.0
146
0.71
147
0.06
 71
     0
 72
     0
 73
     1
 74
     1
 75
     0
 76
     0
 77
     0
 78
     7
170
     0
171
     2
172
     0
173
     0
174
     0
175
     0
176
   256
177
   256
178
     2
  0
DIMSTYLE
  2
AM_ANSI$SF
 70
     0
  3

  4
mm
  5

  6

  7

 40
1.0
 41
0.1
 42
0.05
 43
0.5
 44
0.1
 45
0.0
 46
0.0
 47
0.1
 48
0.1
140
0.12
141
0.0
142
0.0
143
25.399999999999999
144
1.0
145
0.0
146
0.71
147
0.06
 71
     0
 72
     0
 73
     1
 74
     1
 75
     1
 76
     1
 77
     0
 78
     7
170
     0
171
     2
172
     0
173
     0
174
     0
175
     0
176
   256
177
   256
178
     2
  0
DIMSTYLE
  2
AM_ANSI$SH
 70
     0
  3

  4
mm
  5

  6
GENAXEH
  7

 40
1.0
 41
0.1
 42
0.05
 43
0.5
 44
0.1
 45
0.0
 46
0.0
 47
0.1
 48
0.1
140
0.12
141
0.0
142
0.0
143
25.399999999999999
144
1.0
145
0.0
146
0.71
147
0.06
 71
     0
 72
     0
 73
     1
 74
     1
 75
     1
 76
     1
 77
     0
 78
     7
170
     0
171
     2
172
     0
173
     1
174
     0
175
     0
176
   256
177
   256
178
     2
  0
ENDTAB
  0
ENDSEC
  0
SECTION
  2
BLOCKS
  0
BLOCK
  8
0
  2
$MODEL_SPACE
 70
     0
 10
0.0
 20
0.0
 30
0.0
  3
$MODEL_SPACE
  1

  0
ENDBLK
  5
2E93
  8
0
  0
BLOCK
 67
     1
  8
0
  2
$PAPER_SPACE
 70
     0
 10
0.0
 20
0.0
 30
0.0
  3
$PAPER_SPACE
  1

  0
ENDBLK
  5
2E8F
 67
     1
  8
0
  0
BLOCK
  8
0
  2
GENAXEH
 70
     0
 10
0.0
 20
0.0
 30
0.0
  3
GENAXEH
  1

  0
LINE
  5
2F34
  8
0
 10
-1.0
 20
0.0
 30
0.0
 11
1.0
 21
0.0
 31
0.0
  0
ENDBLK
  5
2F35
  8
0
  0
BLOCK
  8
0
  2
_OPEN30
 70
     0
 10
0.0
 20
0.0
 30
0.0
  3
_OPEN30
  1

  0
LINE
  5
2F38
  8
0
 62
     0
 10
-1.0
 20
0.26794919
 30
0.0
 11
0.0
 21
0.0
 31
0.0
  0
LINE
  5
2F39
  8
0
 62
     0
 10
0.0
 20
0.0
 30
0.0
 11
-1.0
 21
-0.26794919
 31
0.0
  0
LINE
  5
2F3A
  8
0
 62
     0
 10
0.0
 20
0.0
 30
0.0
 11
-1.0
 21
0.0
 31
0.0
  0
ENDBLK
  5
2F3B
  8
0
  0
BLOCK
  8
0
  2
*U4
 70
     1
 10
0.0
 20
0.0
 30
0.0
  3
*U4
  1
*U
  0
LINE
  5
2F3E
  8
BHII
 10
0.0
 20
7.6999999999999966
 30
0.0
 11
0.0000000000000021
 21
-0.3279404685324049
 31
0.0
  0
LINE
  5
2F3F
  8
BHII
 10
2.0
 20
7.6999999999999966
 30
0.0
 11
2.0000000000000022
 21
0.3999999999999986
 31
0.0
  0
LINE
  5
2F40
  8
BHII
 10
0.0
 20
-7.6999999999999966
 30
0.0
 11
2.0
 21
-7.6999999999999966
 31
0.0
  0
LINE
  5
2F41
  8
BHII
 10
2.0
 20
-0.3999999999999999
 30
0.0
 11
0.0000000000000001
 21
-1.127940468532403
 31
0.0
  0
LINE
  5
2F42
  8
BHII
 10
2.0000000000000022
 20
0.3999999999999986
 30
0.0
 11
0.0000000000000021
 21
-0.3279404685324049
 31
0.0
  0
LINE
  5
2F43
  8
BHII
 10
2.0
 20
-0.3999999999999999
 30
0.0
 11
2.0
 21
-7.6999999999999966
 31
0.0
  0
LINE
  5
2F44
  8
BHII
 10
0.0000000000000001
 20
-1.127940468532403
 30
0.0
 11
0.0
 21
-7.6999999999999966
 31
0.0
  0
LINE
  5
2F45
  8
CENN
 10
-2.999999999999996
 20
0.0
 30
0.0
 11
5.0
 21
0.0
 31
0.0
  0
LINE
  5
2F46
  8
BHII
 10
2.0
 20
7.6999999999999966
 30
0.0
 11
0.0
 21
7.6999999999999966
 31
0.0
  0
ENDBLK
  5
2F47
  8
0
  0
BLOCK
  8
0
  2
*U5
 70
     1
 10
0.0
 20
0.0
 30
0.0
  3
*U5
  1
*U
  0
LINE
  5
2F4A
  8
BHII
 10
0.0
 20
7.6999999999999966
 30
0.0
 11
0.0000000000000021
 21
-0.3279404685324049
 31
0.0
  0
LINE
  5
2F4B
  8
BHII
 10
2.0
 20
7.6999999999999966
 30
0.0
 11
2.0000000000000022
 21
0.3999999999999986
 31
0.0
  0
LINE
  5
2F4C
  8
BHII
 10
0.0
 20
-7.6999999999999966
 30
0.0
 11
2.0
 21
-7.6999999999999966
 31
0.0
  0
LINE
  5
2F4D
  8
BHII
 10
2.0
 20
-0.3999999999999999
 30
0.0
 11
0.0000000000000001
 21
-1.127940468532403
 31
0.0
  0
LINE
  5
2F4E
  8
BHII
 10
2.0000000000000022
 20
0.3999999999999986
 30
0.0
 11
0.0000000000000021
 21
-0.3279404685324049
 31
0.0
  0
LINE
  5
2F4F
  8
BHII
 10
2.0
 20
-0.3999999999999999
 30
0.0
 11
2.0
 21
-7.6999999999999966
 31
0.0
  0
LINE
  5
2F50
  8
BHII
 10
0.0000000000000001
 20
-1.127940468532403
 30
0.0
 11
0.0
 21
-7.6999999999999966
 31
0.0
  0
LINE
  5
2F51
  8
CENN
 10
-2.999999999999996
 20
0.0
 30
0.0
 11
5.0
 21
0.0
 31
0.0
  0
LINE
  5
2F52
  8
BHII
 10
2.0
 20
7.6999999999999966
 30
0.0
 11
0.0
 21
7.6999999999999966
 31
0.0
  0
ENDBLK
  5
2F53
  8
0
  0
BLOCK
  8
0
  2
_NONE
 70
     0
 10
0.0
 20
0.0
 30
0.0
  3
_NONE
  1

  0
ENDBLK
  5
2F56
  8
0
  0
BLOCK
  8
0
  2
*U7
 70
     1
 10
0.0
 20
0.0
 30
0.0
  3
*U7
  1
*U
  0
LINE
  5
2F59
  8
BHII
 10
0.0
 20
7.6999999999999966
 30
0.0
 11
0.0000000000000021
 21
-0.3279404685324049
 31
0.0
  0
LINE
  5
2F5A
  8
BHII
 10
2.0
 20
7.6999999999999966
 30
0.0
 11
2.0000000000000022
 21
0.3999999999999986
 31
0.0
  0
LINE
  5
2F5B
  8
BHII
 10
0.0
 20
-7.6999999999999966
 30
0.0
 11
2.0
 21
-7.6999999999999966
 31
0.0
  0
LINE
  5
2F5C
  8
BHII
 10
2.0
 20
-0.3999999999999999
 30
0.0
 11
0.0000000000000001
 21
-1.127940468532403
 31
0.0
  0
LINE
  5
2F5D
  8
BHII
 10
2.0000000000000022
 20
0.3999999999999986
 30
0.0
 11
0.0000000000000021
 21
-0.3279404685324049
 31
0.0
  0
LINE
  5
2F5E
  8
BHII
 10
2.0
 20
-0.3999999999999999
 30
0.0
 11
2.0
 21
-7.6999999999999966
 31
0.0
  0
LINE
  5
2F5F
  8
BHII
 10
0.0000000000000001
 20
-1.127940468532403
 30
0.0
 11
0.0
 21
-7.6999999999999966
 31
0.0
  0
LINE
  5
2F60
  8
CENN
 10
-2.999999999999996
 20
0.0
 30
0.0
 11
5.0
 21
0.0
 31
0.0
  0
LINE
  5
2F61
  8
BHII
 10
2.0
 20
7.6999999999999966
 30
0.0
 11
0.0
 21
7.6999999999999966
 31
0.0
  0
ENDBLK
  5
2F62
  8
0
  0
BLOCK
  8
0
  2
*U8
 70
     1
 10
0.0
 20
0.0
 30
0.0
  3
*U8
  1
*U
  0
LINE
  5
2F65
  8
BHII
 10
0.0
 20
7.6999999999999966
 30
0.0
 11
0.0000000000000021
 21
-0.3279404685324049
 31
0.0
  0
LINE
  5
2F66
  8
BHII
 10
2.0
 20
7.6999999999999966
 30
0.0
 11
2.0000000000000022
 21
0.3999999999999986
 31
0.0
  0
LINE
  5
2F67
  8
BHII
 10
0.0
 20
-7.6999999999999966
 30
0.0
 11
2.0
 21
-7.6999999999999966
 31
0.0
  0
LINE
  5
2F68
  8
BHII
 10
2.0
 20
-0.3999999999999999
 30
0.0
 11
0.0000000000000001
 21
-1.127940468532403
 31
0.0
  0
LINE
  5
2F69
  8
BHII
 10
2.0000000000000022
 20
0.3999999999999986
 30
0.0
 11
0.0000000000000021
 21
-0.3279404685324049
 31
0.0
  0
LINE
  5
2F6A
  8
BHII
 10
2.0
 20
-0.3999999999999999
 30
0.0
 11
2.0
 21
-7.6999999999999966
 31
0.0
  0
LINE
  5
2F6B
  8
BHII
 10
0.0000000000000001
 20
-1.127940468532403
 30
0.0
 11
0.0
 21
-7.6999999999999966
 31
0.0
  0
LINE
  5
2F6C
  8
CENN
 10
-2.999999999999996
 20
0.0
 30
0.0
 11
5.0
 21
0.0
 31
0.0
  0
LINE
  5
2F6D
  8
BHII
 10
2.0
 20
7.6999999999999966
 30
0.0
 11
0.0
 21
7.6999999999999966
 31
0.0
  0
ENDBLK
  5
2F6E
  8
0
  0
BLOCK
  8
0
  2
*U9
 70
     1
 10
0.0
 20
0.0
 30
0.0
  3
*U9
  1

  0
TEXT
  5
2F71
  8
AM_0
 62
     4
 10
816.92197066370045
 20
314.64240695783121
 30
0.0
 40
12.5
  1
\U+2205
 50
90.0
 41
0.8299999999999999
  0
TEXT
  5
2F72
  8
AM_0
 62
     4
 10
816.92197066370045
 20
325.01740695783121
 30
0.0
 40
12.5
  1
280
 50
90.0
 41
0.8299999999999999
  0
TEXT
  5
2F73
  8
AM_0
 62
     4
 10
816.92197066370045
 20
354.41324029116441
 30
0.0
 40
10.0
  1
h7
 50
90.0
 41
0.8299999999999999
  0
ENDBLK
  5
2F74
  8
0
  0
BLOCK
  8
0
  2
*U10
 70
     1
 10
0.0
 20
0.0
 30
0.0
  3
*U10
  1

  0
TEXT
  5
2F77
  8
AM_0
 62
     4
 10
877.52703586100131
 20
417.32462097097192
 30
0.0
 40
12.5
  1
\U+2205
 50
90.0
 41
0.8299999999999999
  0
TEXT
  5
2F78
  8
AM_0
 62
     4
 10
877.52703586100131
 20
427.69962097097198
 30
0.0
 40
12.5
  1
55
 50
90.0
 41
0.8299999999999999
  0
TEXT
  5
2F79
  8
AM_0
 62
     4
 10
877.52703586100131
 20
448.44962097097181
 30
0.0
 40
10.0
  1
h6
 50
90.0
 41
0.8299999999999999
  0
ENDBLK
  5
2F7A
  8
0
  0
BLOCK
  8
0
  2
*U11
 70
     1
 10
0.0
 20
0.0
 30
0.0
  3
*U11
  1

  0
TEXT
  5
2F7D
  8
AM_0
 62
     4
 10
1074.58729253097
 20
665.82645657966225
 30
0.0
 40
12.5
  1
o
 41
0.8299999999999999
  0
TEXT
  5
2F7E
  8
AM_0
 62
     4
 10
1086.938483007161
 20
665.82645657966225
 30
0.0
 40
12.5
  1
 330
 41
0.8299999999999999
  0
ENDBLK
  5
2F7F
  8
0
  0
BLOCK
  8
0
  2
*U12
 70
     1
 10
0.0
 20
0.0
 30
0.0
  3
*U12
  1

  0
TEXT
  5
2F82
  8
AM_0
 62
     4
 10
348.4710187261685
 20
320.98086847097193
 30
0.0
 40
12.5
  1
\U+2205
 50
90.0
 41
0.8299999999999999
  0
TEXT
  5
2F83
  8
AM_0
 62
     4
 10
348.4710187261685
 20
331.35586847097198
 30
0.0
 40
12.5
  1
130
 50
90.0
 41
0.8299999999999999
  0
TEXT
  5
2F84
  8
AM_0
 62
     4
 10
348.4710187261685
 20
357.29336847097193
 30
0.0
 40
10.0
  1
G7
 50
90.0
 41
0.8299999999999999
  0
ENDBLK
  5
2F85
  8
0
  0
BLOCK
  8
0
  2
*U13
 70
     1
 10
0.0
 20
0.0
 30
0.0
  3
*U13
  1

  0
TEXT
  5
2F88
  8
AM_0
 62
     4
 10
316.22647869109869
 20
328.76211847097198
 30
0.0
 40
12.5
  1
\U+2205
 50
90.0
 41
0.8299999999999999
  0
TEXT
  5
2F89
  8
AM_0
 62
     4
 10
316.22647869109869
 20
339.13711847097221
 30
0.0
 40
12.5
  1
200
 50
90.0
 41
0.8299999999999999
  0
ENDBLK
  5
2F8A
  8
0
  0
BLOCK
  8
0
  2
*U14
 70
     1
 10
0.0
 20
0.0
 30
0.0
  3
*U14
  1

  0
TEXT
  5
2F8D
  8
AM_0
 62
     4
 10
708.59487069161912
 20
313.1146419084568
 30
0.0
 40
12.5
  1
\U+2205
 50
90.0
 41
0.8299999999999999
  0
TEXT
  5
2F8E
  8
AM_0
 62
     4
 10
708.59487069161912
 20
323.4896419084568
 30
0.0
 40
12.5
  1
280
 50
90.0
 41
0.8299999999999999
  0
TEXT
  5
2F8F
  8
AM_0
 62
     4
 10
708.59487069161912
 20
352.88547524179018
 30
0.0
 40
10.0
  1
h7
 50
90.0
 41
0.8299999999999999
  0
ENDBLK
  5
2F90
  8
0
  0
BLOCK
  8
0
  2
*U15
 70
     1
 10
0.0
 20
0.0
 30
0.0
  3
*U15
  1

  0
TEXT
  5
2F93
  8
AM_0
 62
     4
 10
769.19993588891998
 20
415.79685592159763
 30
0.0
 40
12.5
  1
\U+2205
 50
90.0
 41
0.8299999999999999
  0
TEXT
  5
2F94
  8
AM_0
 62
     4
 10
769.19993588891998
 20
426.17185592159763
 30
0.0
 40
12.5
  1
55
 50
90.0
 41
0.8299999999999999
  0
TEXT
  5
2F95
  8
AM_0
 62
     4
 10
769.19993588891998
 20
446.9218559215978
 30
0.0
 40
10.0
  1
h6
 50
90.0
 41
0.8299999999999999
  0
ENDBLK
  5
2F96
  8
0
  0
BLOCK
  8
0
  2
*U16
 70
     1
 10
0.0
 20
0.0
 30
0.0
  3
*U16
  1

  0
TEXT
  5
2F99
  8
AM_0
 62
     4
 10
966.26019255889003
 20
664.29869153028824
 30
0.0
 40
12.5
  1
o
 41
0.8299999999999999
  0
TEXT
  5
2F9A
  8
AM_0
 62
     4
 10
978.61138303508028
 20
664.29869153028824
 30
0.0
 40
12.5
  1
 330
 41
0.8299999999999999
  0
ENDBLK
  5
2F9B
  8
0
  0
BLOCK
  8
0
  2
*U17
 70
     1
 10
0.0
 20
0.0
 30
0.0
  3
*U17
  1

  0
TEXT
  5
2F9E
  8
AM_0
 62
     4
 10
207.89937871901731
 20
327.23435342159769
 30
0.0
 40
12.5
  1
\U+2205
 50
90.0
 41
0.8299999999999999
  0
TEXT
  5
2F9F
  8
AM_0
 62
     4
 10
207.89937871901731
 20
337.6093534215978
 30
0.0
 40
12.5
  1
200
 50
90.0
 41
0.8299999999999999
  0
ENDBLK
  5
2FA0
  8
0
  0
BLOCK
  8
0
  2
*U18
 70
     1
 10
0.0
 20
0.0
 30
0.0
  3
*U18
  1

  0
TEXT
  5
2FA3
  8
AM_0
 62
     4
 10
240.14391875408711
 20
319.45310342159769
 30
0.0
 40
12.5
  1
\U+2205
 50
90.0
 41
0.8299999999999999
  0
TEXT
  5
2FA4
  8
AM_0
 62
     4
 10
240.14391875408711
 20
329.82810342159758
 30
0.0
 40
12.5
  1
130
 50
90.0
 41
0.8299999999999999
  0
TEXT
  5
2FA5
  8
AM_0
 62
     4
 10
240.14391875408711
 20
355.76560342159758
 30
0.0
 40
10.0
  1
G7
 50
90.0
 41
0.8299999999999999
  0
ENDBLK
  5
2FA6
  8
0
  0
BLOCK
  8
0
  2
_ACMFILLEDHALF
 70
     0
 10
0.0
 20
0.0
 30
0.0
  3
_ACMFILLEDHALF
  1

  0
TRACE
  5
3231
  8
AM_0
 62
     0
 10
-0.8
 20
0.0
 30
0.0
 11
-1.0
 21
0.166666666
 31
0.0
 12
0.0
 22
0.0
 32
0.0
 13
0.0
 23
0.0
 33
0.0
  0
LINE
  5
3232
  8
AM_0
 62
     0
 10
-1.0
 20
0.0
 30
0.0
 11
-0.8
 21
0.0
 31
0.0
  0
ENDBLK
  5
3230
  8
0
  0
ENDSEC
  0
SECTION
  2
ENTITIES
  0
INSERT
  5
2FA7
  8
GEV_FROZEN
  2
*U4
 10
908.63419872493876
 20
575.41071207004165
 30
0.0
 41
0.1
 42
0.1
 43
0.1
 50
179.9999999999998
1001
GENBH
1002
{
1000
-NOBRK
1002
}
  0
INSERT
  5
2FA8
  8
GEV_FROZEN
  2
*U5
 10
908.63419872493876
 20
575.41071207004165
 30
0.0
 41
0.1
 42
0.1
 43
0.1
 50
179.9999999999998
1001
GENBH
1002
{
1000
-NOBRK
1002
}
  0
INSERT
  5
2FA9
  8
GEV_FROZEN
  2
*U7
 10
908.63419872493876
 20
575.41071207004165
 30
0.0
 41
0.1
 42
0.1
 43
0.1
 50
179.9999999999998
1001
GENBH
1002
{
1000
-NOBRK
1002
}
  0
INSERT
  5
2FAA
  8
GEV_FROZEN
  2
*U8
 10
908.63419872493876
 20
575.41071207004165
 30
0.0
 41
0.1
 42
0.1
 43
0.1
 50
179.9999999999998
1001
GENBH
1002
{
1000
-NOBRK
1002
}
  0
LINE
  5
2FAC
  8
AM_0
 10
654.44356585803678
 20
904.41625642127383
 30
0.0
 11
736.443565858037
 21
904.41625642127383
 31
0.0
  0
LINE
  5
2FAD
  8
AM_0
 10
654.44356585803678
 20
849.41625642127428
 30
0.0
 11
736.443565858037
 21
849.41625642127428
 31
0.0
  0
LINE
  5
2FAE
  8
AM_0
 10
674.44362585803674
 20
868.91619642127421
 30
0.0
 11
736.443565858037
 21
868.91619642127421
 31
0.0
  0
LINE
  5
2FAF
  8
AM_0
 10
674.44362585803674
 20
884.91619642127421
 30
0.0
 11
736.443565858037
 21
884.91619642127421
 31
0.0
  0
LINE
  5
2FB0
  8
ﾁｭｳｼﾝｾﾝ
 10
271.793284054948
 20
876.91625642127428
 30
0.0
 11
747.06080585803682
 21
876.91625642127428
 31
0.0
  0
POLYLINE
  5
2FB1
  8
AM_0
 66
     1
 10
0.0
 20
0.0
 30
0.0
  0
VERTEX
  5
2FB2
  8
AM_0
 10
391.50624585803672
 20
801.35369642127409
 30
0.0
 42
-0.10362759
  0
VERTEX
  5
2FB3
  8
AM_0
 10
352.09788585803682
 20
847.57938642127385
 30
0.0
 42
-0.26090923
  0
VERTEX
  5
2FB4
  8
AM_0
 10
352.09788585803682
 20
906.25313642127446
 30
0.0
 42
-0.10362793
  0
VERTEX
  5
2FB5
  8
AM_0
 10
391.50618585803682
 20
952.47875642127383
 30
0.0
  0
SEQEND
  5
2FB6
  8
AM_0
  0
LINE
  5
2FB7
  8
AM_0
 10
389.53785585803672
 20
801.42241642127385
 30
0.0
 11
332.4436258580368
 21
803.41619642127421
 31
0.0
  0
LINE
  5
2FB8
  8
AM_0
 10
389.53785585803672
 20
952.41002642127444
 30
0.0
 11
332.4436258580368
 21
950.4162564212744
 31
0.0
  0
LINE
  5
2FB9
  8
AM_0
 10
344.44362585803663
 20
803.41619642127421
 30
0.0
 11
344.44362585803663
 21
950.4162564212744
 31
0.0
  0
LINE
  5
2FBA
  8
AM_0
 10
332.4436258580368
 20
803.41619642127421
 30
0.0
 11
332.4436258580368
 21
950.4162564212744
 31
0.0
  0
LINE
  5
2FBB
  8
AM_0
 10
332.4436258580368
 20
815.33623642127372
 30
0.0
 11
344.44362585803663
 21
815.33623642127372
 31
0.0
  0
LINE
  5
2FBC
  8
AM_0
 10
332.4436258580368
 20
837.44158642127434
 30
0.0
 11
344.44362585803663
 21
837.44158642127434
 31
0.0
  0
LINE
  5
2FBD
  8
AM_0
 10
332.4436258580368
 20
916.39092642127423
 30
0.0
 11
344.44362585803663
 21
916.39092642127423
 31
0.0
  0
LINE
  5
2FBE
  8
AM_0
 10
332.4436258580368
 20
938.49627642127393
 30
0.0
 11
344.44362585803663
 21
938.49627642127393
 31
0.0
  0
POLYLINE
  5
2FBF
  8
AM_0
 66
     1
 10
0.0
 20
0.0
 30
0.0
  0
VERTEX
  5
2FC0
  8
AM_0
 10
612.34645585803673
 20
963.30450642127425
 30
0.0
 42
0.01720808
  0
VERTEX
  5
2FC1
  8
AM_0
 10
607.93018585803691
 20
905.9293164212736
 30
0.0
 42
0.0088311605
  0
VERTEX
  5
2FC2
  8
AM_0
 10
607.21333585803677
 20
876.91625642127428
 30
0.0
 42
0.025919753
  0
VERTEX
  5
2FC3
  8
AM_0
 10
611.08216585803689
 20
790.95256642127424
 30
0.0
  0
SEQEND
  5
2FC4
  8
AM_0
  0
ARC
  5
2FC5
  8
AM_0
 10
483.44362585803663
 20
876.91625642127428
 30
0.0
 40
12.5
 50
203.57817999999739
 51
336.42183000000068
  0
LINE
  5
2FC6
  8
AM_0
 10
633.44368585803659
 20
1001.265376421274
 30
0.0
 11
633.44368585803659
 21
752.56713642127386
 31
0.0
  0
LINE
  5
2FC7
  8
AM_0
 10
651.44362585803674
 20
1016.916256421273
 30
0.0
 11
651.44362585803674
 21
736.91625642127428
 31
0.0
  0
LINE
  5
2FC8
  8
AM_0
 10
646.44362585803674
 20
1041.9162564212741
 30
0.0
 11
646.44362585803674
 21
711.91619642127444
 31
0.0
  0
LINE
  5
2FC9
  8
AM_0
 10
624.44362585803674
 20
1036.319516421273
 30
0.0
 11
624.44362585803674
 21
717.51299642127424
 31
0.0
  0
LINE
  5
2FCA
  8
AM_0
 10
654.44356585803678
 20
906.91625642127394
 30
0.0
 11
654.44356585803678
 21
846.91625642127428
 31
0.0
  0
LINE
  5
2FCB
  8
AM_0
 10
389.4436258580368
 20
858.91625642127406
 30
0.0
 11
389.4436258580368
 21
894.91625642127428
 31
0.0
  0
LINE
  5
2FCC
  8
AM_0
 10
357.4436258580368
 20
863.91625642127406
 30
0.0
 11
357.4436258580368
 21
889.91625642127394
 31
0.0
  0
LINE
  5
2FCD
  8
AM_0
 10
407.4436258580368
 20
779.91625642127428
 30
0.0
 11
407.4436258580368
 21
973.91619642127421
 31
0.0
  0
LINE
  5
2FCE
  8
AM_0
 10
422.44368585803682
 20
974.41625642127428
 30
0.0
 11
422.44368585803682
 21
779.41625642127428
 31
0.0
  0
LINE
  5
2FCF
  8
AM_0
 10
471.44356585803672
 20
749.79229642127405
 30
0.0
 11
471.44356585803672
 21
866.38066642127421
 31
0.0
  0
LINE
  5
2FD0
  8
AM_0
 10
501.44362585803663
 20
871.91625642127428
 30
0.0
 11
501.44362585803663
 21
743.91619642127421
 31
0.0
  0
LINE
  5
2FD1
  8
AM_0
 10
445.44356585803689
 20
770.46056642127382
 30
0.0
 11
445.44356585803689
 21
983.37188642127455
 31
0.0
  0
LINE
  5
2FD2
  8
AM_0
 10
501.44362585803663
 20
743.91619642127421
 30
0.0
 11
617.60035585803678
 21
739.85991642127385
 31
0.0
  0
LINE
  5
2FD3
  8
AM_0
 10
422.44362585803663
 20
779.41619642127421
 30
0.0
 11
440.61812585803671
 21
778.78154642127424
 31
0.0
  0
LINE
  5
2FD4
  8
AM_0
 10
424.44356585803689
 20
793.72106642127414
 30
0.0
 11
445.44356585803689
 21
793.72106642127414
 31
0.0
  0
LINE
  5
2FD5
  8
AM_0
 10
424.44356585803689
 20
820.1404364212741
 30
0.0
 11
445.44356585803689
 21
820.1404364212741
 31
0.0
  0
LINE
  5
2FD6
  8
AM_0
 10
424.44356585803689
 20
803.9100264212741
 30
0.0
 11
445.44356585803689
 21
803.9100264212741
 31
0.0
  0
LINE
  5
2FD7
  8
AM_0
 10
391.50624585803672
 20
801.35369642127409
 30
0.0
 11
405.97914585803682
 21
786.88079642127423
 31
0.0
  0
LINE
  5
2FD8
  8
AM_0
 10
409.44362585803651
 20
777.91625642127394
 30
0.0
 11
420.44356585803689
 21
777.91625642127394
 31
0.0
  0
ARC
  5
2FD9
  8
AM_0
 10
402.4436258580368
 20
783.34514642127431
 30
0.0
 40
5.0
 50
0.0
 51
45.000001000003799
  0
ARC
  5
2FDA
  8
AM_0
 10
409.44362585803651
 20
779.91625642127428
 30
0.0
 40
2.0
 50
179.9999899999988
 51
270.0
  0
LINE
  5
2FDB
  8
AM_0
 10
420.44356585803689
 20
777.91625642127394
 30
0.0
 11
422.44356585803661
 21
779.91625642127428
 31
0.0
  0
ARC
  5
2FDC
  8
AM_0
 10
389.36336585803679
 20
796.42546642127422
 30
0.0
 40
5.0
 50
44.999998000001611
 51
88.000000000002785
  0
LINE
  5
2FDD
  8
AM_0
 10
362.44362585803663
 20
858.91625642127406
 30
0.0
 11
384.4436258580368
 21
858.91625642127406
 31
0.0
  0
ARC
  5
2FDE
  8
AM_0
 10
362.44362585803663
 20
863.91625642127406
 30
0.0
 40
5.0
 50
180.00001000000091
 51
270.0
  0
ARC
  5
2FDF
  8
AM_0
 10
384.4436258580368
 20
853.91625642127428
 30
0.0
 40
5.0
 50
0.0
 51
90.00000299999769
  0
LINE
  5
2FE0
  8
AM_0
 10
407.4436258580368
 20
820.64043642127422
 30
0.0
 11
422.44362585803663
 21
820.64043642127422
 31
0.0
  0
LINE
  5
2FE1
  8
AM_0
 10
407.4436258580368
 20
804.41002642127421
 30
0.0
 11
422.44362585803663
 21
804.41002642127421
 31
0.0
  0
LINE
  5
2FE2
  8
AM_0
 10
407.4436258580368
 20
794.22106642127414
 30
0.0
 11
422.44362585803663
 21
794.22106642127414
 31
0.0
  0
LINE
  5
2FE3
  8
AM_0
 10
424.44356585803689
 20
820.1404364212741
 30
0.0
 11
424.44356585803689
 21
793.72106642127414
 31
0.0
  0
LINE
  5
2FE4
  8
AM_0
 10
501.44362585803663
 20
743.91619642127421
 30
0.0
 11
476.26912585803677
 21
744.79534642127419
 31
0.0
  0
ARC
  5
2FE5
  8
AM_0
 10
476.44356585803661
 20
749.79229642127405
 30
0.0
 40
5.0
 50
180.00001000000091
 51
268.00000000000261
  0
LINE
  5
2FE6
  8
AM_0
 10
466.61806585803657
 20
764.8926964212742
 30
0.0
 11
450.26906585803681
 21
765.4636164212742
 31
0.0
  0
ARC
  5
2FE7
  8
AM_0
 10
450.44356585803672
 20
770.46056642127382
 30
0.0
 40
5.0
 50
180.00001000000091
 51
268.00000000000261
  0
ARC
  5
2FE8
  8
AM_0
 10
440.4436258580368
 20
773.78460642127425
 30
0.0
 40
5.0
 50
0.0
 51
88.000000000002785
  0
ARC
  5
2FE9
  8
AM_0
 10
466.44356585803689
 20
759.89574642127423
 30
0.0
 40
5.0
 50
0.0
 51
88.000000000002785
  0
ARC
  5
2FEA
  8
AM_0
 10
629.44362585803674
 20
717.51299642127424
 30
0.0
 40
5.0
 50
179.9999899999988
 51
268.00000999999861
  0
LINE
  5
2FEB
  8
AM_0
 10
629.26918585803685
 20
712.51598642127385
 30
0.0
 11
646.44368585803659
 21
711.9162564212744
 31
0.0
  0
LINE
  5
2FEC
  8
AM_0
 10
586.37275585803673
 20
789.26580642127385
 30
0.0
 11
621.94185585803666
 21
767.7393764212743
 31
0.0
  0
LINE
  5
2FED
  8
AM_0
 10
583.7931658580369
 20
779.55217642127423
 30
0.0
 11
622.03242585803673
 21
756.40978642127425
 31
0.0
  0
LINE
  5
2FEE
  8
AM_0
 10
613.0937658580367
 20
790.0745764212744
 30
0.0
 11
624.44362585803674
 21
781.75084642127422
 31
0.0
  0
ARC
  5
2FEF
  8
AM_0
 10
610.13685585803671
 20
786.04271642127424
 30
0.0
 40
5.0
 50
53.744453000003212
 51
90.00000299999769
  0
ARC
  5
2FF0
  8
AM_0
 10
586.38203585803672
 20
786.04271642127424
 30
0.0
 40
5.0
 50
90.00000299999769
 51
180.00001000000091
  0
ARC
  5
2FF1
  8
AM_0
 10
586.38203585803672
 20
783.82982642127422
 30
0.0
 40
5.0
 50
179.9999899999988
 51
238.81764999999689
  0
LINE
  5
2FF2
  8
AM_0
 10
581.3820358580366
 20
783.82982642127422
 30
0.0
 11
581.3820358580366
 21
786.04271642127424
 31
0.0
  0
LINE
  5
2FF3
  8
AM_0
 10
586.38203585803672
 20
791.04271642127424
 30
0.0
 11
610.13685585803671
 21
791.04271642127424
 31
0.0
  0
POLYLINE
  5
2FF4
  8
AM_0
 66
     1
 10
0.0
 20
0.0
 30
0.0
  0
VERTEX
  5
2FF5
  8
AM_0
 10
614.52716585803671
 20
760.95195642127419
 30
0.0
 42
0.0020909347
  0
VERTEX
  5
2FF6
  8
AM_0
 10
615.49301585803676
 20
753.91144642127415
 30
0.0
 42
0.0020881749
  0
VERTEX
  5
2FF7
  8
AM_0
 10
616.51759585803666
 20
746.87982642127406
 30
0.0
 42
0.0020849591
  0
VERTEX
  5
2FF8
  8
AM_0
 10
617.60035585803678
 20
739.85997642127415
 30
0.0
  0
SEQEND
  5
2FF9
  8
AM_0
  0
ARC
  5
2FFA
  8
AM_0
 10
619.44362585803674
 20
752.13213642127425
 30
0.0
 40
5.0
 50
0.0
 51
58.817640999998339
  0
LINE
  5
2FFB
  8
AM_0
 10
620.96144585803665
 20
738.39855642127441
 30
0.0
 11
624.4436858580367
 21
734.91631642127425
 31
0.0
  0
ARC
  5
2FFC
  8
AM_0
 10
617.42586585803667
 20
734.86303642127405
 30
0.0
 40
5.0
 50
45.000001000003799
 51
88.000000000002785
  0
ARC
  5
2FFD
  8
AM_0
 10
625.44362585803674
 20
752.56713642127386
 30
0.0
 40
8.0
 50
270.0
 51
0.0
  0
LINE
  5
2FFE
  8
AM_0
 10
646.44362585803674
 20
736.91625642127428
 30
0.0
 11
651.44362585803674
 21
736.91625642127428
 31
0.0
  0
ARC
  5
2FFF
  8
AM_0
 10
625.44362585803674
 20
810.57958642127414
 30
0.0
 40
8.0
 50
270.0
 51
0.0
  0
LINE
  5
3000
  8
AM_0
 10
651.44362585803674
 20
846.91625642127428
 30
0.0
 11
654.44356585803678
 21
846.91625642127428
 31
0.0
  0
LINE
  5
3001
  8
AM_0
 10
501.44362585803663
 20
1009.9162564212741
 30
0.0
 11
617.60035585803678
 21
1013.972526421274
 31
0.0
  0
LINE
  5
3002
  8
AM_0
 10
422.44368585803682
 20
974.41625642127428
 30
0.0
 11
440.61818585803661
 21
975.05089642127427
 31
0.0
  0
LINE
  5
3003
  8
AM_0
 10
424.44356585803689
 20
949.92241642127385
 30
0.0
 11
445.44356585803689
 21
949.92241642127385
 31
0.0
  0
LINE
  5
3004
  8
AM_0
 10
424.44356585803689
 20
960.11138642127446
 30
0.0
 11
445.44356585803689
 21
960.11138642127446
 31
0.0
  0
LINE
  5
3005
  8
AM_0
 10
424.44356585803689
 20
933.69200642127385
 30
0.0
 11
445.44356585803689
 21
933.69200642127385
 31
0.0
  0
LINE
  5
3006
  8
AM_0
 10
424.44356585803689
 20
960.11138642127446
 30
0.0
 11
424.44356585803689
 21
933.69200642127385
 31
0.0
  0
LINE
  5
3007
  8
AM_0
 10
362.44362585803663
 20
894.91625642127428
 30
0.0
 11
384.4436258580368
 21
894.91625642127428
 31
0.0
  0
ARC
  5
3008
  8
AM_0
 10
362.44362585803663
 20
889.91625642127394
 30
0.0
 40
5.0
 50
90.00000299999769
 51
180.00001000000091
  0
ARC
  5
3009
  8
AM_0
 10
384.4436258580368
 20
899.91625642127383
 30
0.0
 40
5.0
 50
270.0
 51
0.0
  0
LINE
  5
300A
  8
AM_0
 10
407.4436258580368
 20
934.19200642127385
 30
0.0
 11
422.44362585803663
 21
934.19200642127385
 31
0.0
  0
ARC
  5
300B
  8
AM_0
 10
389.36336585803679
 20
957.40697642127395
 30
0.0
 40
5.0
 50
271.9999999999971
 51
315.0
  0
ARC
  5
300C
  8
AM_0
 10
410.44356585803661
 20
973.91619642127421
 30
0.0
 40
3.0
 50
90.00000299999769
 51
180.00001000000091
  0
LINE
  5
300D
  8
AM_0
 10
420.4436258580368
 20
976.91625642127428
 30
0.0
 11
422.44356585803661
 21
974.91631642127425
 31
0.0
  0
LINE
  5
300E
  8
AM_0
 10
407.4436258580368
 20
960.61138642127423
 30
0.0
 11
422.44362585803663
 21
960.61138642127423
 31
0.0
  0
LINE
  5
300F
  8
AM_0
 10
407.4436258580368
 20
950.42241642127385
 30
0.0
 11
422.44362585803663
 21
950.42241642127385
 31
0.0
  0
LINE
  5
3010
  8
AM_0
 10
391.50618585803682
 20
952.47869642127444
 30
0.0
 11
405.97920585803672
 21
966.95171642127377
 31
0.0
  0
ARC
  5
3011
  8
AM_0
 10
402.4436258580368
 20
970.48729642127455
 30
0.0
 40
5.0
 50
315.0
 51
0.0
  0
LINE
  5
3012
  8
AM_0
 10
410.44356585803661
 20
976.91619642127432
 30
0.0
 11
420.44356585803689
 21
976.91619642127432
 31
0.0
  0
LINE
  5
3013
  8
AM_0
 10
471.44356585803672
 20
887.45183642127427
 30
0.0
 11
471.44356585803672
 21
1004.040156421273
 31
0.0
  0
LINE
  5
3014
  8
AM_0
 10
501.44362585803663
 20
1009.9162564212741
 30
0.0
 11
501.44362585803663
 21
881.91625642127394
 31
0.0
  0
ARC
  5
3015
  8
AM_0
 10
483.44362585803663
 20
876.91625642127428
 30
0.0
 40
12.5
 50
23.578179999997531
 51
156.42182000000241
  0
LINE
  5
3016
  8
AM_0
 10
463.44362585803663
 20
881.91625642127394
 30
0.0
 11
503.44362585803691
 21
881.91625642127394
 31
0.0
  0
LINE
  5
3017
  8
AM_0
 10
463.44362585803663
 20
871.91625642127428
 30
0.0
 11
503.44362585803691
 21
871.91625642127428
 31
0.0
  0
ARC
  5
3018
  8
AM_0
 10
483.44362585803663
 20
876.91625642127428
 30
0.0
 40
15.0
 50
148.21198000000049
 51
160.52876999999901
  0
ARC
  5
3019
  8
AM_0
 10
463.44362585803663
 20
876.91625642127428
 30
0.0
 40
5.0
 50
90.00000299999769
 51
270.0
  0
ARC
  5
301A
  8
AM_0
 10
466.44356585803689
 20
866.38066642127421
 30
0.0
 40
5.0
 50
0.0
 51
31.78801800000311
  0
ARC
  5
301B
  8
AM_0
 10
483.44362585803663
 20
876.91625642127428
 30
0.0
 40
15.0
 50
199.47123000000059
 51
211.78801999999919
  0
ARC
  5
301C
  8
AM_0
 10
466.44356585803689
 20
887.45183642127427
 30
0.0
 40
5.0
 50
328.21198000000072
 51
0.0
  0
ARC
  5
301D
  8
AM_0
 10
503.44362585803691
 20
876.91625642127428
 30
0.0
 40
5.0
 50
270.0
 51
90.00000299999769
  0
LINE
  5
301E
  8
AM_0
 10
501.44356585803661
 20
1009.9162564212741
 30
0.0
 11
476.26899585803659
 21
1009.0371064212731
 31
0.0
  0
ARC
  5
301F
  8
AM_0
 10
440.4436258580368
 20
980.04784642127424
 30
0.0
 40
5.0
 50
271.9999999999971
 51
0.0
  0
LINE
  5
3020
  8
AM_0
 10
466.61806585803657
 20
988.93981642127369
 30
0.0
 11
450.26906585803681
 21
988.36888642127428
 31
0.0
  0
ARC
  5
3021
  8
AM_0
 10
450.44356585803672
 20
983.37188642127455
 30
0.0
 40
5.0
 50
91.999998000000545
 51
180.00001000000091
  0
ARC
  5
3022
  8
AM_0
 10
466.44356585803689
 20
993.93676642127423
 30
0.0
 40
5.0
 50
271.9999999999971
 51
0.0
  0
ARC
  5
3023
  8
AM_0
 10
476.44356585803661
 20
1004.040156421273
 30
0.0
 40
5.0
 50
91.999998000000545
 51
180.00001000000091
  0
POLYLINE
  5
3024
  8
AM_0
 66
     1
 10
0.0
 20
0.0
 30
0.0
  0
VERTEX
  5
3025
  8
AM_0
 10
619.56874585803666
 20
1014.041256421273
 30
0.0
  0
VERTEX
  5
3026
  8
AM_0
 10
616.33848585803673
 20
993.97674642127424
 30
0.0
 42
-1.0
  0
SEQEND
  5
3027
  8
AM_0
  0
LINE
  5
3028
  8
AM_0
 10
613.0937658580367
 20
963.75786642127434
 30
0.0
 11
624.44362585803674
 21
972.08165642127426
 31
0.0
  0
LINE
  5
3029
  8
AM_0
 10
583.7931658580369
 20
974.28026642127395
 30
0.0
 11
622.03242585803673
 21
997.42272642127386
 31
0.0
  0
LINE
  5
302A
  8
AM_0
 10
586.37275585803673
 20
964.56664642127441
 30
0.0
 11
621.94185585803666
 21
986.09307642127385
 31
0.0
  0
LINE
  5
302B
  8
AM_0
 10
586.38203585803672
 20
962.78978642127436
 30
0.0
 11
610.13685585803671
 21
962.78978642127436
 31
0.0
  0
ARC
  5
302C
  8
AM_0
 10
586.38203585803672
 20
967.78978642127424
 30
0.0
 40
5.0
 50
179.9999899999988
 51
270.0
  0
ARC
  5
302D
  8
AM_0
 10
586.38203585803672
 20
970.00261642127384
 30
0.0
 40
5.0
 50
121.18235999999619
 51
180.00001000000091
  0
LINE
  5
302E
  8
AM_0
 10
581.3820358580366
 20
970.00261642127384
 30
0.0
 11
581.3820358580366
 21
967.78978642127424
 31
0.0
  0
ARC
  5
302F
  8
AM_0
 10
610.13685585803671
 20
967.78978642127424
 30
0.0
 40
5.0
 50
270.0
 51
306.25554999999889
  0
LINE
  5
3030
  8
AM_0
 10
651.44362585803674
 20
906.91625642127394
 30
0.0
 11
654.44356585803678
 21
906.91625642127394
 31
0.0
  0
ARC
  5
3031
  8
AM_0
 10
674.44362585803674
 20
876.91619642127421
 30
0.0
 40
8.0000113999999982
 50
90.00000299999769
 51
270.0
  0
LINE
  5
3032
  8
AM_0
 10
674.44356585803689
 20
884.91619642127421
 30
0.0
 11
674.44356585803689
 21
868.91619642127421
 31
0.0
  0
ARC
  5
3033
  8
AM_0
 10
625.44362585803674
 20
943.25286642127435
 30
0.0
 40
8.0
 50
0.0
 51
90.00000299999769
  0
ARC
  5
3034
  8
AM_0
 10
619.44362585803674
 20
1001.700316421274
 30
0.0
 40
5.0
 50
301.18235999999632
 51
0.0
  0
ARC
  5
3035
  8
AM_0
 10
625.44362585803674
 20
1001.265376421274
 30
0.0
 40
8.0
 50
0.0
 51
90.00000299999769
  0
LINE
  5
3036
  8
AM_0
 10
629.26918585803685
 20
1041.3165264212739
 30
0.0
 11
646.44368585803659
 21
1041.9162564212741
 31
0.0
  0
LINE
  5
3037
  8
AM_0
 10
620.96144585803665
 20
1015.433956421273
 30
0.0
 11
624.4436858580367
 21
1018.916196421274
 31
0.0
  0
ARC
  5
3038
  8
AM_0
 10
617.42586585803667
 20
1018.969476421274
 30
0.0
 40
5.0
 50
271.9999999999971
 51
315.0
  0
ARC
  5
3039
  8
AM_0
 10
629.44362585803674
 20
1036.319516421273
 30
0.0
 40
5.0
 50
91.999998000000545
 51
180.00001000000091
  0
LINE
  5
303A
  8
AM_0
 10
646.44362585803674
 20
1016.916256421273
 30
0.0
 11
651.44362585803674
 21
1016.916256421273
 31
0.0
  0
LINE
  5
303B
  8
AM_0
 10
736.443565858037
 20
904.41625642127383
 30
0.0
 11
736.443565858037
 21
849.41625642127428
 31
0.0
  0
LINE
  5
303C
  8
AM_0
 10
501.44361585803688
 20
554.02601008826389
 30
0.0
 11
603.22506585803671
 21
556.69126008826413
 31
0.0
  0
LINE
  5
303D
  8
AM_0
 10
586.38196585803666
 20
517.89956008826425
 30
0.0
 11
610.13681585803704
 21
517.89956008826425
 31
0.0
  0
LINE
  5
303E
  8
AM_0
 10
583.79311585803646
 20
529.39006008826425
 30
0.0
 11
622.03236585803722
 21
552.53251008826442
 31
0.0
  0
LINE
  5
303F
  8
ﾁｭｳｼﾝｾﾝ
 10
383.14060524686181
 20
432.02602008826437
 30
0.0
 11
743.37241585803679
 21
432.02602008826437
 31
0.0
  0
LINE
  5
3040
  8
AM_0
 10
546.44356585803666
 20
312.27193008826441
 30
0.0
 11
624.44356585803678
 21
312.27193008826441
 31
0.0
  0
LINE
  5
3041
  8
AM_0
 10
546.44356585803666
 20
287.62706508826432
 30
0.0
 11
624.44356585803678
 21
287.62706508826432
 31
0.0
  0
LINE
  5
3042
  8
AM_0
 10
471.44356585803672
 20
440.49242508826421
 30
0.0
 11
619.04486585803704
 21
440.49242508826421
 31
0.0
  0
LINE
  5
3043
  8
AM_0
 10
471.44356585803672
 20
338.69683008826439
 30
0.0
 11
624.44356585803678
 21
338.69683008826439
 31
0.0
  0
LINE
  5
3044
  8
AM_0
 10
588.5487158580371
 20
238.2191650882643
 30
0.0
 11
638.44361585803688
 21
267.02599008826439
 31
0.0
  0
LINE
  5
3045
  8
AM_0
 10
586.37266585803695
 20
519.67650508826432
 30
0.0
 11
621.94181585803665
 21
541.20301008826436
 31
0.0
  0
LINE
  5
3046
  8
AM_0
 10
501.44356585803661
 20
554.02601008826389
 30
0.0
 11
501.44356585803661
 21
239.0260200882642
 31
0.0
  0
LINE
  5
3047
  8
AM_0
 10
407.44361585803671
 20
289.52602008826432
 30
0.0
 11
407.44361585803671
 21
483.5260250882643
 31
0.0
  0
LINE
  5
3048
  8
AM_0
 10
445.44356585803678
 20
500.01000008826418
 30
0.0
 11
445.44356585803678
 21
274.58351508826422
 31
0.0
  0
LINE
  5
3049
  8
AM_0
 10
471.44356585803672
 20
551.04706008826417
 30
0.0
 11
471.44356585803672
 21
242.00501008826421
 31
0.0
  0
LINE
  5
304A
  8
AM_0
 10
422.44361585803688
 20
484.52602508826442
 30
0.0
 11
422.44361585803688
 21
289.52602008826432
 31
0.0
  0
LINE
  5
304B
  8
AM_0
 10
349.37906585803682
 20
419.96141508826412
 30
0.0
 11
405.97916585803682
 21
476.5615150882644
 31
0.0
  0
LINE
  5
304C
  8
AM_0
 10
424.44356585803678
 20
470.22118508826441
 30
0.0
 11
424.44356585803678
 21
443.80181008826418
 31
0.0
  0
LINE
  5
304D
  8
ﾁｭｳｼﾝｾﾝ
 10
271.793284054948
 20
344.52602008826432
 30
0.0
 11
434.08080951287002
 21
344.52602008826432
 31
0.0
  0
LINE
  5
304E
  8
AM_0
 10
355.64346585803668
 20
296.02602008826432
 30
0.0
 11
404.44356585803678
 21
296.02602008826432
 31
0.0
  0
LINE
  5
304F
  8
AM_0
 10
347.44361585803682
 20
340.57414508826417
 30
0.0
 11
404.44356585803678
 21
340.57414508826417
 31
0.0
  0
LINE
  5
3050
  8
AM_0
 10
344.44361585803682
 20
337.57418008826431
 30
0.0
 11
344.44361585803682
 21
272.45633508826432
 31
0.0
  0
LINE
  5
3051
  8
AM_0
 10
353.54286585803681
 20
337.57418008826431
 30
0.0
 11
353.54286585803681
 21
296.02602008826432
 31
0.0
  0
LINE
  5
3052
  8
AM_0
 10
332.44361585803682
 20
418.02602008826432
 30
0.0
 11
332.44361585803682
 21
271.02600508826418
 31
0.0
  0
LINE
  5
3053
  8
AM_0
 10
278.44361585803682
 20
244.5260200882644
 30
0.0
 11
278.44361585803682
 21
444.52602008826437
 31
0.0
  0
LINE
  5
3054
  8
AM_0
 10
288.44361585803682
 20
443.52602008826437
 30
0.0
 11
288.44361585803682
 21
245.5260200882644
 31
0.0
  0
LINE
  5
3055
  8
AM_0
 10
291.44361585803682
 20
305.0513440882645
 30
0.0
 11
330.44361585803682
 21
305.0513440882645
 31
0.0
  0
LINE
  5
3056
  8
AM_0
 10
332.44361585803682
 20
271.02602008826449
 30
0.0
 11
291.18214885803673
 21
267.41610908826442
 31
0.0
  0
LINE
  5
3057
  8
AM_0
 10
291.44361585803682
 20
281.01679508826447
 30
0.0
 11
328.44361585803682
 21
281.01679508826447
 31
0.0
  0
ARC
  5
3058
  8
AM_0
 10
291.44361585803682
 20
278.01679508826442
 30
0.0
 40
3.0
 50
90.0
 51
180.0
  0
LINE
  5
3059
  8
AM_0
 10
278.44361585803682
 20
244.5260200882644
 30
0.0
 11
287.44361585803688
 21
244.5260200882644
 31
0.0
  0
ARC
  5
305A
  8
AM_0
 10
287.44361585803688
 20
245.5260200882644
 30
0.0
 40
1.0
 50
270.0
 51
0.0
  0
ARC
  5
305B
  8
AM_0
 10
291.44361585803682
 20
264.42752508826442
 30
0.0
 40
3.0
 50
94.999999999999716
 51
180.0
  0
ARC
  5
305C
  8
AM_0
 10
291.44361585803682
 20
302.0513440882645
 30
0.0
 40
3.0
 50
90.0
 51
180.0
  0
LINE
  5
305D
  8
AM_0
 10
345.64111585803681
 20
274.31589008826433
 30
0.0
 11
352.82446585803677
 21
294.05205008826431
 31
0.0
  0
LINE
  5
305E
  8
AM_0
 10
332.44361585803682
 20
271.02600508826418
 30
0.0
 11
340.94251585803693
 21
271.02600508826418
 31
0.0
  0
ARC
  5
305F
  8
AM_0
 10
340.94251585803693
 20
276.0260050882643
 30
0.0
 40
5.0
 50
270.0
 51
339.9999999999992
  0
ARC
  5
3060
  8
AM_0
 10
355.64346585803668
 20
293.0260200882642
 30
0.0
 40
3.0000000500000001
 50
90.00000299999769
 51
159.9999999999992
  0
LINE
  5
3061
  8
AM_0
 10
330.44361585803682
 20
283.01679508826447
 30
0.0
 11
330.44361585803682
 21
303.0513440882645
 31
0.0
  0
LINE
  5
3062
  8
AM_0
 10
332.44361585803682
 20
282.94736008826408
 30
0.0
 11
344.44361585803682
 21
282.94736008826408
 31
0.0
  0
ARC
  5
3063
  8
AM_0
 10
328.44361585803682
 20
283.01679508826447
 30
0.0
 40
2.0
 50
270.0
 51
0.0
  0
LINE
  5
3064
  8
AM_0
 10
332.44361585803682
 20
305.05135008826431
 30
0.0
 11
344.44361585803682
 21
305.05135008826431
 31
0.0
  0
ARC
  5
3065
  8
AM_0
 10
332.44361585803682
 20
303.0513440882645
 30
0.0
 40
2.0
 50
120.0000000000005
 51
180.0
  0
LINE
  5
3066
  8
AM_0
 10
347.98636585803678
 20
418.56877508826409
 30
0.0
 11
347.98636585803678
 21
344.52602008826432
 31
0.0
  0
LINE
  5
3067
  8
AM_0
 10
330.44361585803682
 20
406.03524508826439
 30
0.0
 11
330.44361585803682
 21
386.00069508826448
 31
0.0
  0
LINE
  5
3068
  8
AM_0
 10
291.44361585803682
 20
384.00069508826448
 30
0.0
 11
330.44361585803682
 21
384.00069508826448
 31
0.0
  0
ARC
  5
3069
  8
AM_0
 10
291.44361585803682
 20
387.00069508826442
 30
0.0
 40
3.0
 50
180.0
 51
270.0
  0
LINE
  5
306A
  8
AM_0
 10
332.44361585803682
 20
384.00072508826418
 30
0.0
 11
347.44361585803682
 21
384.00072508826418
 31
0.0
  0
ARC
  5
306B
  8
AM_0
 10
332.44361585803682
 20
386.00069508826448
 30
0.0
 40
2.0
 50
180.0
 51
239.99999999999949
  0
LINE
  5
306C
  8
AM_0
 10
332.44361585803682
 20
418.02602008826432
 30
0.0
 11
291.18214885803673
 21
421.63593008826427
 31
0.0
  0
LINE
  5
306D
  8
AM_0
 10
291.44361585803682
 20
408.03524508826428
 30
0.0
 11
328.44361585803682
 21
408.03524508826428
 31
0.0
  0
ARC
  5
306E
  8
AM_0
 10
291.44361585803682
 20
411.03524508826428
 30
0.0
 40
3.0
 50
180.0
 51
270.0
  0
ARC
  5
306F
  8
AM_0
 10
291.44361585803682
 20
424.62451508826439
 30
0.0
 40
3.0
 50
180.0
 51
265.00000000000028
  0
LINE
  5
3070
  8
AM_0
 10
278.44361585803682
 20
444.52602008826437
 30
0.0
 11
287.44361585803688
 21
444.52602008826437
 31
0.0
  0
ARC
  5
3071
  8
AM_0
 10
287.44361585803688
 20
443.52602008826437
 30
0.0
 40
1.0
 50
0.0
 51
90.0
  0
ARC
  5
3072
  8
AM_0
 10
328.44361585803682
 20
406.03524508826439
 30
0.0
 40
2.0
 50
0.0
 51
90.0
  0
LINE
  5
3073
  8
AM_0
 10
332.44361585803682
 20
406.10466508826431
 30
0.0
 11
347.98636585803678
 21
406.10466508826431
 31
0.0
  0
LINE
  5
3074
  8
AM_0
 10
332.4435158580369
 20
418.02599008826411
 30
0.0
 11
346.01796585803658
 21
418.49999008826433
 31
0.0
  0
ARC
  5
3075
  8
AM_0
 10
345.84351585803682
 20
423.49703008826418
 30
0.0
 40
5.0
 50
271.99999999999687
 51
315.0
  0
LINE
  5
3076
  8
AM_0
 10
424.44356585803678
 20
330.25020508826418
 30
0.0
 11
424.44356585803678
 21
303.83083008826418
 31
0.0
  0
LINE
  5
3077
  8
AM_0
 10
473.3738658580366
 20
240.00624508826419
 30
0.0
 11
501.44356585803661
 21
239.02603508826419
 31
0.0
  0
ARC
  5
3078
  8
AM_0
 10
473.44356585803661
 20
242.00501008826421
 30
0.0
 40
2.0000000500000001
 50
179.9999899999988
 51
268.00000999999861
  0
LINE
  5
3079
  8
AM_0
 10
422.44361585803688
 20
289.52602008826432
 30
0.0
 11
440.6181158580369
 21
288.89134508826442
 31
0.0
  0
LINE
  5
307A
  8
AM_0
 10
424.44356585803678
 20
303.83083008826418
 30
0.0
 11
445.44356585803678
 21
303.83083008826418
 31
0.0
  0
LINE
  5
307B
  8
AM_0
 10
424.44356585803678
 20
314.01982508826433
 30
0.0
 11
445.44356585803678
 21
314.01982508826433
 31
0.0
  0
ARC
  5
307C
  8
AM_0
 10
409.44356585803661
 20
289.52602008826432
 30
0.0
 40
2.0000000500000001
 50
179.9999899999988
 51
270.0
  0
LINE
  5
307D
  8
AM_0
 10
407.44361585803671
 20
303.83083008826418
 30
0.0
 11
422.44361585803688
 21
303.83083008826418
 31
0.0
  0
LINE
  5
307E
  8
AM_0
 10
407.44361585803671
 20
314.01982508826433
 30
0.0
 11
422.44361585803688
 21
314.01982508826433
 31
0.0
  0
ARC
  5
307F
  8
AM_0
 10
404.44356585803678
 20
293.0260200882642
 30
0.0
 40
3.0000000500000001
 50
0.0
 51
90.00000299999769
  0
LINE
  5
3080
  8
AM_0
 10
420.44361585803682
 20
287.52596008826418
 30
0.0
 11
422.44361585803688
 21
289.5259300882642
 31
0.0
  0
LINE
  5
3081
  8
AM_0
 10
409.44356585803661
 20
287.52602008826432
 30
0.0
 11
420.44356585803678
 21
287.52602008826432
 31
0.0
  0
LINE
  5
3082
  8
AM_0
 10
469.36981585803721
 20
254.75684008826431
 30
0.0
 11
447.51736585803661
 21
270.52921008826422
 31
0.0
  0
ARC
  5
3083
  8
AM_0
 10
450.44356585803672
 20
274.58351508826422
 30
0.0
 40
5.0
 50
179.9999899999988
 51
234.17957000000149
  0
ARC
  5
3084
  8
AM_0
 10
466.44356585803678
 20
250.70262508826431
 30
0.0
 40
5.0
 50
0.0
 51
54.179553999998987
  0
ARC
  5
3085
  8
AM_0
 10
440.44356585803661
 20
283.89440008826432
 30
0.0
 40
5.0
 50
0.0
 51
88.000000000002899
  0
LINE
  5
3086
  8
AM_0
 10
501.44356585803661
 20
239.0260050882643
 30
0.0
 11
583.28696585803698
 21
236.88284508826419
 31
0.0
  0
ARC
  5
3087
  8
AM_0
 10
583.54871585803676
 20
246.87946008826441
 30
0.0
 40
10.0
 50
268.4999999999971
 51
300.00000000000051
  0
LINE
  5
3088
  8
AM_0
 10
541.44356585803678
 20
307.27193008826441
 30
0.0
 11
541.44356585803678
 21
292.6270650882642
 31
0.0
  0
ARC
  5
3089
  8
AM_0
 10
546.44356585803666
 20
292.6270650882642
 30
0.0
 40
5.0
 50
179.9999899999988
 51
270.0
  0
ARC
  5
308A
  8
AM_0
 10
546.44356585803666
 20
307.27193008826441
 30
0.0
 40
5.0
 50
90.00000299999769
 51
180.00001000000091
  0
LINE
  5
308B
  8
AM_0
 10
424.44356585803678
 20
330.25020508826418
 30
0.0
 11
445.44356585803678
 21
330.25020508826418
 31
0.0
  0
LINE
  5
308C
  8
AM_0
 10
407.44361585803671
 20
330.25020508826418
 30
0.0
 11
422.44361585803688
 21
330.25020508826418
 31
0.0
  0
LINE
  5
308D
  8
AM_0
 10
424.44356585803678
 20
443.80181008826418
 30
0.0
 11
445.44356585803678
 21
443.80181008826418
 31
0.0
  0
LINE
  5
308E
  8
AM_0
 10
424.44356585803678
 20
460.0322200882643
 30
0.0
 11
445.44356585803678
 21
460.0322200882643
 31
0.0
  0
LINE
  5
308F
  8
AM_0
 10
407.44361585803671
 20
443.80181008826418
 30
0.0
 11
422.44361585803688
 21
443.80181008826418
 31
0.0
  0
LINE
  5
3090
  8
AM_0
 10
407.44361585803671
 20
460.0322200882643
 30
0.0
 11
422.44361585803688
 21
460.0322200882643
 31
0.0
  0
LINE
  5
3091
  8
AM_0
 10
473.6495158580372
 20
563.02601008826412
 30
0.0
 11
493.2375658580371
 21
563.02601008826412
 31
0.0
  0
LINE
  5
3092
  8
AM_0
 10
483.44356585803678
 20
565.02606008826444
 30
0.0
 11
492.92166585803687
 21
563.14711008826418
 31
0.0
  0
CIRCLE
  5
3093
  8
AM_0
 10
483.44356585803678
 20
580.02601008826446
 30
0.0
 40
15.0
  0
ARC
  5
3094
  8
AM_0
 10
483.44356585803678
 20
580.02601008826446
 30
0.0
 40
25.000000499999999
 50
306.46672000000012
 51
233.5332900000015
  0
LINE
  5
3095
  8
AM_0
 10
473.37366585803682
 20
553.04576008826439
 30
0.0
 11
501.4435158580369
 21
554.02601008826389
 31
0.0
  0
LINE
  5
3096
  8
AM_0
 10
470.44356585803678
 20
554.02601008826389
 30
0.0
 11
501.44356585803661
 21
554.02601008826389
 31
0.0
  0
LINE
  5
3097
  8
AM_0
 10
468.44356585803661
 20
552.02606008826433
 30
0.0
 11
468.44356585803661
 21
527.92666008826416
 31
0.0
  0
LINE
  5
3098
  8
AM_0
 10
424.44356585803678
 20
470.22118508826441
 30
0.0
 11
445.44356585803678
 21
470.22118508826441
 31
0.0
  0
LINE
  5
3099
  8
AM_0
 10
422.44351585803679
 20
484.52599508826438
 30
0.0
 11
440.6180158580371
 21
485.1606650882643
 31
0.0
  0
LINE
  5
309A
  8
AM_0
 10
407.44361585803671
 20
470.22118508826441
 30
0.0
 11
422.44361585803688
 21
470.22118508826441
 31
0.0
  0
ARC
  5
309B
  8
AM_0
 10
410.44356585803661
 20
483.5260250882643
 30
0.0
 40
3.0000000500000001
 50
90.00000299999769
 51
180.00001000000091
  0
ARC
  5
309C
  8
AM_0
 10
402.44361585803682
 20
480.09710008826409
 30
0.0
 40
5.0
 50
315.0
 51
0.0
  0
LINE
  5
309D
  8
AM_0
 10
420.44356585803678
 20
486.52596008826441
 30
0.0
 11
422.44356585803661
 21
484.52596008826413
 31
0.0
  0
LINE
  5
309E
  8
AM_0
 10
410.44356585803661
 20
486.52599508826432
 30
0.0
 11
420.44356585803678
 21
486.52599508826432
 31
0.0
  0
ARC
  5
309F
  8
AM_0
 10
440.44356585803661
 20
490.15764508826408
 30
0.0
 40
5.0
 50
271.99999999999687
 51
0.0
  0
LINE
  5
30A0
  8
AM_0
 10
446.84196585803659
 20
503.4781400882643
 30
0.0
 11
467.04511585803698
 21
524.45839508826441
 31
0.0
  0
ARC
  5
30A1
  8
AM_0
 10
450.44356585803672
 20
500.01000008826418
 30
0.0
 40
5.0
 50
136.08091999999979
 51
180.00001000000091
  0
ARC
  5
30A2
  8
AM_0
 10
463.44356585803661
 20
527.92666008826416
 30
0.0
 40
5.0
 50
316.08091999999982
 51
0.0
  0
LINE
  5
30A3
  8
AM_0
 10
467.04511585803698
 20
524.45839508826441
 30
0.0
 11
470.04516585803663
 21
527.57376008826441
 31
0.0
  0
ARC
  5
30A4
  8
AM_0
 10
466.44356585803678
 20
531.04206008826418
 30
0.0
 40
5.0
 50
316.08091999999982
 51
0.0
  0
ARC
  5
30A5
  8
AM_0
 10
473.44356585803661
 20
551.04706008826417
 30
0.0
 40
2.0000000500000001
 50
91.999998000000545
 51
180.00001000000091
  0
LINE
  5
30A6
  8
AM_0
 10
473.96551585803712
 20
563.14691008826424
 30
0.0
 11
483.44356585803678
 21
565.02586008826438
 31
0.0
  0
ARC
  5
30A7
  8
AM_0
 10
470.44356585803678
 20
552.02606008826433
 30
0.0
 40
2.0000000500000001
 50
90.00000299999769
 51
180.00001000000091
  0
ARC
  5
30A8
  8
AM_0
 10
474.16001585803713
 20
562.16611008826442
 30
0.0
 40
1.0
 50
101.213289999998
 51
164.99999000000179
  0
ARC
  5
30A9
  8
AM_0
 10
465.01851585803672
 20
555.09576008826434
 30
0.0
 40
6.0
 50
349.72994999999878
 51
53.533291000002919
  0
LINE
  5
30AA
  8
AM_0
 10
470.94356585803678
 20
554.02601008826389
 30
0.0
 11
473.19406585803682
 21
562.42491008826414
 31
0.0
  0
LINE
  5
30AB
  8
AM_0
 10
581.38196585803666
 20
525.11242008826434
 30
0.0
 11
581.38196585803666
 21
522.89956008826448
 31
0.0
  0
ARC
  5
30AC
  8
AM_0
 10
586.38196585803666
 20
522.89956008826448
 30
0.0
 40
5.0
 50
179.9999899999988
 51
270.0
  0
ARC
  5
30AD
  8
AM_0
 10
586.38196585803666
 20
525.11242008826434
 30
0.0
 40
5.0
 50
121.182359999998
 51
180.00001000000091
  0
ARC
  5
30AE
  8
AM_0
 10
492.72721585803703
 20
562.16611008826442
 30
0.0
 40
1.0
 50
15.000000000000741
 51
78.786710000001847
  0
ARC
  5
30AF
  8
AM_0
 10
501.8685658580369
 20
555.09576008826434
 30
0.0
 40
6.0
 50
126.46669999999671
 51
190.27005999999909
  0
LINE
  5
30B0
  8
AM_0
 10
495.94356585803678
 20
554.02601008826389
 30
0.0
 11
493.69306585803662
 21
562.42491008826414
 31
0.0
  0
LINE
  5
30B1
  8
AM_0
 10
624.44356585803678
 20
591.4293100882644
 30
0.0
 11
624.44356585803678
 21
397.7626550882643
 31
0.0
  0
LINE
  5
30B2
  8
AM_0
 10
646.44356585803666
 20
597.02606008826444
 30
0.0
 11
646.44356585803666
 21
267.02602008826432
 31
0.0
  0
LINE
  5
30B3
  8
AM_0
 10
651.44356585803666
 20
572.02606008826444
 30
0.0
 11
651.44356585803666
 21
292.02602008826432
 31
0.0
  0
LINE
  5
30B4
  8
AM_0
 10
633.44356585803678
 20
556.37516008826412
 30
0.0
 11
633.44356585803678
 21
307.67690008826418
 31
0.0
  0
LINE
  5
30B5
  8
AM_0
 10
623.7701658580371
 20
389.5379250882641
 30
0.0
 11
611.86641585803704
 21
517.8995900882644
 31
0.0
  0
CIRCLE
  5
30B6
  8
AM_0
 10
1039.30533883002
 20
432.02602008826437
 30
0.0
 40
132.0
  0
ARC
  5
30B7
  8
AM_0
 10
1039.30533883002
 20
432.02602008826437
 30
0.0
 40
60.0
 50
90.00000299999769
 51
270.0
  0
ARC
  5
30B8
  8
AM_0
 10
1039.30533883002
 20
432.02602008826437
 30
0.0
 40
60.0
 50
270.0
 51
90.00000299999769
  0
CIRCLE
  5
30B9
  8
AM_0
 10
1039.30533883002
 20
432.02602008826437
 30
0.0
 40
140.0
  0
LINE
  5
30BA
  8
ﾁｭｳｼﾝｾﾝ
 10
1039.30533883002
 20
225.00084008826431
 30
0.0
 11
1039.30533883002
 21
611.47871008826428
 31
0.0
  0
LINE
  5
30BB
  8
AM_0
 10
874.30531883002186
 20
377.02602008826432
 30
0.0
 11
874.30531883002186
 21
487.0260250882643
 31
0.0
  0
LINE
  5
30BC
  8
AM_0
 10
1204.305313830022
 20
377.02602008826432
 30
0.0
 11
1204.305313830022
 21
487.0260250882643
 31
0.0
  0
LINE
  5
30BD
  8
AM_0
 10
654.44356585803678
 20
462.0260250882643
 30
0.0
 11
654.44356585803678
 21
402.02602008826437
 31
0.0
  0
LINE
  5
30BE
  8
AM_0
 10
674.44356585803678
 20
463.5260250882643
 30
0.0
 11
674.44356585803678
 21
459.52602508826442
 31
0.0
  0
LINE
  5
30BF
  8
AM_0
 10
736.44356585803678
 20
463.5260250882643
 30
0.0
 11
736.44356585803678
 21
404.5260200882642
 31
0.0
  0
ARC
  5
30C0
  8
AM_0
 10
1039.30533883002
 20
432.02602008826437
 30
0.0
 40
75.0
 50
142.9032099999981
 51
180.00001000000091
  0
LINE
  5
30C1
  8
AM_0
 10
1031.305308830021
 20
453.52602508826408
 30
0.0
 11
1031.305308830021
 21
463.5260250882643
 31
0.0
  0
LINE
  5
30C2
  8
AM_0
 10
1047.305308830021
 20
453.52602508826408
 30
0.0
 11
1047.305308830021
 21
463.5260250882643
 31
0.0
  0
ARC
  5
30C3
  8
AM_0
 10
1039.30533883002
 20
432.02602008826437
 30
0.0
 40
75.0
 50
0.0
 51
37.096792999999472
  0
LINE
  5
30C4
  8
ﾁｭｳｼﾝｾﾝ
 10
964.08363109129562
 20
387.02602008826432
 30
0.0
 11
1114.527046568747
 21
387.02602008826432
 31
0.0
  0
LINE
  5
30C5
  8
AM_0
 10
977.4582938300216
 20
236.20602508826431
 30
0.0
 11
1101.152323830021
 21
236.20602508826431
 31
0.0
  0
LINE
  5
30C6
  8
ﾁｭｳｼﾝｾﾝ
 10
863.32361883002125
 20
432.02602008826437
 30
0.0
 11
1216.731903830022
 21
432.02602008826437
 31
0.0
  0
LINE
  5
30C7
  8
AM_0
 10
1094.30533883002
 20
267.02602008826432
 30
0.0
 11
1180.844158830022
 21
271.5613300882643
 31
0.0
  0
LINE
  5
30C8
  8
AM_0
 10
874.30531883002186
 20
377.02608508826432
 30
0.0
 11
878.84066883002185
 21
290.48720008826422
 31
0.0
  0
ARC
  5
30C9
  8
AM_0
 10
898.81324383002152
 20
291.53389508826427
 30
0.0
 40
20.000000499999999
 50
183.00000999999961
 51
267.0000000000008
  0
LINE
  5
30CA
  8
AM_0
 10
624.44356585803678
 20
339.75212508826422
 30
0.0
 11
624.44356585803678
 21
272.02602008826432
 31
0.0
  0
LINE
  5
30CB
  8
AM_0
 10
629.44356585803678
 20
267.02602008826432
 30
0.0
 11
646.44356585803666
 21
267.02602008826432
 31
0.0
  0
ARC
  5
30CC
  8
AM_0
 10
629.44356585803678
 20
272.02602008826432
 30
0.0
 40
5.0
 50
179.9999899999988
 51
270.0
  0
ARC
  5
30CD
  8
AM_0
 10
625.44356585803666
 20
307.67690008826418
 30
0.0
 40
8.0
 50
270.0
 51
0.0
  0
LINE
  5
30CE
  8
AM_0
 10
646.44356585803666
 20
292.02602008826432
 30
0.0
 11
651.44356585803666
 21
292.02602008826432
 31
0.0
  0
LINE
  5
30CF
  8
AM_0
 10
654.44356585803678
 20
459.52602508826442
 30
0.0
 11
736.44356585803678
 21
459.52602508826442
 31
0.0
  0
LINE
  5
30D0
  8
AM_0
 10
654.44356585803678
 20
404.5260200882642
 30
0.0
 11
736.44356585803678
 21
404.5260200882642
 31
0.0
  0
ARC
  5
30D1
  8
AM_0
 10
631.73596585803705
 20
390.27666508826422
 30
0.0
 40
8.0
 50
185.2982400000015
 51
270.0
  0
ARC
  5
30D2
  8
AM_0
 10
625.44356585803666
 20
347.6893800882641
 30
0.0
 40
8.0
 50
270.0
 51
0.0
  0
LINE
  5
30D3
  8
AM_0
 10
651.44356585803666
 20
402.02602008826437
 30
0.0
 11
654.44356585803678
 21
402.02602008826437
 31
0.0
  0
LINE
  5
30D4
  8
AM_0
 10
984.30533883002181
 20
267.02602008826432
 30
0.0
 11
1094.305308830021
 21
267.02602008826432
 31
0.0
  0
LINE
  5
30D5
  8
AM_0
 10
970.10505383002101
 20
238.5244950882641
 30
0.0
 11
947.33017883002174
 21
254.4716200882643
 31
0.0
  0
ARC
  5
30D6
  8
AM_0
 10
977.4582938300216
 20
249.0260200882642
 30
0.0
 40
12.82
 50
235.0000000000025
 51
270.0
  0
ARC
  5
30D7
  8
AM_0
 10
1006.305308830021
 20
338.69683008826439
 30
0.0
 40
102.81999499999991
 50
222.01518000000081
 51
235.0000000000025
  0
LINE
  5
30D8
  8
AM_0
 10
984.30533883002181
 20
267.02602008826432
 30
0.0
 11
897.7664888300211
 21
271.5613300882643
 31
0.0
  0
ARC
  5
30D9
  8
ﾁｭｳｼﾝｾﾝ1
 10
1039.305338830017
 20
432.0260200882617
 30
0.0
 40
195.00000499999601
 50
218.16532000000149
 51
231.2744117796849
  0
CIRCLE
  5
30DA
  8
AM_0
 10
901.41950383002165
 20
294.14021508826431
 30
0.0
 40
9.5
  0
LINE
  5
30DB
  8
ﾁｭｳｼﾝｾﾝ1
 10
915.04092585280318
 20
307.76160626087329
 30
0.0
 11
888.99364270650392
 21
281.71431455765833
 31
0.0
  0
LINE
  5
30DC
  8
AM_0
 10
912.69965383002182
 20
417.0260200882642
 30
0.0
 11
959.30533883002181
 21
417.0260200882642
 31
0.0
  0
ARC
  5
30DD
  8
AM_0
 10
912.69965383002182
 20
422.02602008826432
 30
0.0
 40
5.0
 50
184.5161599999995
 51
270.0
  0
LINE
  5
30DE
  8
AM_0
 10
964.30533883002181
 20
432.02602008826437
 30
0.0
 11
964.30533883002181
 21
422.02602008826432
 31
0.0
  0
ARC
  5
30DF
  8
AM_0
 10
959.30533883002181
 20
422.02602008826432
 30
0.0
 40
5.0
 50
270.0
 51
0.0
  0
ARC
  5
30E0
  8
AM_0
 10
1039.30533883002
 20
432.02602008826437
 30
0.0
 40
27.500000499999999
 50
106.9123899999975
 51
73.087596999998908
  0
LINE
  5
30E1
  8
AM_0
 10
1031.305308830021
 20
453.52602508826408
 30
0.0
 11
1047.305308830021
 21
453.52602508826408
 31
0.0
  0
CIRCLE
  5
30E2
  8
AM_5
 10
1039.30533883002
 20
432.02602008826437
 30
0.0
 40
6.0
  0
CIRCLE
  5
30E3
  8
AM_0
 10
1039.30533883002
 20
432.02602008826437
 30
0.0
 40
4.500000049999997
  0
LINE
  5
30E4
  8
AM_0
 10
1204.305313830022
 20
377.02605008826418
 30
0.0
 11
1199.7700038300211
 21
290.48723008826431
 31
0.0
  0
LINE
  5
30E5
  8
AM_0
 10
1108.5055988300201
 20
238.52446508826421
 30
0.0
 11
1131.28046883002
 21
254.47159008826421
 31
0.0
  0
ARC
  5
30E6
  8
AM_0
 10
1101.152323830021
 20
249.0260200882642
 30
0.0
 40
12.82
 50
270.0
 51
304.99999999999739
  0
ARC
  5
30E7
  8
AM_0
 10
1072.3053088300201
 20
338.69683008826439
 30
0.0
 40
102.81999499999991
 50
304.99999999999739
 51
317.9848199999991
  0
ARC
  5
30E8
  8
AM_0
 10
1179.797423830021
 20
291.53389508826427
 30
0.0
 40
20.000000499999999
 50
272.99999999999909
 51
357.00000000000102
  0
CIRCLE
  5
30E9
  8
AM_0
 10
1177.191143830021
 20
294.14021508826431
 30
0.0
 40
9.5
  0
LINE
  5
30EA
  8
AM_0
 10
1165.911008830021
 20
417.0260200882642
 30
0.0
 11
1119.305308830021
 21
417.0260200882642
 31
0.0
  0
LINE
  5
30EB
  8
AM_0
 10
1114.3053088300201
 20
432.02602008826437
 30
0.0
 11
1114.3053088300201
 21
422.02602008826432
 31
0.0
  0
ARC
  5
30EC
  8
AM_0
 10
1119.305308830021
 20
422.02602008826432
 30
0.0
 40
5.0
 50
179.9999899999988
 51
270.0
  0
ARC
  5
30ED
  8
AM_0
 10
1165.911008830021
 20
422.02602008826432
 30
0.0
 40
5.0
 50
270.0
 51
355.48384999999831
  0
LINE
  5
30EE
  8
AM_0
 10
1094.30533883002
 20
597.02606008826444
 30
0.0
 11
1180.84411383002
 21
592.49071008826434
 31
0.0
  0
LINE
  5
30EF
  8
AM_0
 10
1091.093943830022
 20
492.29989008826408
 30
0.0
 11
1124.5277838300201
 21
525.73372508826435
 31
0.0
  0
LINE
  5
30F0
  8
AM_0
 10
874.30531883002186
 20
487.02605508826412
 30
0.0
 11
878.84061883002119
 21
573.56486008826425
 31
0.0
  0
ARC
  5
30F1
  8
AM_0
 10
898.81324383002152
 20
572.51811008826417
 30
0.0
 40
20.000000499999999
 50
92.999999000001679
 51
176.99999000000011
  0
LINE
  5
30F2
  8
AM_0
 10
674.44356585803678
 20
463.5260250882643
 30
0.0
 11
736.44356585803678
 21
463.5260250882643
 31
0.0
  0
LINE
  5
30F3
  8
AM_0
 10
651.44356585803666
 20
462.0260250882643
 30
0.0
 11
654.44356585803678
 21
462.0260250882643
 31
0.0
  0
ARC
  5
30F4
  8
AM_0
 10
625.44356585803666
 20
498.36266508826418
 30
0.0
 40
8.0
 50
0.0
 51
90.00000299999769
  0
LINE
  5
30F5
  8
AM_0
 10
613.0937658580367
 20
518.86763508826425
 30
0.0
 11
624.44361585803665
 21
527.19141008826432
 31
0.0
  0
ARC
  5
30F6
  8
AM_0
 10
610.13681585803704
 20
522.89956008826448
 30
0.0
 40
5.0
 50
270.0
 51
306.25555000000082
  0
LINE
  5
30F7
  8
AM_0
 10
610.03431585803696
 20
559.6167600882643
 30
0.0
 11
624.44361585803665
 21
574.02601008826412
 31
0.0
  0
ARC
  5
30F8
  8
AM_0
 10
625.44356585803666
 20
556.37516008826412
 30
0.0
 40
8.0
 50
0.0
 51
90.00000299999769
  0
LINE
  5
30F9
  8
AM_0
 10
609.2414158580367
 20
546.20536008826434
 30
0.0
 11
608.17056585803664
 21
557.75296008826444
 31
0.0
  0
ARC
  5
30FA
  8
AM_0
 10
602.96321585803673
 20
566.68781008826443
 30
0.0
 40
10.0
 50
271.50000000000261
 51
315.0
  0
ARC
  5
30FB
  8
AM_0
 10
619.44356585803666
 20
556.81011008826431
 30
0.0
 40
5.0
 50
301.18235999999791
 51
0.0
  0
LINE
  5
30FC
  8
AM_0
 10
629.26901585803705
 20
596.42626008826414
 30
0.0
 11
646.44351585803713
 21
597.02601008826446
 31
0.0
  0
ARC
  5
30FD
  8
AM_0
 10
629.44356585803678
 20
591.4293100882644
 30
0.0
 40
5.0
 50
91.999998000000545
 51
180.00001000000091
  0
LINE
  5
30FE
  8
AM_0
 10
646.44356585803666
 20
572.02606008826444
 30
0.0
 11
651.44356585803666
 21
572.02606008826444
 31
0.0
  0
LINE
  5
30FF
  8
AM_0
 10
987.51676383002166
 20
492.2998250882643
 30
0.0
 11
954.08289383002193
 21
525.73372508826435
 31
0.0
  0
LINE
  5
3100
  8
AM_0
 10
984.30533883002181
 20
597.02606008826444
 30
0.0
 11
1094.305308830021
 21
597.02606008826444
 31
0.0
  0
LINE
  5
3101
  8
AM_0
 10
979.03150383002151
 20
483.81456508826432
 30
0.0
 11
945.59760383002163
 21
517.24843508826405
 31
0.0
  0
ARC
  5
3102
  8
AM_0
 10
975.4958888300215
 20
480.27910508826432
 30
0.0
 40
5.0
 50
322.9032099999983
 51
45.00000100000149
  0
ARC
  5
3103
  8
AM_0
 10
942.06205383002157
 20
513.71294508826429
 30
0.0
 40
5.0
 50
45.00000100000149
 51
139.96884999999969
  0
ARC
  5
3104
  8
AM_0
 10
957.61841883002171
 20
529.26926008826445
 30
0.0
 40
5.0
 50
130.03114999999761
 51
225.0
  0
LINE
  5
3105
  8
AM_0
 10
984.30530883002154
 20
597.02606008826444
 30
0.0
 11
897.7664888300211
 21
592.49071008826434
 31
0.0
  0
CIRCLE
  5
3106
  8
AM_0
 10
901.41950383002165
 20
569.91186008826423
 30
0.0
 40
9.5
  0
LINE
  5
3107
  8
AM_0
 10
1031.305308830021
 20
463.5260250882643
 30
0.0
 11
1047.305308830021
 21
463.5260250882643
 31
0.0
  0
ARC
  5
3108
  8
AM_0
 10
1039.30533883002
 20
432.02602008826437
 30
0.0
 40
75.0
 50
52.903206000003003
 51
127.0967900000017
  0
ARC
  5
3109
  8
AM_0
 10
991.05222883002136
 20
495.83544008826431
 30
0.0
 40
5.0
 50
225.0
 51
307.0967900000017
  0
ARC
  5
310A
  8
AM_0
 10
1087.558393830021
 20
495.83544008826431
 30
0.0
 40
5.0
 50
232.90320999999821
 51
315.0
  0
ARC
  5
310B
  8
AM_0
 10
1039.30533883002
 20
600.02601008826434
 30
0.0
 40
5.0
 50
359.999989999999
 51
179.9999899999988
  0
LINE
  5
310C
  8
AM_0
 10
1034.30533883002
 20
600.02601008826434
 30
0.0
 11
1034.30533883002
 21
597.02606008826444
 31
0.0
  0
LINE
  5
310D
  8
AM_0
 10
1044.30533883002
 20
600.02601008826434
 30
0.0
 11
1044.30533883002
 21
597.02606008826444
 31
0.0
  0
LINE
  5
310E
  8
AM_0
 10
1204.30532883002
 20
487.02605508826412
 30
0.0
 11
1199.77001883002
 21
573.56486008826425
 31
0.0
  0
LINE
  5
310F
  8
AM_0
 10
1099.579203830021
 20
483.81463008826438
 30
0.0
 11
1133.01304383002
 21
517.24846508826442
 31
0.0
  0
ARC
  5
3110
  8
AM_0
 10
1103.114728830021
 20
480.27910508826432
 30
0.0
 40
5.0
 50
135.0
 51
217.09680000000159
  0
ARC
  5
3111
  8
AM_0
 10
1120.9922288300211
 20
529.26926008826445
 30
0.0
 40
5.0
 50
315.0
 51
49.96885100000106
  0
ARC
  5
3112
  8
AM_0
 10
1136.54856883002
 20
513.71294508826429
 30
0.0
 40
5.0
 50
40.031148000000073
 51
135.0
  0
CIRCLE
  5
3113
  8
AM_0
 10
1177.191143830021
 20
569.91186008826423
 30
0.0
 40
9.5
  0
LINE
  5
3114
  8
ﾁｭｳｼﾝｾﾝ1
 10
1165.8133683406911
 20
558.53399792476125
 30
0.0
 11
1188.776251479364
 21
581.49690049845321
 31
0.0
  0
ARC
  5
3115
  8
ﾁｭｳｼﾝｾﾝ1
 10
1039.30533883002
 20
432.02602008826437
 30
0.0
 40
195.0000049999999
 50
39.367218999999267
 51
50.896189000000447
  0
ARC
  5
3116
  8
AM_0
 10
1179.797423830021
 20
572.51811008826417
 30
0.0
 40
20.000000499999999
 50
3.0000000999988461
 51
86.99999899999699
  0
LINE
  5
3117
  8
AM_0
 10
288.4436258580368
 20
975.91622642127436
 30
0.0
 11
288.4436258580368
 21
777.91622642127425
 31
0.0
  0
LINE
  5
3118
  8
AM_0
 10
278.4436258580368
 20
776.91622642127425
 30
0.0
 11
278.4436258580368
 21
976.91622642127425
 31
0.0
  0
LINE
  5
3119
  8
AM_0
 10
332.4436258580368
 20
803.41622642127425
 30
0.0
 11
291.18215885803681
 21
799.80631542127423
 31
0.0
  0
LINE
  5
311A
  8
AM_0
 10
278.4436258580368
 20
776.91622642127425
 30
0.0
 11
287.44362585803668
 21
776.91622642127425
 31
0.0
  0
ARC
  5
311B
  8
AM_0
 10
287.44362585803668
 20
777.91622642127425
 30
0.0
 40
1.0
 50
270.0
 51
0.0
  0
ARC
  5
311C
  8
AM_0
 10
291.4436258580368
 20
796.8177314212744
 30
0.0
 40
3.0
 50
94.999999999999716
 51
180.0
  0
LINE
  5
311D
  8
AM_0
 10
291.4436258580368
 20
813.40700142127423
 30
0.0
 11
328.4436258580368
 21
813.40700142127423
 31
0.0
  0
LINE
  5
311E
  8
AM_0
 10
291.4436258580368
 20
837.44155042127454
 30
0.0
 11
330.4436258580368
 21
837.44155042127454
 31
0.0
  0
ARC
  5
311F
  8
AM_0
 10
291.4436258580368
 20
810.40700142127434
 30
0.0
 40
3.0
 50
90.0
 51
180.0
  0
ARC
  5
3120
  8
AM_0
 10
291.4436258580368
 20
834.44155042127443
 30
0.0
 40
3.0
 50
90.0
 51
180.0
  0
ARC
  5
3121
  8
AM_0
 10
328.4436258580368
 20
815.40700142127446
 30
0.0
 40
2.0
 50
270.0
 51
0.0
  0
LINE
  5
3122
  8
AM_0
 10
291.4436258580368
 20
940.42545142127426
 30
0.0
 11
328.4436258580368
 21
940.42545142127426
 31
0.0
  0
LINE
  5
3123
  8
AM_0
 10
332.4436258580368
 20
950.41622642127425
 30
0.0
 11
291.18215885803681
 21
954.02613642127437
 31
0.0
  0
LINE
  5
3124
  8
AM_0
 10
291.4436258580368
 20
916.39090142127452
 30
0.0
 11
330.4436258580368
 21
916.39090142127452
 31
0.0
  0
ARC
  5
3125
  8
AM_0
 10
291.4436258580368
 20
919.39090142127463
 30
0.0
 40
3.0
 50
180.0
 51
270.0
  0
ARC
  5
3126
  8
AM_0
 10
291.4436258580368
 20
943.42545142127437
 30
0.0
 40
3.0
 50
180.0
 51
270.0
  0
ARC
  5
3127
  8
AM_0
 10
291.4436258580368
 20
957.01472142127432
 30
0.0
 40
3.0
 50
180.0
 51
265.00000000000028
  0
ARC
  5
3128
  8
AM_0
 10
328.4436258580368
 20
938.42545142127415
 30
0.0
 40
2.0
 50
0.0
 51
90.0
  0
LINE
  5
3129
  8
AM_0
 10
278.4436258580368
 20
976.91622642127425
 30
0.0
 11
287.44362585803668
 21
976.91622642127425
 31
0.0
  0
ARC
  5
312A
  8
AM_0
 10
287.44362585803668
 20
975.91622642127436
 30
0.0
 40
1.0
 50
0.0
 51
90.0
  0
LINE
  5
312B
  8
AM_0
 10
332.4436258580368
 20
803.41621142127394
 30
0.0
 11
340.9425258580369
 21
803.41621142127394
 31
0.0
  0
LINE
  5
312C
  8
AM_0
 10
330.4436258580368
 20
815.40700142127446
 30
0.0
 11
330.4436258580368
 21
835.44155042127431
 31
0.0
  0
ARC
  5
312D
  8
AM_0
 10
332.4436258580368
 20
835.44155042127431
 30
0.0
 40
2.0
 50
120.0000000000005
 51
180.0
  0
LINE
  5
312E
  8
AM_0
 10
330.4436258580368
 20
938.42545142127415
 30
0.0
 11
330.4436258580368
 21
918.39090142127441
 31
0.0
  0
ARC
  5
312F
  8
AM_0
 10
332.4436258580368
 20
918.39090142127441
 30
0.0
 40
2.0
 50
180.0
 51
239.99999999999949
  0
ARC
  5
3130
  8
ﾁｭｳｼﾝｾﾝ1
 10
1039.30533883002
 20
432.02602008826437
 30
0.0
 40
195.0000049999999
 50
129.1038109999995
 51
140.6327810000007
  0
LINE
  5
3131
  8
ﾁｭｳｼﾝｾﾝ1
 10
912.79730931935239
 20
558.53399792476125
 30
0.0
 11
889.8344261806792
 21
581.49690049845321
 31
0.0
  0
ARC
  5
3132
  8
ﾁｭｳｼﾝｾﾝ1
 10
1039.305338830025
 20
432.0260200882617
 30
0.0
 40
195.00000499999601
 50
308.72558822031522
 51
321.83467999999829
  0
LINE
  5
3133
  8
ﾁｭｳｼﾝｾﾝ1
 10
1163.56975180724
 20
307.76160626087329
 30
0.0
 11
1189.617034953538
 21
281.71431455765833
 31
0.0
  0
TEXT
  5
324F
  8
AM_0
 10
899.8844295569952
 20
908.88056405407485
 30
0.0
 40
20.0
  1
VX08-240AF~VX08-500AF
  0
VIEWPORT
  5
3136
 67
     1
  8
AM_VIEWS
 10
142.68450927734361
 20
99.123496055603013
 30
0.0
 40
400.07747593818459
 41
222.17417208862301
 68
     1
 69
     1
1001
ACAD
1000
MVIEW
1002
{
1070
    16
1010
0.0
1020
0.0
1030
0.0
1010
0.0
1020
0.0
1030
1.0
1040
0.0
1040
222.17417208862301
1040
142.68450927734361
1040
99.123496055603013
1040
50.0
1040
0.0
1040
0.0
1070
     0
1070
   100
1070
     1
1070
     1
1070
     0
1070
     0
1070
     0
1070
     0
1040
0.0
1040
0.0
1040
0.0
1040
10.0
1040
10.0
1040
10.0
1040
10.0
1070
     0
1002
{
1002
}
1002
}
1001
GENIUS_GENOBJ-N-SDF_13
1002
{
1000
OWNER
1000
GEN
1002
}
1001
GENIUS_GENODEF_13
1002
{
1000
HIER
1070
     0
1002
}
1002
{
1000
MANEDIT
1070
     0
1002
}
1002
{
1000
NOSEL
1070
     0
1002
}
1002
{
1000
BEHIND
1070
     0
1002
}
1002
{
1000
OTHER
1070
     0
1002
}
1002
{
1000
REACTOR
1002
}
1001
GENIUS_GENSCREG_15
1000
PF
1040
1.0
1000
DF
1040
1.0
1000
MIN
1011
-57.354228691748737
1021
0.0
1031
0.0
1021
-11.96358998870849
1031
0.0
1000
MAX
1011
342.7232472464359
1021
0.0
1031
0.0
1021
210.21058209991449
1031
0.0
1000
FLAGS
1070
     4
  0
ENDSEC
  0
EOF
