  0
SECTION
  2
HEADER
  9
$ACADVER
  1
AC1009
  9
$INSBASE
 10
0.0
 20
0.0
 30
0.0
  9
$EXTMIN
 10
170.77553776951461
 20
114.2341760411702
 30
-0.0000000000112498
  9
$EXTMAX
 10
899.62880147938722
 20
692.80705811966982
 30
0.0000000000002956
  9
$LIMMIN
 10
0.0
 20
0.0
  9
$LIMMAX
 10
853.5
 20
555.00000000000011
  9
$ORTHOMODE
 70
     0
  9
$REGENMODE
 70
     1
  9
$FILLMODE
 70
     1
  9
$QTEXTMODE
 70
     0
  9
$MIRRTEXT
 70
     1
  9
$DRAGMODE
 70
     2
  9
$LTSCALE
 40
3.0
  9
$OSMODE
 70
   551
  9
$ATTMODE
 70
     1
  9
$TEXTSIZE
 40
2.5
  9
$TRACEWID
 40
1.0
  9
$TEXTSTYLE
  7
STANDARD
  9
$CLAYER
  8
AM_0
  9
$CELTYPE
  6
BYLAYER
  9
$CECOLOR
 62
   256
  9
$DIMSCALE
 40
1.0
  9
$DIMASZ
 40
2.5
  9
$DIMEXO
 40
1.0
  9
$DIMDLI
 40
8.0
  9
$DIMRND
 40
0.0
  9
$DIMDLE
 40
0.0
  9
$DIMEXE
 40
0.6
  9
$DIMTP
 40
0.1
  9
$DIMTM
 40
0.1
  9
$DIMTXT
 40
2.5
  9
$DIMCEN
 40
0.0
  9
$DIMTSZ
 40
0.0
  9
$DIMTOL
 70
     0
  9
$DIMLIM
 70
     0
  9
$DIMTIH
 70
     0
  9
$DIMTOH
 70
     0
  9
$DIMSE1
 70
     0
  9
$DIMSE2
 70
     0
  9
$DIMTAD
 70
     1
  9
$DIMZIN
 70
     8
  9
$DIMBLK
  1

  9
$DIMASO
 70
     1
  9
$DIMSHO
 70
     1
  9
$DIMPOST
  1

  9
$DIMAPOST
  1
"
  9
$DIMALT
 70
     0
  9
$DIMALTD
 70
     2
  9
$DIMALTF
 40
0.0393701
  9
$DIMLFAC
 40
1.0
  9
$DIMTOFL
 70
     1
  9
$DIMTVP
 40
0.0
  9
$DIMTIX
 70
     0
  9
$DIMSOXD
 70
     0
  9
$DIMSAH
 70
     0
  9
$DIMBLK1
  1

  9
$DIMBLK2
  1

  9
$DIMSTYLE
  2
AM_ISO
  9
$DIMCLRD
 70
   256
  9
$DIMCLRE
 70
   256
  9
$DIMCLRT
 70
     4
  9
$DIMTFAC
 40
0.71
  9
$DIMGAP
 40
0.8
  9
$LUNITS
 70
     2
  9
$LUPREC
 70
     2
  9
$SKETCHINC
 40
1.0
  9
$FILLETRAD
 40
15.0
  9
$AUNITS
 70
     0
  9
$AUPREC
 70
     0
  9
$MENU
  1
.
  9
$ELEVATION
 40
0.0
  9
$PELEVATION
 40
0.0
  9
$THICKNESS
 40
0.0
  9
$LIMCHECK
 70
     0
  9
$BLIPMODE
 70
     0
  9
$CHAMFERA
 40
6.0
  9
$CHAMFERB
 40
3.0
  9
$SKPOLY
 70
     0
  9
$TDCREATE
 40
2452066.5514080562
  9
$TDUPDATE
 40
2458541.5460967249
  9
$TDINDWG
 40
0.1375358681
  9
$TDUSRTIMER
 40
0.1375358449
  9
$USRTIMER
 70
     1
  9
$ANGBASE
 50
0.0
  9
$ANGDIR
 70
     0
  9
$PDMODE
 70
     0
  9
$PDSIZE
 40
0.0
  9
$PLINEWID
 40
0.0
  9
$COORDS
 70
     1
  9
$SPLFRAME
 70
     0
  9
$SPLINETYPE
 70
     6
  9
$SPLINESEGS
 70
     8
  9
$ATTDIA
 70
     1
  9
$ATTREQ
 70
     1
  9
$HANDLING
 70
     1
  9
$HANDSEED
  5
2FC4
  9
$SURFTAB1
 70
     6
  9
$SURFTAB2
 70
     6
  9
$SURFTYPE
 70
     6
  9
$SURFU
 70
     6
  9
$SURFV
 70
     6
  9
$UCSNAME
  2

  9
$UCSORG
 10
0.0
 20
0.0
 30
0.0
  9
$UCSXDIR
 10
1.0
 20
0.0
 30
0.0
  9
$UCSYDIR
 10
0.0
 20
1.0
 30
0.0
  9
$PUCSNAME
  2

  9
$PUCSORG
 10
0.0
 20
0.0
 30
0.0
  9
$PUCSXDIR
 10
1.0
 20
0.0
 30
0.0
  9
$PUCSYDIR
 10
0.0
 20
1.0
 30
0.0
  9
$USERI1
 70
     0
  9
$USERI2
 70
     0
  9
$USERI3
 70
     0
  9
$USERI4
 70
     0
  9
$USERI5
 70
     0
  9
$USERR1
 40
0.0
  9
$USERR2
 40
0.0
  9
$USERR3
 40
0.0
  9
$USERR4
 40
0.0
  9
$USERR5
 40
0.0
  9
$WORLDVIEW
 70
     1
  9
$SHADEDGE
 70
     3
  9
$SHADEDIF
 70
    70
  9
$TILEMODE
 70
     1
  9
$MAXACTVP
 70
    64
  9
$PLIMCHECK
 70
     0
  9
$PEXTMIN
 10
1.0000000000000000E+020
 20
1.0000000000000000E+020
 30
1.0000000000000000E+020
  9
$PEXTMAX
 10
-1.0000000000000000E+020
 20
-1.0000000000000000E+020
 30
-1.0000000000000000E+020
  9
$PLIMMIN
 10
0.0
 20
0.0
  9
$PLIMMAX
 10
420.0
 20
297.0
  9
$UNITMODE
 70
     0
  9
$VISRETAIN
 70
     1
  9
$PLINEGEN
 70
     0
  9
$PSLTSCALE
 70
     1
  0
ENDSEC
  0
SECTION
  2
TABLES
  0
TABLE
  2
VPORT
 70
     1
  0
VPORT
  2
*ACTIVE
 70
     0
 10
0.0
 20
0.0
 11
1.0
 21
1.0
 12
535.20216962445079
 22
403.52061708041998
 13
0.0
 23
0.0
 14
7.5
 24
7.5
 15
30.0
 25
30.0
 16
0.0
 26
0.0
 36
1.0
 17
0.0
 27
0.0
 37
0.0
 40
582.54477829414145
 41
1.7571592210767459
 42
50.0
 43
0.0
 44
0.0
 50
0.0
 51
0.0
 71
     0
 72
   100
 73
     1
 74
     3
 75
     0
 76
     0
 77
     0
 78
     0
  0
ENDTAB
  0
TABLE
  2
LTYPE
 70
    26
  0
LTYPE
  2
CONTINUOUS
 70
     0
  3
Solid line
 72
    65
 73
     0
 40
0.0
  0
LTYPE
  2
AM_ISO02W050
 70
     0
  3
__ __ __ __ __ __ __ __ __ __ __ __ __ __ __
 72
    65
 73
     2
 40
7.5
 49
6.0
 49
-1.5
  0
LTYPE
  2
AM_ISO08W050
 70
     0
  3
____ . ____ . ____ . ____ . ____ . ____ . ____
 72
    65
 73
     4
 40
18.0
 49
12.0
 49
-1.5
 49
3.0
 49
-1.5
  0
LTYPE
  2
AM_ISO09W050
 70
     0
  3
_____ . . _____ . . _____ . . ____ .. ____
 72
    65
 73
     6
 40
22.5
 49
12.0
 49
-1.5
 49
3.0
 49
-1.5
 49
3.0
 49
-1.5
  0
LTYPE
  2
AMCONSTR
 70
     0
  3
_______________________
 72
    65
 73
     2
 40
9999.0
 49
9999.0
 49
0.0
  0
LTYPE
  2
AM_ISO08W050X2
 70
     0
  3
__ . __ . __ . __ . __ . __
 72
    65
 73
     4
 40
9.0
 49
6.0
 49
-0.75
 49
1.5
 49
-0.75
  0
LTYPE
  2
AM_ISO02W050X2
 70
     0
  3
 _ _ _ _ _ _ _ _ _ _ _ _
 72
    65
 73
     2
 40
3.75
 49
3.0
 49
-0.75
  0
LTYPE
  2
AMZIGZAG
 70
     0
  3
/\/-/\/-/\/-/\/-/\/-/\/
 72
    65
 73
     2
 40
11.000099999999991
 49
0.0001
 49
-11.0
  0
LTYPE
  2
ACISOWELD
 70
     0
  3
_ _ _ _ _
 72
    65
 73
     2
 40
2.0
 49
2.0
 49
-1.0
  0
LTYPE
  2
ACISOTGB
 70
     0
  3
__ . . __ . .
 72
    65
 73
     6
 40
9.0
 49
4.0
 49
-1.0
 49
1.0
 49
-1.0
 49
1.0
 49
-1.0
  0
LTYPE
  2
ACISOTGL
 70
     0
  3
_ _ _ _ _
 72
    65
 73
     2
 40
3.0
 49
2.0
 49
-1.0
  0
LTYPE
  2
CENTER
 70
     0
  3
__ . __
 72
    65
 73
     4
 40
7.0
 49
4.0
 49
-1.0
 49
1.0
 49
-1.0
  0
LTYPE
  2
PHANTOM2
 70
     0
  3
Phantom (.5x) ___ _ _ ___ _ _ ___ _ _ ___ _ _
 72
    65
 73
     6
 40
31.75
 49
15.875
 49
-3.174999999999998
 49
3.174999999999998
 49
-3.174999999999998
 49
3.174999999999998
 49
-3.174999999999998
  0
LTYPE
  2
ACANSTGBM
 70
     0
  3
__ . . __ . .
 72
    65
 73
     6
 40
9.0
 49
4.0
 49
-1.0
 49
1.0
 49
-1.0
 49
1.0
 49
-1.0
  0
LTYPE
  2
ACANSTGLM
 70
     0
  3
_ _ _ _ _
 72
    65
 73
     2
 40
3.0
 49
2.0
 49
-1.0
  0
LTYPE
  2
GEN7
 70
     0
  3
____ . ____ . ____ . ____ . ____ . ____ . ____
 72
    65
 73
     4
 40
14.25
 49
9.75
 49
-1.5
 49
1.5
 49
-1.5
  0
LTYPE
  2
GEN7A
 70
     0
  3
__ . __ . __
 72
    65
 73
     4
 40
7.375
 49
4.75
 49
-0.875
 49
0.875
 49
-0.875
  0
LTYPE
  2
ACJISTGB
 70
     0
  3
__ . . __ . .
 72
    65
 73
     6
 40
9.0
 49
4.0
 49
-1.0
 49
1.0
 49
-1.0
 49
1.0
 49
-1.0
  0
LTYPE
  2
ACJISTGL
 70
     0
  3
_ _ _ _ _
 72
    65
 73
     2
 40
3.0
 49
2.0
 49
-1.0
  0
LTYPE
  2
HIDDEN
 70
     0
  3
Hidden __ __ __ __ __ __ __ __ __ __ __ __ __ _
 72
    65
 73
     2
 40
0.375
 49
0.25
 49
-0.125
  0
LTYPE
  2
CENTER2
 70
     0
  3
Center (.5x) ___ _ ___ _ ___ _ ___ _ ___ _ ___
 72
    65
 73
     4
 40
1.125
 49
0.75
 49
-0.125
 49
0.125
 49
-0.125
  0
LTYPE
  2
HIDDEN2
 70
     0
  3
Hidden (.5x) _ _ _ _ _ _ _ _ _ _ _ _ _ _ _ _ _
 72
    65
 73
     2
 40
0.1875
 49
0.125
 49
-0.0625
  0
LTYPE
  2
AMZIGZAG2
 70
     0
  3
/\/-/\/-/\/-/\/-/\/-/\/
 72
    65
 73
     2
 40
0.4401
 49
0.0001
 49
-0.4400000000000002
  0
LTYPE
  2
ACANSTGB
 70
     0
  3
__ . . __ . .
 72
    65
 73
     6
 40
0.35433070866
 49
0.15748031496
 49
-0.03937007874
 49
0.03937007874
 49
-0.03937007874
 49
0.03937007874
 49
-0.03937007874
  0
LTYPE
  2
ACANSTGL
 70
     0
  3
_ _ _ _ _
 72
    65
 73
     2
 40
0.11811023622
 49
0.07874015748
 49
-0.03937007874
  0
ENDTAB
  0
TABLE
  2
LAYER
 70
     6
  0
LAYER
  2
0
 70
     0
 62
     7
  6
CONTINUOUS
  0
LAYER
  2
AM_0
 70
     0
 62
     7
  6
CONTINUOUS
  0
LAYER
  2
AM_5
 70
     0
 62
     2
  6
CONTINUOUS
  0
LAYER
  2
DEFPOINTS
 70
     0
 62
     7
  6
CONTINUOUS
  0
LAYER
  2
ﾁｭｳｼﾝｾﾝ
 70
     0
 62
     1
  6
GEN7
  0
LAYER
  2
ﾁｭｳｼﾝｾﾝ1
 70
     0
 62
     1
  6
GEN7A
  0
ENDTAB
  0
TABLE
  2
STYLE
 70
     9
  0
STYLE
  2
STANDARD
 70
     0
 40
0.0
 41
0.8299999999999999
 50
0.0
 71
     0
 42
2.5
  3
txt.shx
  4
bigfont.shx
  0
STYLE
  2
ANNOTATIVE
 70
     0
 40
0.0
 41
1.0
 50
0.0
 71
     0
 42
0.2
  3
txt
  4

  0
STYLE
  2

 70
     1
 40
0.0
 41
1.0
 50
0.0
 71
     0
 42
2.5
  3
ltypeshp.shx
  4

  0
STYLE
  2
ACISOTS
 70
     0
 40
1.0
 41
1.0
 50
0.0
 71
     0
 42
2.5
  3
isocp.shx
  4
extfont.shx
  0
STYLE
  2
ACISOGDT
 70
     0
 40
0.0
 41
1.0
 50
0.0
 71
     0
 42
2.5
  3
amgdt.shx
  4

  0
STYLE
  2
ACANSTS
 70
     0
 40
1.0
 41
1.0
 50
0.0
 71
     0
 42
2.5
  3
romans.shx
  4
bigfont.shx
  0
STYLE
  2
ACANSGDT
 70
     0
 40
0.0
 41
1.0
 50
0.0
 71
     0
 42
2.5
  3
amgdt.shx
  4

  0
STYLE
  2
ACJISTS
 70
     0
 40
1.0
 41
1.0
 50
0.0
 71
     0
 42
2.5
  3
isocp.shx
  4
bigfont.shx
  0
STYLE
  2
ACJISGDT
 70
     0
 40
0.0
 41
1.0
 50
0.0
 71
     0
 42
2.5
  3
amgdt.shx
  4

  0
ENDTAB
  0
TABLE
  2
VIEW
 70
     6
  0
VIEW
  2
AM_VIEW1
 70
     0
 40
277.49999999999989
 10
249.64779005524849
 20
416.24999999999989
 41
499.2955801104971
 11
0.0
 21
0.0
 31
1.0
 12
0.0
 22
0.0
 32
0.0
 42
50.0
 43
0.0
 44
0.0
 50
0.0
 71
     0
  0
VIEW
  2
AM_VIEW2
 70
     0
 40
277.49999999999989
 10
603.85220994475117
 20
416.24999999999989
 41
499.2955801104971
 11
0.0
 21
0.0
 31
1.0
 12
0.0
 22
0.0
 32
0.0
 42
50.0
 43
0.0
 44
0.0
 50
0.0
 71
     0
  0
VIEW
  2
AM_VIEW3
 70
     0
 40
277.49999999999989
 10
249.64779005524849
 20
138.7499999999998
 41
499.2955801104971
 11
0.0
 21
0.0
 31
1.0
 12
0.0
 22
0.0
 32
0.0
 42
50.0
 43
0.0
 44
0.0
 50
0.0
 71
     0
  0
VIEW
  2
AM_VIEW4
 70
     0
 40
277.49999999999989
 10
603.85220994475117
 20
138.7499999999998
 41
499.2955801104971
 11
0.0
 21
0.0
 31
1.0
 12
0.0
 22
0.0
 32
0.0
 42
50.0
 43
0.0
 44
0.0
 50
0.0
 71
     0
  0
VIEW
  2
AM_VIEW5
 70
     0
 40
277.5
 10
426.75
 20
277.49999999999989
 41
499.2955801104971
 11
0.0
 21
0.0
 31
1.0
 12
0.0
 22
0.0
 32
0.0
 42
50.0
 43
0.0
 44
0.0
 50
0.0
 71
     0
  0
VIEW
  2
AM_VIEW6
 70
     0
 40
554.99445000000014
 10
426.75
 20
277.49999999999989
 41
998.5811743093924
 11
0.0
 21
0.0
 31
1.0
 12
0.0
 22
0.0
 32
0.0
 42
50.0
 43
0.0
 44
0.0
 50
0.0
 71
     0
  0
ENDTAB
  0
TABLE
  2
UCS
 70
     0
  0
ENDTAB
  0
TABLE
  2
APPID
 70
    95
  0
APPID
  2
ACAD
 70
     0
  0
APPID
  2
ACADANNOTATIVE
 70
     0
  0
APPID
  2
MCAD_NO_VIS
 70
     0
  0
APPID
  2
ACAD_TEMP_GRAPHIC
 70
     0
  0
APPID
  2
ACATTRIBSERVICES
 70
     0
  0
APPID
  2
GENIUS_GENREC_14
 70
     0
  0
APPID
  2
GENIUS_GENOBJ-N-REC_13
 70
     0
  0
APPID
  2
GENIUS_GENODEF_13
 70
     0
  0
APPID
  2
GENIUS_GENOLIS_13
 70
     0
  0
APPID
  2
GENIUS_GENOBJ-N-TIT_13
 70
     0
  0
APPID
  2
GENIUS_GENOENT_13
 70
     0
  0
APPID
  2
GENIUS_GENTITLE_13
 70
     0
  0
APPID
  2
GENIUS_GENOREF_13
 70
     0
  0
APPID
  2
GENIUS_GENSCREG_15
 70
     0
  0
APPID
  2
GENIUS_GENOBJ-N-SDF_13
 70
     0
  0
APPID
  2
GENIUS_GENFIL_13
 70
     0
  0
APPID
  2
GENIUS_GENOBJ-N-CHA_13
 70
     0
  0
APPID
  2
GENIUS_GENDTOL_13
 70
     0
  0
APPID
  2
GENIUS_GENOBJ-N-FIL_13
 70
     0
  0
APPID
  2
AD_DRAW
 70
     0
  0
APPID
  2
DESIGNERASSEMBLIES
 70
     0
  0
APPID
  2
ASURF_PCURVE_APPNAME
 70
     0
  0
APPID
  2
GENIUS_GE3SECT_13
 70
     0
  0
APPID
  2
GENIUS_GENCFG_13
 70
     0
  0
APPID
  2
GENIUS_GE3CFG0_13
 70
     0
  0
APPID
  2
GENIUS_GENCFG0_13
 70
     0
  0
APPID
  2
GENIUS_GENCFG1_13
 70
     0
  0
APPID
  2
GENIUS_GENCFG2_13
 70
     0
  0
APPID
  2
GENIUS_GENCFG3_13
 70
     0
  0
APPID
  2
GENIUS_GENCFG4_13
 70
     0
  0
APPID
  2
GENIUS_GEVCFG0_13
 70
     0
  0
APPID
  2
GENIUS_GENHINW_13
 70
     0
  0
APPID
  2
GENIUS_FIRSTVISTXT_14
 70
     0
  0
APPID
  2
GENIUS_GENOBJ-N-LEADER_13
 70
     0
  0
APPID
  2
GEV_VCCNULL_SWITCH_OFF
 70
     0
  0
APPID
  2
GENIUS_GEFCFG0_13
 70
     0
  0
APPID
  2
GENIUS_GENZVEED_13
 70
     0
  0
APPID
  2
GENIUS_GENSCREG_13
 70
     0
  0
APPID
  2
GENIUS_DUMCFG0_13
 70
     0
  0
APPID
  2
GEVID936201362
 70
     0
  0
APPID
  2
GEVDC
 70
     0
  0
APPID
  2
GEVCON
 70
     0
  0
APPID
  2
VCC
 70
     0
  0
APPID
  2
GEVPT
 70
     0
  0
APPID
  2
GEVIT
 70
     0
  0
APPID
  2
GENBH
 70
     0
  0
APPID
  2
GEVMK
 70
     0
  0
APPID
  2
GENIUS_GENBH_13
 70
     0
  0
APPID
  2
GENIUS_GENOBJ-NBEHI-BHF_13
 70
     0
  0
APPID
  2
GENIUS_GENOBJ-NBEHI-BHB_13
 70
     0
  0
APPID
  2
GENIUS_GENOBJ-F-DESC_13
 70
     0
  0
APPID
  2
GENIUS_GEFDESC_14
 70
     0
  0
APPID
  2
GENIUS_GENOBJ-F-PART_13
 70
     0
  0
APPID
  2
GENIUS_GEFSTDP_13
 70
     0
  0
APPID
  2
GENIUS_GEFPARTINS_13
 70
     0
  0
APPID
  2
GENIUS_GENTRA_14
 70
     0
  0
APPID
  2
GENIUS_GENINF13_13
 70
     0
  0
APPID
  2
GENIUS_GENOBJ-N-INFOPT_13
 70
     0
  0
APPID
  2
GENIUS_GENOBJ-N-RSSYM_13
 70
     0
  0
APPID
  2
GENIUS_GENSYMENT_13
 70
     0
  0
APPID
  2
GENIUS_GENSCSYM_13
 70
     0
  0
APPID
  2
GENIUS_GEFINFNAM_13
 70
     0
  0
APPID
  2
GENIUS_GENOBJ-N-CEN_13
 70
     0
  0
APPID
  2
GENIUS_GENOBJ-N-CRS_13
 70
     0
  0
APPID
  2
GENIUS_GENOBJ-N-CRC_13
 70
     0
  0
APPID
  2
GENIUS_GENCRC_14
 70
     0
  0
APPID
  2
GEVID942827039
 70
     0
  0
APPID
  2
GEVID942827040
 70
     0
  0
APPID
  2
GEVID942827041
 70
     0
  0
APPID
  2
GENIUS_GENOBJ-F-SCPASSM_13
 70
     0
  0
APPID
  2
GENIUS_GENDIMSH_14
 70
     0
  0
APPID
  2
GEVID942827042
 70
     0
  0
APPID
  2
GEVID946020473
 70
     0
  0
APPID
  2
GEVID946020474
 70
     0
  0
APPID
  2
GEVID946020475
 70
     0
  0
APPID
  2
GENIUS_GENOBJ-N-HTC_13
 70
     0
  0
APPID
  2
GENIUS_GENHATCH_13
 70
     0
  0
APPID
  2
GEVID948854295
 70
     0
  0
APPID
  2
GEVID939402019
 70
     0
  0
APPID
  2
GEVID952919491
 70
     0
  0
APPID
  2
GEVID952919492
 70
     0
  0
APPID
  2
GENIUS_GEFWELD_13
 70
     0
  0
APPID
  2
GENIUS_GENOBJ-F-WELS_13
 70
     0
  0
APPID
  2
GEVID952919493
 70
     0
  0
APPID
  2
GENIUS_GENOBJ-N-RSBK_13
 70
     0
  0
APPID
  2
GENIUS_GENOBJ-N-LIB_13
 70
     0
  0
APPID
  2
GENIUS_GENSCALE_13
 70
     0
  0
APPID
  2
GEVID986376691
 70
     0
  0
APPID
  2
DCO15
 70
     0
  0
APPID
  2
ACAD_DSTYLE_DIMBREAK
 70
     0
  0
APPID
  2
ACAD_DSTYLE_DIMJAG
 70
     0
  0
APPID
  2
ACAD_NAV_VCDISPLAY
 70
     0
  0
APPID
  2
ACADANNOPO
 70
     0
  0
APPID
  2
ACAD_EXEMPT_FROM_CAD_STANDARDS
 70
     0
  0
APPID
  2
ACAD_MLEADERVER
 70
     0
  0
ENDTAB
  0
TABLE
  2
DIMSTYLE
 70
    22
  0
DIMSTYLE
  2
STANDARD
 70
     0
  3

  4

  5

  6

  7

 40
1.0
 41
0.18
 42
0.0625
 43
0.38
 44
0.18
 45
0.0
 46
0.0
 47
0.0
 48
0.0
140
0.18
141
0.09
142
0.0
143
25.399999999999999
144
1.0
145
0.0
146
1.0
147
0.09
 71
     0
 72
     0
 73
     1
 74
     1
 75
     0
 76
     0
 77
     0
 78
     0
170
     0
171
     2
172
     0
173
     0
174
     0
175
     0
176
     0
177
     0
178
     0
  0
DIMSTYLE
  2
ANNOTATIVE
 70
     0
  3

  4

  5

  6

  7

 40
1.0
 41
0.18
 42
0.0625
 43
0.38
 44
0.18
 45
0.0
 46
0.0
 47
0.0
 48
0.0
140
0.18
141
0.09
142
0.0
143
25.399999999999999
144
1.0
145
0.0
146
1.0
147
0.09
 71
     0
 72
     0
 73
     1
 74
     1
 75
     0
 76
     0
 77
     0
 78
     0
170
     0
171
     2
172
     0
173
     0
174
     0
175
     0
176
     0
177
     0
178
     0
  0
DIMSTYLE
  2
AM_ISO
 70
     0
  3

  4
"
  5

  6

  7

 40
1.0
 41
2.5
 42
1.0
 43
8.0
 44
0.6
 45
0.0
 46
0.0
 47
0.1
 48
0.1
140
2.5
141
0.0
142
0.0
143
0.0393701
144
1.0
145
0.0
146
0.71
147
0.8
 71
     0
 72
     0
 73
     0
 74
     0
 75
     0
 76
     0
 77
     1
 78
     8
170
     0
171
     2
172
     1
173
     0
174
     0
175
     0
176
   256
177
   256
178
     4
  0
DIMSTYLE
  2
AM_ISO$3
 70
     0
  3

  4
"
  5

  6

  7

 40
1.0
 41
2.5
 42
1.0
 43
8.0
 44
0.6
 45
0.0
 46
0.0
 47
0.1
 48
0.1
140
2.5
141
0.0
142
0.0
143
0.0393701
144
1.0
145
0.0
146
0.71
147
0.8
 71
     0
 72
     0
 73
     0
 74
     1
 75
     0
 76
     0
 77
     1
 78
     8
170
     0
171
     2
172
     0
173
     0
174
     0
175
     0
176
   256
177
   256
178
     4
  0
DIMSTYLE
  2
AM_ISO$4
 70
     0
  3

  4
"
  5

  6

  7

 40
1.0
 41
2.5
 42
1.0
 43
8.0
 44
0.6
 45
0.0
 46
0.0
 47
0.1
 48
0.1
140
2.5
141
0.0
142
0.0
143
0.0393701
144
1.0
145
0.0
146
0.71
147
0.8
 71
     0
 72
     0
 73
     0
 74
     1
 75
     0
 76
     0
 77
     1
 78
     8
170
     0
171
     2
172
     0
173
     0
174
     0
175
     0
176
   256
177
   256
178
     4
  0
DIMSTYLE
  2
AM_ISO$6
 70
     0
  3

  4
"
  5

  6

  7

 40
1.0
 41
2.5
 42
1.0
 43
8.0
 44
0.6
 45
0.0
 46
0.0
 47
0.1
 48
0.1
140
2.5
141
0.0
142
0.0
143
0.0393701
144
1.0
145
0.0
146
0.71
147
0.8
 71
     0
 72
     0
 73
     0
 74
     0
 75
     0
 76
     0
 77
     0
 78
     8
170
     0
171
     2
172
     1
173
     0
174
     0
175
     0
176
   256
177
   256
178
     4
  0
DIMSTYLE
  2
AM_ISO$7
 70
     0
  3

  4
"
  5

  6

  7

 40
1.0
 41
2.5
 42
1.0
 43
8.0
 44
0.6
 45
0.0
 46
0.0
 47
0.1
 48
0.1
140
2.5
141
0.0
142
0.0
143
0.0393701
144
1.0
145
0.0
146
0.71
147
0.8
 71
     0
 72
     0
 73
     0
 74
     0
 75
     0
 76
     0
 77
     1
 78
     8
170
     0
171
     2
172
     1
173
     0
174
     0
175
     0
176
   256
177
   256
178
     4
  0
DIMSTYLE
  2
AM_ISO$SF
 70
     0
  3

  4
"
  5

  6

  7

 40
1.0
 41
2.5
 42
1.0
 43
10.0
 44
1.0
 45
0.0
 46
0.0
 47
0.1
 48
0.1
140
3.5
141
0.0
142
0.0
143
0.0393701
144
1.0
145
0.0
146
0.71
147
1.5
 71
     0
 72
     0
 73
     0
 74
     0
 75
     1
 76
     1
 77
     1
 78
     8
170
     0
171
     2
172
     1
173
     0
174
     0
175
     0
176
   256
177
   256
178
     2
  0
DIMSTYLE
  2
AM_ISO$SH
 70
     0
  3

  4
"
  5

  6

  7

 40
1.0
 41
2.5
 42
1.0
 43
10.0
 44
1.0
 45
0.0
 46
0.0
 47
0.1
 48
0.1
140
3.5
141
0.0
142
0.0
143
0.0393701
144
2.0
145
0.0
146
0.71
147
1.5
 71
     0
 72
     0
 73
     0
 74
     0
 75
     1
 76
     1
 77
     1
 78
     8
170
     0
171
     2
172
     1
173
     1
174
     0
175
     0
176
   256
177
   256
178
     2
  0
DIMSTYLE
  2
AM_JIS
 70
     0
  3

  4
"
  5

  6

  7

 40
1.0
 41
2.5
 42
1.0
 43
7.0
 44
1.0
 45
0.0
 46
0.0
 47
0.1
 48
0.1000000001
140
2.5
141
0.0
142
0.0
143
0.0393701
144
1.0
145
0.0
146
0.71
147
1.0
 71
     0
 72
     0
 73
     0
 74
     0
 75
     0
 76
     0
 77
     3
 78
     8
170
     0
171
     2
172
     1
173
     0
174
     0
175
     0
176
   256
177
   256
178
     4
  0
DIMSTYLE
  2
AM_JIS$3
 70
     0
  3

  4
"
  5

  6

  7

 40
1.0
 41
2.5
 42
1.0
 43
7.0
 44
1.0
 45
0.0
 46
0.0
 47
0.1
 48
0.1000000001
140
2.5
141
0.0
142
0.0
143
0.0393701
144
1.0
145
0.0
146
0.71
147
1.0
 71
     0
 72
     0
 73
     0
 74
     1
 75
     0
 76
     0
 77
     3
 78
     8
170
     0
171
     2
172
     0
173
     0
174
     0
175
     0
176
   256
177
   256
178
     4
  0
DIMSTYLE
  2
AM_JIS$4
 70
     0
  3

  4
"
  5

  6

  7

 40
1.0
 41
2.5
 42
1.0
 43
7.0
 44
1.0
 45
0.0
 46
0.0
 47
0.1
 48
0.1000000001
140
2.5
141
0.0
142
0.0
143
0.0393701
144
1.0
145
0.0
146
0.71
147
1.0
 71
     0
 72
     0
 73
     0
 74
     0
 75
     0
 76
     0
 77
     3
 78
     8
170
     0
171
     2
172
     0
173
     0
174
     0
175
     0
176
   256
177
   256
178
     4
  0
DIMSTYLE
  2
AM_JIS$6
 70
     0
  3

  4
"
  5

  6

  7

 40
1.0
 41
2.5
 42
1.0
 43
7.0
 44
1.0
 45
0.0
 46
0.0
 47
0.1
 48
0.1000000001
140
2.5
141
0.0
142
0.0
143
0.0393701
144
1.0
145
0.0
146
0.71
147
1.0
 71
     0
 72
     0
 73
     0
 74
     0
 75
     0
 76
     0
 77
     0
 78
     8
170
     0
171
     2
172
     1
173
     0
174
     0
175
     0
176
   256
177
   256
178
     4
  0
DIMSTYLE
  2
AM_JIS$7
 70
     0
  3

  4
"
  5

  6

  7

 40
1.0
 41
2.5
 42
1.0
 43
7.0
 44
1.0
 45
0.0
 46
0.0
 47
0.1
 48
0.1000000001
140
2.5
141
0.0
142
0.0
143
0.0393701
144
1.0
145
0.0
146
0.71
147
1.0
 71
     0
 72
     0
 73
     0
 74
     0
 75
     0
 76
     0
 77
     3
 78
     8
170
     0
171
     2
172
     1
173
     0
174
     0
175
     0
176
   256
177
   256
178
     4
  0
DIMSTYLE
  2
AM_JIS$SF
 70
     0
  3

  4
"
  5

  6

  7

 40
1.0
 41
2.5
 42
1.0
 43
10.0
 44
1.0
 45
0.0
 46
0.0
 47
0.1
 48
0.1
140
3.5
141
0.0
142
0.0
143
0.0393701
144
1.0
145
0.0
146
0.71
147
1.5
 71
     0
 72
     0
 73
     0
 74
     0
 75
     1
 76
     1
 77
     3
 78
     8
170
     0
171
     2
172
     1
173
     0
174
     0
175
     0
176
   256
177
   256
178
     4
  0
DIMSTYLE
  2
AM_JIS$SH
 70
     0
  3

  4
"
  5

  6

  7

 40
1.0
 41
2.5
 42
1.0
 43
10.0
 44
1.0
 45
0.0
 46
0.0
 47
0.1
 48
0.1
140
3.5
141
0.0
142
0.0
143
0.0393701
144
1.0
145
0.0
146
0.71
147
1.5
 71
     0
 72
     0
 73
     0
 74
     0
 75
     1
 76
     0
 77
     3
 78
     8
170
     0
171
     2
172
     1
173
     1
174
     0
175
     0
176
   256
177
   256
178
     4
  0
DIMSTYLE
  2
AM_ANSI
 70
     0
  3

  4
mm
  5

  6

  7

 40
1.0
 41
0.1
 42
0.05
 43
0.5
 44
0.1
 45
0.0
 46
0.0
 47
0.1
 48
0.1
140
0.12
141
0.0
142
0.0
143
25.399999999999999
144
1.0
145
0.0
146
0.71
147
0.06
 71
     0
 72
     0
 73
     1
 74
     1
 75
     0
 76
     0
 77
     0
 78
     7
170
     0
171
     2
172
     0
173
     0
174
     0
175
     0
176
   256
177
   256
178
     2
  0
DIMSTYLE
  2
AM_ANSI$3
 70
     0
  3

  4
mm
  5

  6

  7

 40
1.0
 41
0.1
 42
0.05
 43
0.5
 44
0.1
 45
0.0
 46
0.0
 47
0.1
 48
0.1
140
0.12
141
0.0
142
0.0
143
25.399999999999999
144
1.0
145
0.0
146
0.71
147
0.06
 71
     0
 72
     0
 73
     1
 74
     1
 75
     0
 76
     0
 77
     0
 78
     7
170
     0
171
     2
172
     0
173
     0
174
     0
175
     0
176
   256
177
   256
178
     2
  0
DIMSTYLE
  2
AM_ANSI$4
 70
     0
  3

  4
mm
  5

  6

  7

 40
1.0
 41
0.1
 42
0.05
 43
0.5
 44
0.1
 45
0.0
 46
0.0
 47
0.1
 48
0.1
140
0.12
141
0.0
142
0.0
143
25.399999999999999
144
1.0
145
0.0
146
0.71
147
0.06
 71
     0
 72
     0
 73
     1
 74
     1
 75
     0
 76
     0
 77
     0
 78
     7
170
     0
171
     2
172
     0
173
     0
174
     0
175
     0
176
   256
177
   256
178
     2
  0
DIMSTYLE
  2
AM_ANSI$7
 70
     0
  3

  4
mm
  5

  6

  7

 40
1.0
 41
0.1
 42
0.05
 43
0.5
 44
0.1
 45
0.0
 46
0.0
 47
0.1
 48
0.1
140
0.24
141
0.0
142
0.0
143
25.399999999999999
144
1.0
145
0.0
146
0.71
147
0.06
 71
     0
 72
     0
 73
     1
 74
     1
 75
     0
 76
     0
 77
     0
 78
     7
170
     0
171
     2
172
     0
173
     0
174
     0
175
     0
176
   256
177
   256
178
     2
  0
DIMSTYLE
  2
AM_ANSI$SF
 70
     0
  3

  4
mm
  5

  6

  7

 40
1.0
 41
0.1
 42
0.05
 43
0.5
 44
0.1
 45
0.0
 46
0.0
 47
0.1
 48
0.1
140
0.12
141
0.0
142
0.0
143
25.399999999999999
144
1.0
145
0.0
146
0.71
147
0.06
 71
     0
 72
     0
 73
     1
 74
     1
 75
     1
 76
     1
 77
     0
 78
     7
170
     0
171
     2
172
     0
173
     0
174
     0
175
     0
176
   256
177
   256
178
     2
  0
DIMSTYLE
  2
AM_ANSI$SH
 70
     0
  3

  4
mm
  5

  6

  7

 40
1.0
 41
0.1
 42
0.05
 43
0.5
 44
0.1
 45
0.0
 46
0.0
 47
0.1
 48
0.1
140
0.12
141
0.0
142
0.0
143
25.399999999999999
144
1.0
145
0.0
146
0.71
147
0.06
 71
     0
 72
     0
 73
     1
 74
     1
 75
     1
 76
     1
 77
     0
 78
     7
170
     0
171
     2
172
     0
173
     1
174
     0
175
     0
176
   256
177
   256
178
     2
  0
ENDTAB
  0
ENDSEC
  0
SECTION
  2
BLOCKS
  0
BLOCK
  8
0
  2
$MODEL_SPACE
 70
     0
 10
0.0
 20
0.0
 30
0.0
  3
$MODEL_SPACE
  1

  0
ENDBLK
  5
2E2A
  8
0
  0
BLOCK
 67
     1
  8
0
  2
$PAPER_SPACE
 70
     0
 10
0.0
 20
0.0
 30
0.0
  3
$PAPER_SPACE
  1

  0
ENDBLK
  5
2E26
 67
     1
  8
0
  0
BLOCK
  8
0
  2
GENAXEH
 70
     0
 10
0.0
 20
0.0
 30
0.0
  3
GENAXEH
  1

  0
LINE
  5
2C32
  8
0
 10
-1.0
 20
0.0
 30
0.0
 11
1.0
 21
0.0
 31
0.0
  0
ENDBLK
  5
2C33
  8
0
  0
BLOCK
  8
0
  2
_OPEN30
 70
     0
 10
0.0
 20
0.0
 30
0.0
  3
_OPEN30
  1

  0
LINE
  5
2C36
  8
0
 62
     0
 10
-1.0
 20
0.26794919
 30
0.0
 11
0.0
 21
0.0
 31
0.0
  0
LINE
  5
2C37
  8
0
 62
     0
 10
0.0
 20
0.0
 30
0.0
 11
-1.0
 21
-0.26794919
 31
0.0
  0
LINE
  5
2C38
  8
0
 62
     0
 10
0.0
 20
0.0
 30
0.0
 11
-1.0
 21
0.0
 31
0.0
  0
ENDBLK
  5
2C39
  8
0
  0
BLOCK
  8
0
  2
_NONE
 70
     0
 10
0.0
 20
0.0
 30
0.0
  3
_NONE
  1

  0
ENDBLK
  5
2C3C
  8
0
  0
BLOCK
  8
0
  2
*U5
 70
     1
 10
0.0
 20
0.0
 30
0.0
  3
*U5
  1

  0
TEXT
  5
2C3F
  8
AM_0
 62
     4
 10
372.4139092939219
 20
271.38742507586471
 30
0.0
 40
12.5
  1
\U+2205
 50
90.0
 41
0.8299999999999999
  0
TEXT
  5
2C40
  8
AM_0
 62
     4
 10
372.4139092939219
 20
281.76242507586471
 30
0.0
 40
12.5
  1
130
 50
90.0
 41
0.8299999999999999
  0
TEXT
  5
2C41
  8
AM_0
 62
     4
 10
372.4139092939219
 20
307.69992507586483
 30
0.0
 40
10.0
  1
G7
 50
90.0
 41
0.8299999999999999
  0
ENDBLK
  5
2C42
  8
0
  0
BLOCK
  8
0
  2
*U6
 70
     1
 10
0.0
 20
0.0
 30
0.0
  3
*U6
  1

  0
TEXT
  5
2C45
  8
AM_0
 62
     4
 10
343.53489048262031
 20
279.16867507586471
 30
0.0
 40
12.5
  1
\U+2205
 50
90.0
 41
0.8299999999999999
  0
TEXT
  5
2C46
  8
AM_0
 62
     4
 10
343.53489048262031
 20
289.54367507586483
 30
0.0
 40
12.5
  1
200
 50
90.0
 41
0.8299999999999999
  0
ENDBLK
  5
2C47
  8
0
  0
BLOCK
  8
0
  2
*U7
 70
     1
 10
0.0
 20
0.0
 30
0.0
  3
*U7
  1

  0
TEXT
  5
2C4A
  8
AM_0
 62
     4
 10
740.66571533199544
 20
299.3874165758649
 30
0.0
 40
12.5
  1
\U+2205
 50
90.0
 41
0.8299999999999999
  0
TEXT
  5
2C4B
  8
AM_0
 62
     4
 10
740.66571533199544
 20
309.7624165758649
 30
0.0
 40
12.5
  1
210
 50
90.0
 41
0.8299999999999999
  0
TEXT
  5
2C4C
  8
AM_0
 62
     4
 10
740.66571533199544
 20
335.6999165758649
 30
0.0
 40
10.0
  1
h7
 50
90.0
 41
0.8299999999999999
  0
ENDBLK
  5
2C4D
  8
0
  0
BLOCK
  8
0
  2
*U8
 70
     1
 10
0.0
 20
0.0
 30
0.0
  3
*U8
  1

  0
TEXT
  5
2C50
  8
AM_0
 62
     4
 10
895.61749358781412
 20
487.03829866539451
 30
0.0
 40
12.5
  1
o
 41
0.8299999999999999
  0
TEXT
  5
2C51
  8
AM_0
 62
     4
 10
907.96868406400483
 20
487.03829866539451
 30
0.0
 40
12.5
  1
 235
 41
0.8299999999999999
  0
ENDBLK
  5
2C52
  8
0
  0
BLOCK
  8
0
  2
*U9
 70
     1
 10
0.0
 20
0.0
 30
0.0
  3
*U9
  1

  0
TEXT
  5
2C55
  8
AM_0
 62
     4
 10
121.0894305026787
 20
201.731374363512
 30
0.0
 40
12.5
  1
\U+2205
 50
90.0
 41
0.8299999999999999
  0
TEXT
  5
2C56
  8
AM_0
 62
     4
 10
121.0894305026787
 20
212.106374363512
 30
0.0
 40
12.5
  1
200
 50
90.0
 41
0.8299999999999999
  0
ENDBLK
  5
2C57
  8
0
  0
BLOCK
  8
0
  2
*U10
 70
     1
 10
0.0
 20
0.0
 30
0.0
  3
*U10
  1

  0
TEXT
  5
2C5A
  8
AM_0
 62
     4
 10
149.96844931398039
 20
193.9501243635118
 30
0.0
 40
12.5
  1
\U+2205
 50
90.0
 41
0.8299999999999999
  0
TEXT
  5
2C5B
  8
AM_0
 62
     4
 10
149.96844931398039
 20
204.325124363512
 30
0.0
 40
12.5
  1
130
 50
90.0
 41
0.8299999999999999
  0
TEXT
  5
2C5C
  8
AM_0
 62
     4
 10
149.96844931398039
 20
230.262624363512
 30
0.0
 40
10.0
  1
G7
 50
90.0
 41
0.8299999999999999
  0
ENDBLK
  5
2C5D
  8
0
  0
BLOCK
  8
0
  2
*U11
 70
     1
 10
0.0
 20
0.0
 30
0.0
  3
*U11
  1

  0
TEXT
  5
2C60
  8
AM_0
 62
     4
 10
673.17203360787312
 20
409.60099795304183
 30
0.0
 40
12.5
  1
o
 41
0.8299999999999999
  0
TEXT
  5
2C61
  8
AM_0
 62
     4
 10
685.52322408406349
 20
409.60099795304183
 30
0.0
 40
12.5
  1
 235
 41
0.8299999999999999
  0
ENDBLK
  5
2C62
  8
0
  0
BLOCK
  8
0
  2
*U12
 70
     1
 10
0.0
 20
0.0
 30
0.0
  3
*U12
  1

  0
TEXT
  5
2C65
  8
AM_0
 62
     4
 10
518.22025535205421
 20
221.950115863512
 30
0.0
 40
12.5
  1
\U+2205
 50
90.0
 41
0.8299999999999999
  0
TEXT
  5
2C66
  8
AM_0
 62
     4
 10
518.22025535205421
 20
232.325115863512
 30
0.0
 40
12.5
  1
210
 50
90.0
 41
0.8299999999999999
  0
TEXT
  5
2C67
  8
AM_0
 62
     4
 10
518.22025535205421
 20
258.262615863512
 30
0.0
 40
10.0
  1
h7
 50
90.0
 41
0.8299999999999999
  0
ENDBLK
  5
2C68
  8
0
  0
BLOCK
  8
0
  2
_ACMFILLEDHALF
 70
     0
 10
0.0
 20
0.0
 30
0.0
  3
_ACMFILLEDHALF
  1

  0
TRACE
  5
2F30
  8
AM_0
 62
     0
 10
-0.8
 20
0.0
 30
0.0
 11
-1.0
 21
0.166666666
 31
0.0
 12
0.0
 22
0.0
 32
0.0
 13
0.0
 23
0.0
 33
0.0
  0
LINE
  5
2F31
  8
AM_0
 62
     0
 10
-1.0
 20
0.0
 30
0.0
 11
-0.8
 21
0.0
 31
0.0
  0
ENDBLK
  5
2F2F
  8
0
  0
ENDSEC
  0
SECTION
  2
ENTITIES
  0
ARC
  5
2C6A
  8
AM_0
 10
410.91851186281258
 20
575.29293396563276
 30
0.0
 40
5.0
 50
90.000003000000945
 51
270.0
  0
LINE
  5
2C6B
  8
AM_0
 10
455.91854186281267
 20
591.29293396563276
 30
0.0
 11
397.91851186281252
 21
591.29293396563276
 31
0.0
  0
LINE
  5
2C6C
  8
AM_0
 10
455.91854186281267
 20
559.29296396563291
 30
0.0
 11
397.91851186281252
 21
559.29296396563291
 31
0.0
  0
LINE
  5
2C6D
  8
ﾁｭｳｼﾝｾﾝ
 10
170.78238565037461
 20
575.29293396563276
 30
0.0
 11
463.83132186281262
 21
575.29293396563276
 31
0.0
  0
POLYLINE
  5
2C6E
  8
AM_0
 66
     1
 10
0.0
 20
0.0
 30
0.0
  0
VERTEX
  5
2C6F
  8
AM_0
 10
371.58462186281253
 20
677.95906396563282
 30
0.0
 42
0.07982674
  0
VERTEX
  5
2C70
  8
AM_0
 10
345.74279186281268
 20
611.05261396563287
 30
0.0
 42
0.10414855
  0
VERTEX
  5
2C71
  8
AM_0
 10
345.74286186281239
 20
539.53288396563266
 30
0.0
 42
0.07982627
  0
VERTEX
  5
2C72
  8
AM_0
 10
371.58462186281253
 20
472.62679396563271
 30
0.0
  0
SEQEND
  5
2C73
  8
AM_0
  0
LINE
  5
2C74
  8
AM_0
 10
397.91851186281252
 20
470.29290396563277
 30
0.0
 11
397.91851186281252
 21
680.29293396563298
 31
0.0
  0
LINE
  5
2C75
  8
AM_0
 10
393.91851186281252
 20
457.79293396563281
 30
0.0
 11
393.91851186281252
 21
692.79293396563298
 31
0.0
  0
LINE
  5
2C76
  8
AM_0
 10
385.91851186281258
 20
484.69320396563268
 30
0.0
 11
385.91851186281258
 21
665.89266396563278
 31
0.0
  0
LINE
  5
2C77
  8
AM_0
 10
378.91851186281252
 20
461.21380396563268
 30
0.0
 11
378.91851186281252
 21
689.3720339656328
 31
0.0
  0
LINE
  5
2C78
  8
AM_0
 10
255.9184818628124
 20
501.79293396563281
 30
0.0
 11
255.9184818628124
 21
648.79293396563298
 31
0.0
  0
LINE
  5
2C79
  8
AM_0
 10
270.9184818628126
 20
479.03920396563268
 30
0.0
 11
270.9184818628126
 21
671.54665396563291
 31
0.0
  0
LINE
  5
2C7A
  8
AM_0
 10
280.91848186281248
 20
475.7929339656327
 30
0.0
 11
280.91848186281248
 21
674.79293396563276
 31
0.0
  0
ARC
  5
2C7B
  8
AM_0
 10
265.91848186281248
 20
496.5293839656328
 30
0.0
 40
5.0
 50
0.0
 51
88.499997000000647
  0
LINE
  5
2C7C
  8
AM_0
 10
255.91842186281249
 20
513.71297396563295
 30
0.0
 11
270.9184818628126
 21
513.71297396563295
 31
0.0
  0
LINE
  5
2C7D
  8
AM_0
 10
255.9184818628124
 20
535.81826396563281
 30
0.0
 11
270.9184818628126
 21
535.81826396563281
 31
0.0
  0
LINE
  5
2C7E
  8
AM_0
 10
255.9184818628124
 20
501.79293396563281
 30
0.0
 11
266.0494018628126
 21
501.52764396563288
 31
0.0
  0
LINE
  5
2C7F
  8
AM_0
 10
280.91854186281262
 20
475.7929339656327
 30
0.0
 11
369.6162718628126
 21
472.69555396563271
 31
0.0
  0
LINE
  5
2C80
  8
AM_0
 10
273.8138118628126
 20
476.04104396563281
 30
0.0
 11
280.91842186281252
 21
475.7929339656327
 31
0.0
  0
ARC
  5
2C81
  8
AM_0
 10
273.9184818628126
 20
479.03920396563268
 30
0.0
 40
3.0
 50
180.00001000000091
 51
267.99999999999932
  0
ARC
  5
2C82
  8
AM_0
 10
369.44177186281252
 20
467.69857396563287
 30
0.0
 40
5.0
 50
45.000000999996892
 51
87.999999999999503
  0
LINE
  5
2C83
  8
AM_0
 10
381.81384186281252
 20
458.21563396563278
 30
0.0
 11
393.91851186281252
 21
457.79293396563281
 31
0.0
  0
LINE
  5
2C84
  8
AM_0
 10
372.97729186281259
 20
471.23412396563282
 30
0.0
 11
378.91854186281267
 21
465.29290396563272
 31
0.0
  0
ARC
  5
2C85
  8
AM_0
 10
381.91851186281258
 20
461.21380396563268
 30
0.0
 40
3.0
 50
179.9999899999988
 51
268.00000999999861
  0
LINE
  5
2C86
  8
AM_0
 10
393.91851186281252
 20
470.29290396563277
 30
0.0
 11
397.91851186281252
 21
470.29290396563277
 31
0.0
  0
ARC
  5
2C87
  8
AM_0
 10
382.91851186281252
 20
484.69320396563268
 30
0.0
 40
3.0
 50
267.99999999999932
 51
0.0
  0
LINE
  5
2C88
  8
AM_0
 10
382.63397186281247
 20
481.70131396563272
 30
0.0
 11
382.8138118628126
 21
481.69503396563277
 31
0.0
  0
ARC
  5
2C89
  8
AM_0
 10
381.91851186281258
 20
516.38219396563295
 30
0.0
 40
3.0
 50
90.000003000000945
 51
180.00001000000091
  0
LINE
  5
2C8A
  8
AM_0
 10
381.91851186281258
 20
519.38219396563295
 30
0.0
 11
385.91851186281258
 21
519.38219396563295
 31
0.0
  0
ARC
  5
2C8B
  8
AM_0
 10
265.91848186281248
 20
654.05654396563295
 30
0.0
 40
5.0
 50
271.4999999999992
 51
0.0
  0
LINE
  5
2C8C
  8
AM_0
 10
255.9185418628125
 20
636.87301396563305
 30
0.0
 11
270.9184818628126
 21
636.87301396563305
 31
0.0
  0
LINE
  5
2C8D
  8
AM_0
 10
255.9184818628124
 20
614.76760396563282
 30
0.0
 11
270.9184818628126
 21
614.76760396563282
 31
0.0
  0
LINE
  5
2C8E
  8
AM_0
 10
255.9185418628125
 20
648.79293396563298
 30
0.0
 11
266.0494018628126
 21
649.05825396563296
 31
0.0
  0
LINE
  5
2C8F
  8
AM_0
 10
372.97732186281252
 20
679.3517739656329
 30
0.0
 11
378.91851186281252
 21
685.29293396563298
 31
0.0
  0
LINE
  5
2C90
  8
AM_0
 10
280.91848186281248
 20
674.79293396563276
 30
0.0
 11
369.6162718628126
 21
677.89028396563276
 31
0.0
  0
LINE
  5
2C91
  8
AM_0
 10
273.81375186281252
 20
674.54482396563299
 30
0.0
 11
280.91842186281252
 21
674.79293396563276
 31
0.0
  0
ARC
  5
2C92
  8
AM_0
 10
273.9184818628126
 20
671.54665396563291
 30
0.0
 40
3.0
 50
91.999998000000545
 51
180.00001000000091
  0
ARC
  5
2C93
  8
AM_0
 10
381.91851186281258
 20
634.20369396563285
 30
0.0
 40
3.0
 50
179.9999899999988
 51
270.0
  0
LINE
  5
2C94
  8
AM_0
 10
381.91851186281258
 20
631.20369396563285
 30
0.0
 11
385.91851186281258
 21
631.20369396563285
 31
0.0
  0
ARC
  5
2C95
  8
AM_0
 10
369.44177186281252
 20
682.88729396563303
 30
0.0
 40
5.0
 50
272.0000000000004
 51
315.0
  0
ARC
  5
2C96
  8
AM_0
 10
382.91851186281252
 20
665.89266396563278
 30
0.0
 40
3.0
 50
0.0
 51
91.999998000000545
  0
LINE
  5
2C97
  8
AM_0
 10
382.63397186281247
 20
668.8845439656327
 30
0.0
 11
382.81378186281268
 21
668.89083396563285
 31
0.0
  0
LINE
  5
2C98
  8
AM_0
 10
393.91851186281252
 20
680.29293396563298
 30
0.0
 11
397.91851186281252
 21
680.29293396563298
 31
0.0
  0
LINE
  5
2C99
  8
AM_0
 10
381.81384186281252
 20
692.37020396563298
 30
0.0
 11
393.91851186281252
 21
692.79293396563298
 31
0.0
  0
ARC
  5
2C9A
  8
AM_0
 10
381.91851186281258
 20
689.3720339656328
 30
0.0
 40
3.0
 50
91.999998000000545
 51
180.00001000000091
  0
LINE
  5
2C9B
  8
AM_0
 10
455.91854186281267
 20
559.29296396563291
 30
0.0
 11
455.91854186281267
 21
591.29293396563276
 31
0.0
  0
LINE
  5
2C9C
  8
AM_0
 10
410.91851186281258
 20
580.29293396563276
 30
0.0
 11
455.91854186281267
 21
580.29293396563276
 31
0.0
  0
LINE
  5
2C9D
  8
AM_0
 10
410.91851186281258
 20
570.29293396563276
 30
0.0
 11
455.91854186281267
 21
570.29293396563276
 31
0.0
  0
LINE
  5
2C9E
  8
AM_0
 10
410.91851186281258
 20
580.29293396563276
 30
0.0
 11
410.91851186281258
 21
570.29293396563276
 31
0.0
  0
LINE
  5
2C9F
  8
AM_0
 10
342.01850186281251
 20
320.12299003017881
 30
0.0
 11
349.24871186281251
 21
318.96175003017862
 31
0.0
  0
LINE
  5
2CA0
  8
AM_0
 10
343.42904186281243
 20
321.53350003017869
 30
0.0
 11
378.91853186281242
 21
357.02302003017883
 31
0.0
  0
LINE
  5
2CA1
  8
AM_0
 10
270.91853186281242
 20
298.22746003017852
 30
0.0
 11
365.91200186281242
 21
298.22746003017852
 31
0.0
  0
LINE
  5
2CA2
  8
ﾁｭｳｼﾝｾﾝ
 10
250.1239626430405
 20
247.02302803017869
 30
0.0
 11
458.69774186281251
 21
247.02302803017869
 31
0.0
  0
LINE
  5
2CA3
  8
AM_0
 10
270.91853186281242
 20
158.64277603017871
 30
0.0
 11
377.18204186281253
 21
158.64277603017871
 31
0.0
  0
LINE
  5
2CA4
  8
AM_0
 10
270.91853186281242
 20
138.60523903017861
 30
0.0
 11
377.18204186281253
 21
138.60523903017861
 31
0.0
  0
LINE
  5
2CA5
  8
AM_0
 10
280.91855186281242
 20
119.5230250301787
 30
0.0
 11
366.15548186281251
 21
117.2910130301787
 31
0.0
  0
LINE
  5
2CA6
  8
AM_0
 10
268.91855186281248
 20
283.2943450301787
 30
0.0
 11
268.91855186281248
 21
298.29436003017878
 31
0.0
  0
LINE
  5
2CA7
  8
AM_0
 10
260.9185418628125
 20
284.29437703017862
 30
0.0
 11
260.9185418628125
 21
297.29437003017881
 31
0.0
  0
LINE
  5
2CA8
  8
AM_0
 10
280.91855186281242
 20
119.5230250301787
 30
0.0
 11
280.91855186281242
 21
318.52300003017848
 31
0.0
  0
LINE
  5
2CA9
  8
AM_0
 10
270.91853186281242
 20
121.7331970301787
 30
0.0
 11
270.91853186281242
 21
316.31284003017879
 31
0.0
  0
LINE
  5
2CAA
  8
AM_0
 10
255.9185318628125
 20
145.0230250301785
 30
0.0
 11
255.9185318628125
 21
293.02301503017878
 31
0.0
  0
LINE
  5
2CAB
  8
AM_0
 10
177.91853186281239
 20
119.0230410301786
 30
0.0
 11
177.91853186281239
 21
319.02304103017872
 31
0.0
  0
LINE
  5
2CAC
  8
AM_0
 10
187.91853186281261
 20
318.02304103017872
 30
0.0
 11
187.91853186281261
 21
120.0230410301786
 31
0.0
  0
LINE
  5
2CAD
  8
AM_0
 10
240.91853186281261
 20
292.52304103017872
 30
0.0
 11
240.91853186281261
 21
145.5230410301784
 31
0.0
  0
LINE
  5
2CAE
  8
AM_0
 10
221.91853186281261
 20
157.1782860301785
 30
0.0
 11
221.91853186281261
 21
280.49945303017847
 31
0.0
  0
LINE
  5
2CAF
  8
AM_0
 10
255.9185318628125
 20
157.44438103017859
 30
0.0
 11
270.91853186281242
 21
157.44438103017859
 31
0.0
  0
LINE
  5
2CB0
  8
AM_0
 10
255.9185318628125
 20
145.0230250301785
 30
0.0
 11
260.91860186281241
 21
144.89209003017871
 31
0.0
  0
ARC
  5
2CB1
  8
AM_0
 10
186.91853186281261
 20
120.0230410301786
 30
0.0
 40
1.0
 50
270.0
 51
0.0
  0
LINE
  5
2CB2
  8
AM_0
 10
177.91853186281239
 20
119.0230410301786
 30
0.0
 11
186.91853186281261
 21
119.0230410301786
 31
0.0
  0
LINE
  5
2CB3
  8
AM_0
 10
221.91853186281261
 20
151.6209620301785
 30
0.0
 11
190.65706386281241
 21
148.88593803017841
 31
0.0
  0
ARC
  5
2CB4
  8
AM_0
 10
190.9185318628125
 20
145.89735403017841
 30
0.0
 40
3.0
 50
94.99999999999973
 51
180.0
  0
LINE
  5
2CB5
  8
AM_0
 10
240.91853186281261
 20
145.5230410301784
 30
0.0
 11
255.9185318628125
 21
145.5230410301784
 31
0.0
  0
LINE
  5
2CB6
  8
AM_0
 10
239.0928428628124
 20
150.11840503017851
 30
0.0
 11
221.91853186281261
 21
151.6209620301785
 31
0.0
  0
LINE
  5
2CB7
  8
AM_0
 10
242.7670938628126
 20
157.37304103017851
 30
0.0
 11
254.2265338628124
 21
157.37304103017851
 31
0.0
  0
ARC
  5
2CB8
  8
AM_0
 10
238.9185318628125
 20
148.12601503017851
 30
0.0
 40
2.0
 50
0.0
 51
85.000000000000256
  0
LINE
  5
2CB9
  8
AM_0
 10
268.91855186281248
 20
154.75169203017879
 30
0.0
 11
268.91855186281248
 21
139.75169203017859
 31
0.0
  0
LINE
  5
2CBA
  8
AM_0
 10
260.9185418628125
 20
153.75169303017859
 30
0.0
 11
260.9185418628125
 21
140.7516760301786
 31
0.0
  0
LINE
  5
2CBB
  8
AM_0
 10
280.91855186281242
 20
119.5230250301787
 30
0.0
 11
272.86616186281242
 21
119.7338770301787
 31
0.0
  0
ARC
  5
2CBC
  8
AM_0
 10
272.9185418628125
 20
121.7331970301787
 30
0.0
 40
2.00000007
 50
179.9999899999988
 51
268.50000999999872
  0
LINE
  5
2CBD
  8
AM_0
 10
268.91855186281248
 20
140.7516760301786
 30
0.0
 11
260.9185418628125
 21
140.7516760301786
 31
0.0
  0
LINE
  5
2CBE
  8
AM_0
 10
270.91853186281242
 20
139.75169203017859
 30
0.0
 11
268.91855186281248
 21
139.75169203017859
 31
0.0
  0
LINE
  5
2CBF
  8
AM_0
 10
268.91855186281248
 20
153.75169303017859
 30
0.0
 11
260.9185418628125
 21
153.75169303017859
 31
0.0
  0
LINE
  5
2CC0
  8
AM_0
 10
270.91853186281242
 20
154.75169203017879
 30
0.0
 11
268.91855186281248
 21
154.75169203017879
 31
0.0
  0
LINE
  5
2CC1
  8
AM_0
 10
255.9185318628125
 20
280.60168903017882
 30
0.0
 11
270.91853186281242
 21
280.60168903017882
 31
0.0
  0
LINE
  5
2CC2
  8
AM_0
 10
255.9185318628125
 20
258.4977130301786
 30
0.0
 11
270.91853186281242
 21
258.4977130301786
 31
0.0
  0
LINE
  5
2CC3
  8
AM_0
 10
255.9185318628125
 20
179.54835403017859
 30
0.0
 11
270.91853186281242
 21
179.54835403017859
 31
0.0
  0
LINE
  5
2CC4
  8
ﾁｭｳｼﾝｾﾝ
 10
170.78238565037441
 20
219.0230410301786
 30
0.0
 11
292.21127563112162
 21
219.0230410301786
 31
0.0
  0
LINE
  5
2CC5
  8
AM_0
 10
221.91853186281261
 20
286.42512003017862
 30
0.0
 11
190.65706386281241
 21
289.16014403017869
 31
0.0
  0
ARC
  5
2CC6
  8
AM_0
 10
190.9185318628125
 20
292.14872803017852
 30
0.0
 40
3.0
 50
180.0
 51
265.00000000000028
  0
LINE
  5
2CC7
  8
AM_0
 10
239.0928428628124
 20
287.9276780301787
 30
0.0
 11
221.91853186281261
 21
286.42512003017862
 31
0.0
  0
LINE
  5
2CC8
  8
AM_0
 10
240.91853186281261
 20
292.52304103017872
 30
0.0
 11
255.9185318628125
 21
292.52304103017872
 31
0.0
  0
LINE
  5
2CC9
  8
AM_0
 10
242.7670938628126
 20
280.67304103017869
 30
0.0
 11
254.2265338628124
 21
280.67304103017869
 31
0.0
  0
ARC
  5
2CCA
  8
AM_0
 10
238.9185318628125
 20
289.92006703017859
 30
0.0
 40
2.0
 50
274.99999999999972
 51
0.0
  0
LINE
  5
2CCB
  8
AM_0
 10
280.91855186281242
 20
249.20834503017869
 30
0.0
 11
280.9201418628125
 21
249.20834503017869
 31
0.0
  0
LINE
  5
2CCC
  8
AM_0
 10
268.91855186281248
 20
284.29437703017862
 30
0.0
 11
260.9185418628125
 21
284.29437703017862
 31
0.0
  0
LINE
  5
2CCD
  8
AM_0
 10
270.91853186281242
 20
283.2943450301787
 30
0.0
 11
268.91855186281248
 21
283.2943450301787
 31
0.0
  0
LINE
  5
2CCE
  8
AM_0
 10
255.9185318628125
 20
293.02304503017882
 30
0.0
 11
260.9185418628125
 21
293.1539650301786
 31
0.0
  0
LINE
  5
2CCF
  8
AM_0
 10
177.91853186281239
 20
319.02304103017872
 30
0.0
 11
186.91853186281261
 21
319.02304103017872
 31
0.0
  0
ARC
  5
2CD0
  8
AM_0
 10
186.91853186281261
 20
318.02304103017872
 30
0.0
 40
1.0
 50
0.0
 51
90.0
  0
LINE
  5
2CD1
  8
AM_0
 10
280.91855186281242
 20
318.52306003017878
 30
0.0
 11
340.02437186281242
 21
320.07076003017858
 31
0.0
  0
LINE
  5
2CD2
  8
AM_0
 10
280.91855186281242
 20
318.52306003017878
 30
0.0
 11
272.86616186281242
 21
318.31216003017852
 31
0.0
  0
LINE
  5
2CD3
  8
AM_0
 10
268.91855186281248
 20
297.29437003017881
 30
0.0
 11
260.9185418628125
 21
297.29437003017881
 31
0.0
  0
LINE
  5
2CD4
  8
AM_0
 10
270.91853186281242
 20
298.29436003017878
 30
0.0
 11
268.91855186281248
 21
298.29436003017878
 31
0.0
  0
ARC
  5
2CD5
  8
AM_0
 10
272.9185418628125
 20
316.31284003017879
 30
0.0
 40
2.00000007
 50
91.500001000001546
 51
180.00001000000091
  0
ARC
  5
2CD6
  8
AM_0
 10
339.89351186281232
 20
325.06903003017868
 30
0.0
 40
5.0000001000000003
 50
271.50000000000261
 51
315.0
  0
LINE
  5
2CD7
  8
AM_0
 10
814.28750929834905
 20
277.02301303017862
 30
0.0
 11
810.87265729834917
 21
342.18229003017871
 31
0.0
  0
ARC
  5
2CD8
  8
AM_0
 10
696.78751429834915
 20
219.0230410301786
 30
0.0
 40
99.500004000000004
 50
29.730243000001629
 51
54.136312000000359
  0
ARC
  5
2CD9
  8
AM_0
 10
696.78751429834915
 20
247.02302803017869
 30
0.0
 40
48.0
 50
54.776849999997779
 51
125.2231400000008
  0
LINE
  5
2CDA
  8
AM_0
 10
657.02670829834949
 20
281.12695603017858
 30
0.0
 11
627.79639129834914
 21
310.35727003017882
 31
0.0
  0
LINE
  5
2CDB
  8
AM_0
 10
662.68356829834897
 20
286.78381603017863
 30
0.0
 11
633.45325129834919
 21
316.01413003017882
 31
0.0
  0
ARC
  5
2CDC
  8
AM_0
 10
696.78751429834915
 20
219.0230410301786
 30
0.0
 40
99.500004000000004
 50
125.863690000004
 51
150.26975999999931
  0
LINE
  5
2CDD
  8
AM_0
 10
579.28751029834939
 20
277.02301303017862
 30
0.0
 11
582.70236529834915
 21
342.18232003017852
 31
0.0
  0
LINE
  5
2CDE
  8
AM_0
 10
393.91853186281242
 20
247.02302803017869
 30
0.0
 11
393.91853186281242
 21
364.52305003017852
 31
0.0
  0
LINE
  5
2CDF
  8
AM_0
 10
385.91855186281248
 20
247.02302803017869
 30
0.0
 11
385.91855186281248
 21
337.62274003017859
 31
0.0
  0
LINE
  5
2CE0
  8
AM_0
 10
378.91853186281242
 20
218.25877603017869
 30
0.0
 11
378.91853186281242
 21
305.93377003017878
 31
0.0
  0
LINE
  5
2CE1
  8
AM_0
 10
366.8064218628125
 20
296.06005003017862
 30
0.0
 11
362.38568186281231
 21
253.4561800301785
 31
0.0
  0
LINE
  5
2CE2
  8
AM_0
 10
730.89144229834949
 20
286.78381603017863
 30
0.0
 11
760.1217592983495
 21
316.01413003017882
 31
0.0
  0
LINE
  5
2CE3
  8
AM_0
 10
736.54831729834905
 20
281.12695603017858
 30
0.0
 11
765.7786282983493
 21
310.35727003017882
 31
0.0
  0
LINE
  5
2CE4
  8
ﾁｭｳｼﾝｾﾝ
 10
696.78751429834915
 20
114.2522950301787
 30
0.0
 11
696.78751429834915
 21
370.51767933228081
 31
0.0
  0
CIRCLE
  5
2CE5
  8
AM_0
 10
696.78751429834915
 20
247.02302803017869
 30
0.0
 40
105.00000299999979
  0
CIRCLE
  5
2CE6
  8
AM_0
 10
696.78751429834915
 20
247.02302803017869
 30
0.0
 40
99.000003000000021
  0
LINE
  5
2CE7
  8
AM_0
 10
397.91855186281242
 20
142.0230250301785
 30
0.0
 11
397.91855186281242
 21
352.02304003017878
 31
0.0
  0
ARC
  5
2CE8
  8
AM_0
 10
696.78751429834915
 20
247.02302803017869
 30
0.0
 40
16.000000499999999
 50
108.2099599999986
 51
71.790051999998809
  0
ARC
  5
2CE9
  8
AM_0
 10
696.78751429834915
 20
247.02302803017869
 30
0.0
 40
16.000000499999999
 50
108.2099599999986
 51
71.790051999998809
  0
CIRCLE
  5
2CEA
  8
AM_0
 10
696.78751429834915
 20
247.02302803017869
 30
0.0
 40
29.000001000000001
  0
LINE
  5
2CEB
  8
ﾁｭｳｼﾝｾﾝ
 10
638.71059780823134
 20
219.0230410301786
 30
0.0
 11
755.53394491851759
 21
219.0230410301786
 31
0.0
  0
LINE
  5
2CEC
  8
ﾁｭｳｼﾝｾﾝ
 10
574.11984529834945
 20
247.02302803017869
 30
0.0
 11
818.59724629834943
 21
247.02302803017869
 31
0.0
  0
LINE
  5
2CED
  8
AM_0
 10
696.78751429834915
 20
129.5230240301787
 30
0.0
 11
726.78751429834915
 21
129.5230240301787
 31
0.0
  0
ARC
  5
2CEE
  8
AM_0
 10
696.78751429834915
 20
219.0230410301786
 30
0.0
 40
99.500004000000004
 50
242.88566000000239
 51
297.11435000000108
  0
LINE
  5
2CEF
  8
AM_0
 10
378.91853186281242
 20
132.10580203017861
 30
0.0
 11
378.91853186281242
 21
182.33375503017851
 31
0.0
  0
LINE
  5
2CF0
  8
AM_0
 10
393.91853186281242
 20
129.5230240301787
 30
0.0
 11
393.91853186281242
 21
247.02302803017869
 31
0.0
  0
LINE
  5
2CF1
  8
AM_0
 10
385.91855186281248
 20
155.6550430301786
 30
0.0
 11
385.91855186281248
 21
247.02302803017869
 31
0.0
  0
LINE
  5
2CF2
  8
AM_0
 10
366.15548186281251
 20
117.2910220301786
 30
0.0
 11
386.91854186281239
 21
129.27857803017869
 31
0.0
  0
LINE
  5
2CF3
  8
AM_0
 10
382.02326186281232
 20
129.1076350301787
 30
0.0
 11
393.91850186281232
 21
129.5230240301787
 31
0.0
  0
ARC
  5
2CF4
  8
AM_0
 10
381.9185318628123
 20
132.10580203017861
 30
0.0
 40
3.0
 50
179.9999899999988
 51
271.99999000000139
  0
LINE
  5
2CF5
  8
AM_0
 10
381.20309186281241
 20
152.5933060301785
 30
0.0
 11
383.02325186281251
 21
152.65687603017869
 31
0.0
  0
ARC
  5
2CF6
  8
AM_0
 10
382.91855186281242
 20
155.6550430301786
 30
0.0
 40
3.0
 50
271.99999999999687
 51
0.0
  0
LINE
  5
2CF7
  8
AM_0
 10
393.91853186281242
 20
142.0230250301785
 30
0.0
 11
397.91855186281242
 21
142.0230250301785
 31
0.0
  0
LINE
  5
2CF8
  8
AM_0
 10
455.9185418628125
 20
266.02301203017862
 30
0.0
 11
410.9185118628123
 21
266.02301203017862
 31
0.0
  0
LINE
  5
2CF9
  8
AM_0
 10
455.9185418628125
 20
231.0230410301786
 30
0.0
 11
397.91855186281242
 21
231.0230410301786
 31
0.0
  0
LINE
  5
2CFA
  8
AM_0
 10
455.9185418628125
 20
263.02301203017862
 30
0.0
 11
397.91855186281242
 21
263.02301203017862
 31
0.0
  0
ARC
  5
2CFB
  8
AM_0
 10
402.17201186281233
 20
249.32779003017851
 30
0.0
 40
40.000001999999981
 50
174.0759799999995
 51
234.45533999999751
  0
ARC
  5
2CFC
  8
AM_0
 10
381.9185318628123
 20
182.33375503017851
 30
0.0
 40
3.0
 50
90.00000299999769
 51
180.00001000000091
  0
LINE
  5
2CFD
  8
AM_0
 10
381.9185318628123
 20
185.33375503017871
 30
0.0
 11
385.91855186281248
 21
185.33375503017871
 31
0.0
  0
ARC
  5
2CFE
  8
AM_0
 10
381.9185318628123
 20
218.25877603017869
 30
0.0
 40
3.0
 50
179.9999899999988
 51
270.0
  0
LINE
  5
2CFF
  8
AM_0
 10
381.9185318628123
 20
215.25877603017861
 30
0.0
 11
385.91855186281248
 21
215.25877603017861
 31
0.0
  0
LINE
  5
2D00
  8
AM_0
 10
410.9185118628123
 20
263.02301203017862
 30
0.0
 11
410.9185118628123
 21
266.02301203017862
 31
0.0
  0
LINE
  5
2D01
  8
AM_0
 10
455.9185418628125
 20
231.0230410301786
 30
0.0
 11
455.9185418628125
 21
266.02301203017862
 31
0.0
  0
LINE
  5
2D02
  8
AM_0
 10
579.28748029834924
 20
217.02302803017881
 30
0.0
 11
582.70233529834923
 21
151.86373903017861
 31
0.0
  0
ARC
  5
2D03
  8
ﾁｭｳｼﾝｾﾝ1
 10
696.78751429834915
 20
247.02302803017869
 30
0.0
 40
135.00000299999991
 50
218.3683900000002
 51
232.25634999999781
  0
LINE
  5
2D04
  8
AM_0
 10
666.7874962983492
 20
129.5230240301787
 30
0.0
 11
601.62824029834928
 21
132.93787903017881
 31
0.0
  0
ARC
  5
2D05
  8
AM_0
 10
602.67496129834944
 20
152.91047503017859
 30
0.0
 40
20.000000700000001
 50
183.00000999999961
 51
267.0000000000008
  0
CIRCLE
  5
2D06
  8
AM_0
 10
601.32809929834957
 20
151.5636130301786
 30
0.0
 40
7.5000002999999982
  0
LINE
  5
2D07
  8
ﾁｭｳｼﾝｾﾝ1
 10
610.39119928460923
 20
160.62671569821299
 30
0.0
 11
591.68611433439526
 21
141.9216286148949
 31
0.0
  0
LINE
  5
2D08
  8
AM_0
 10
696.78751429834915
 20
129.5230240301787
 30
0.0
 11
666.7874962983492
 21
129.5230240301787
 31
0.0
  0
LINE
  5
2D09
  8
AM_0
 10
643.78749529834897
 20
204.0230410301786
 30
0.0
 11
610.81076629834922
 21
204.0230410301786
 31
0.0
  0
LINE
  5
2D0A
  8
AM_0
 10
579.28751029834939
 20
247.02302803017869
 30
0.0
 11
579.28751029834939
 21
217.02302803017881
 31
0.0
  0
ARC
  5
2D0B
  8
AM_0
 10
696.78751429834915
 20
219.0230410301786
 30
0.0
 40
93.500003999999976
 50
162.1467900000001
 51
183.00788
  0
ARC
  5
2D0C
  8
AM_0
 10
610.81076629834922
 20
209.02302703017861
 30
0.0
 40
5.0000001000000003
 50
203.8444700000006
 51
270.0
  0
ARC
  5
2D0D
  8
AM_0
 10
696.78751429834915
 20
247.02302803017869
 30
0.0
 40
89.000003999999961
 50
166.12423000000109
 51
179.5717700000001
  0
LINE
  5
2D0E
  8
AM_0
 10
579.28751029834939
 20
247.02302803017869
 30
0.0
 11
579.28751029834939
 21
277.02301303017862
 31
0.0
  0
LINE
  5
2D0F
  8
AM_0
 10
648.78749629834886
 20
247.02302803017869
 30
0.0
 11
648.78749629834886
 21
209.02302703017861
 31
0.0
  0
ARC
  5
2D10
  8
AM_0
 10
643.78749529834897
 20
209.02302703017861
 30
0.0
 40
5.0000001000000003
 50
270.0
 51
0.0
  0
ARC
  5
2D11
  8
AM_0
 10
653.49117229834917
 20
277.59143503017862
 30
0.0
 40
5.0000001000000003
 50
324.77685000000031
 51
45.00000100000149
  0
ARC
  5
2D12
  8
AM_0
 10
696.78751429834915
 20
247.02302803017869
 30
0.0
 40
48.0
 50
144.77684000000161
 51
180.00001000000091
  0
LINE
  5
2D13
  8
AM_0
 10
691.78749829834942
 20
258.02304403017871
 30
0.0
 11
691.78749829834942
 21
266.02301203017862
 31
0.0
  0
LINE
  5
2D14
  8
AM_0
 10
701.78749729834965
 20
258.02304403017871
 30
0.0
 11
701.78749729834965
 21
266.02301203017862
 31
0.0
  0
CIRCLE
  5
2D15
  8
AM_0
 10
696.78751429834915
 20
247.02302803017869
 30
0.0
 40
2.75000007
  0
CIRCLE
  5
2D16
  8
AM_0
 10
696.78751429834915
 20
247.02302803017869
 30
0.0
 40
2.75000007
  0
CIRCLE
  5
2D17
  8
AM_0
 10
696.78751429834915
 20
247.02302803017869
 30
0.0
 40
2.75000007
  0
CIRCLE
  5
2D18
  8
AM_5
 10
696.78751429834915
 20
247.02302803017869
 30
0.0
 40
4.000000199999997
  0
POINT
  5
2D19
  8
AM_0
 10
696.78751429834915
 20
247.02302803017869
 30
0.0
  0
POINT
  5
2D1A
  8
AM_0
 10
696.78751429834915
 20
247.02302803017869
 30
0.0
  0
LINE
  5
2D1B
  8
AM_0
 10
691.78749829834942
 20
258.02304403017871
 30
0.0
 11
701.78749729834965
 21
258.02304403017871
 31
0.0
  0
ARC
  5
2D1C
  8
AM_0
 10
666.21909229834955
 20
290.31937003017862
 30
0.0
 40
5.0000001000000003
 50
225.0
 51
305.22315000000219
  0
LINE
  5
2D1D
  8
AM_0
 10
691.78749829834942
 20
266.02301203017862
 30
0.0
 11
701.78749729834965
 21
266.02301203017862
 31
0.0
  0
LINE
  5
2D1E
  8
AM_0
 10
814.28751229834916
 20
217.02302803017881
 30
0.0
 11
810.87266029834905
 21
151.86373903017861
 31
0.0
  0
CIRCLE
  5
2D1F
  8
AM_0
 10
792.24692029834932
 20
151.5636130301786
 30
0.0
 40
7.5000002999999982
  0
LINE
  5
2D20
  8
AM_0
 10
726.7874992983493
 20
129.5230240301787
 30
0.0
 11
791.94677929834916
 21
132.9378640301787
 31
0.0
  0
ARC
  5
2D21
  8
AM_0
 10
790.90006429834921
 20
152.91047503017859
 30
0.0
 40
20.000000700000001
 50
272.99999999999909
 51
357.00000000000091
  0
ARC
  5
2D22
  8
AM_0
 10
696.78751429834915
 20
219.0230410301786
 30
0.0
 40
93.500003999999976
 50
356.99211999999977
 51
17.85321299999984
  0
LINE
  5
2D23
  8
AM_0
 10
744.78750829834905
 20
247.02302803017869
 30
0.0
 11
744.78750829834905
 21
209.02302703017861
 31
0.0
  0
ARC
  5
2D24
  8
AM_0
 10
749.78750629834906
 20
209.02302703017861
 30
0.0
 40
5.0000001000000003
 50
179.9999899999988
 51
270.0
  0
ARC
  5
2D25
  8
AM_0
 10
782.76424729834935
 20
209.02302703017861
 30
0.0
 40
5.0000001000000003
 50
270.0
 51
336.1555299999992
  0
LINE
  5
2D26
  8
AM_0
 10
749.78750629834906
 20
204.0230410301786
 30
0.0
 11
782.76424729834935
 21
204.0230410301786
 31
0.0
  0
ARC
  5
2D27
  8
AM_0
 10
696.78751429834915
 20
247.02302803017869
 30
0.0
 40
48.0
 50
0.0
 51
35.223151999999843
  0
ARC
  5
2D28
  8
AM_0
 10
740.08384129834917
 20
277.59143503017862
 30
0.0
 40
5.0000001000000003
 50
135.0
 51
215.22314999999929
  0
ARC
  5
2D29
  8
AM_0
 10
727.35591829834914
 20
290.31937003017862
 30
0.0
 40
5.0000001000000003
 50
234.776859999999
 51
315.0
  0
ARC
  5
2D2A
  8
AM_0
 10
696.78751429834915
 20
247.02302803017869
 30
0.0
 40
89.000003999999961
 50
0.4282278599984297
 51
13.87576399999806
  0
LINE
  5
2D2B
  8
AM_0
 10
814.28750629834917
 20
247.02302803017869
 30
0.0
 11
814.28750629834917
 21
217.02302803017881
 31
0.0
  0
LINE
  5
2D2C
  8
AM_0
 10
814.28750629834917
 20
247.02302803017869
 30
0.0
 11
814.28750629834917
 21
277.02301303017862
 31
0.0
  0
LINE
  5
2D2D
  8
AM_0
 10
696.78751429834915
 20
364.52305003017852
 30
0.0
 11
726.78751429834915
 21
364.52305003017852
 31
0.0
  0
ARC
  5
2D2E
  8
AM_0
 10
702.78751429834915
 20
321.34726003017857
 30
0.0
 40
3.0
 50
179.9999899999988
 51
266.64419000000049
  0
ARC
  5
2D2F
  8
AM_0
 10
702.78751429834915
 20
327.53776003017862
 30
0.0
 40
3.0
 50
90.00000299999769
 51
180.00001000000091
  0
LINE
  5
2D30
  8
AM_0
 10
378.91853186281242
 20
305.93377003017878
 30
0.0
 11
378.91853186281242
 21
361.10215003017839
 31
0.0
  0
ARC
  5
2D31
  8
AM_0
 10
345.91853186281242
 20
298.22746003017852
 30
0.0
 40
21.000000600000011
 50
354.07597999999939
 51
80.875524999996657
  0
ARC
  5
2D32
  8
AM_0
 10
381.9185318628123
 20
305.93377003017878
 30
0.0
 40
3.0
 50
179.9999899999988
 51
270.0
  0
LINE
  5
2D33
  8
AM_0
 10
381.9185318628123
 20
302.93377003017878
 30
0.0
 11
385.91855186281248
 21
302.93377003017878
 31
0.0
  0
LINE
  5
2D34
  8
AM_0
 10
382.63400186281228
 20
340.61467003017862
 30
0.0
 11
382.81385186281233
 21
340.62091003017878
 31
0.0
  0
ARC
  5
2D35
  8
AM_0
 10
382.91855186281242
 20
337.62274003017859
 30
0.0
 40
3.0
 50
0.0
 51
91.999998000000545
  0
LINE
  5
2D36
  8
AM_0
 10
381.81383186281249
 20
364.1003500301785
 30
0.0
 11
393.91853186281242
 21
364.52305003017852
 31
0.0
  0
ARC
  5
2D37
  8
AM_0
 10
381.9185318628123
 20
361.10215003017839
 30
0.0
 40
3.0
 50
91.999998000000545
 51
180.00001000000091
  0
LINE
  5
2D38
  8
AM_0
 10
393.91853186281242
 20
352.02304003017878
 30
0.0
 11
397.91855186281242
 21
352.02304003017878
 31
0.0
  0
LINE
  5
2D39
  8
AM_0
 10
666.7874962983492
 20
364.52305003017852
 30
0.0
 11
601.62824029834928
 21
361.10818003017852
 31
0.0
  0
ARC
  5
2D3A
  8
AM_0
 10
602.67496129834944
 20
341.13559003017878
 30
0.0
 40
20.000000700000001
 50
92.999999000001679
 51
176.99999000000011
  0
CIRCLE
  5
2D3B
  8
AM_0
 10
601.32809929834957
 20
342.48247003017872
 30
0.0
 40
7.5000002999999982
  0
ARC
  5
2D3C
  8
AM_0
 10
636.98877529834897
 20
319.54969003017879
 30
0.0
 40
5.0000001000000003
 50
129.50581999999901
 51
225.0
  0
ARC
  5
2D3D
  8
AM_0
 10
624.26085229834905
 20
306.82174003017877
 30
0.0
 40
5.0000001000000003
 50
45.00000100000149
 51
140.49417999999881
  0
LINE
  5
2D3E
  8
AM_0
 10
699.78751429834927
 20
327.53776003017862
 30
0.0
 11
699.78751429834927
 21
321.34726003017857
 31
0.0
  0
LINE
  5
2D3F
  8
AM_0
 10
693.78751429834915
 20
327.53776003017862
 30
0.0
 11
693.78751429834915
 21
321.34726003017857
 31
0.0
  0
ARC
  5
2D40
  8
AM_0
 10
690.78751429834915
 20
321.34726003017857
 30
0.0
 40
3.0
 50
273.35581999999681
 51
0.0
  0
ARC
  5
2D41
  8
AM_0
 10
696.78751429835086
 20
219.0230410301487
 30
0.0
 40
99.500004000030003
 50
93.355817999997441
 51
121.1614999999983
  0
ARC
  5
2D42
  8
AM_0
 10
690.78751429834915
 20
327.53776003017862
 30
0.0
 40
3.0
 50
0.0
 51
90.00000299999769
  0
LINE
  5
2D43
  8
AM_0
 10
696.78751429834915
 20
364.52305003017852
 30
0.0
 11
666.7874962983492
 21
364.52305003017852
 31
0.0
  0
CIRCLE
  5
2D44
  8
AM_0
 10
792.24692029834932
 20
342.48247003017872
 30
0.0
 40
7.5000002999999982
  0
LINE
  5
2D45
  8
ﾁｭｳｼﾝｾﾝ1
 10
782.2922585008821
 20
332.5277601542308
 30
0.0
 11
802.56193728527842
 21
352.79741907286052
 31
0.0
  0
ARC
  5
2D46
  8
ﾁｭｳｼﾝｾﾝ1
 10
696.78751429834915
 20
247.02302803017869
 30
0.0
 40
135.00000299999991
 50
38.36839300000004
 51
52.256345999996789
  0
LINE
  5
2D47
  8
AM_0
 10
726.78751429834915
 20
364.52302003017883
 30
0.0
 11
791.94677929834916
 21
361.10815003017871
 31
0.0
  0
ARC
  5
2D48
  8
AM_0
 10
696.78751429834915
 20
219.0230410301786
 30
0.0
 40
99.500004000000004
 50
58.838493999997567
 51
86.644180000003075
  0
ARC
  5
2D49
  8
AM_0
 10
756.58622929834905
 20
319.54969003017879
 30
0.0
 40
5.0000001000000003
 50
315.0
 51
50.49418200000094
  0
ARC
  5
2D4A
  8
AM_0
 10
769.31414029834912
 20
306.82174003017877
 30
0.0
 40
5.0000001000000003
 50
39.505817999999088
 51
135.0
  0
ARC
  5
2D4B
  8
AM_0
 10
790.90006429834921
 20
341.13559003017878
 30
0.0
 40
20.000000700000001
 50
3.0000000999988461
 51
86.99999899999699
  0
LINE
  5
2D4C
  8
AM_0
 10
187.9184818628124
 20
674.29293396563287
 30
0.0
 11
187.9184818628124
 21
476.29293396563281
 31
0.0
  0
LINE
  5
2D4D
  8
AM_0
 10
177.91848186281251
 20
475.2929339656327
 30
0.0
 11
177.91848186281251
 21
675.29293396563276
 31
0.0
  0
LINE
  5
2D4E
  8
AM_0
 10
177.91848186281251
 20
475.2929339656327
 30
0.0
 11
186.9184818628124
 21
475.2929339656327
 31
0.0
  0
ARC
  5
2D4F
  8
AM_0
 10
186.9184818628124
 20
476.29293396563281
 30
0.0
 40
1.0
 50
270.0
 51
0.0
  0
LINE
  5
2D50
  8
AM_0
 10
221.91848186281251
 20
513.44817896563268
 30
0.0
 11
221.91848186281251
 21
636.76934596563285
 31
0.0
  0
LINE
  5
2D51
  8
AM_0
 10
240.91848186281251
 20
648.79293396563298
 30
0.0
 11
240.91848186281251
 21
501.79293396563281
 31
0.0
  0
LINE
  5
2D52
  8
AM_0
 10
239.0927928628125
 20
506.38829796563277
 30
0.0
 11
221.91848186281251
 21
507.8908549656328
 31
0.0
  0
LINE
  5
2D53
  8
AM_0
 10
221.91848186281251
 20
507.8908549656328
 30
0.0
 11
190.65701386281239
 21
505.15583096563279
 31
0.0
  0
ARC
  5
2D54
  8
AM_0
 10
190.9184818628124
 20
502.16724696563278
 30
0.0
 40
3.0
 50
94.99999999999973
 51
180.0
  0
LINE
  5
2D55
  8
AM_0
 10
240.91848186281251
 20
501.79293396563281
 30
0.0
 11
255.9184818628124
 21
501.79293396563281
 31
0.0
  0
ARC
  5
2D56
  8
AM_0
 10
238.91848186281251
 20
504.395907965633
 30
0.0
 40
2.0
 50
0.0
 51
85.000000000000256
  0
LINE
  5
2D57
  8
AM_0
 10
242.76704386281281
 20
513.64293396563289
 30
0.0
 11
254.2264838628125
 21
513.64293396563289
 31
0.0
  0
LINE
  5
2D58
  8
AM_0
 10
239.0927928628125
 20
644.19757096563285
 30
0.0
 11
221.91848186281251
 21
642.69501296563305
 31
0.0
  0
LINE
  5
2D59
  8
AM_0
 10
221.91848186281251
 20
642.69501296563305
 30
0.0
 11
190.65701386281239
 21
645.43003696563301
 31
0.0
  0
ARC
  5
2D5A
  8
AM_0
 10
190.9184818628124
 20
648.41862096563295
 30
0.0
 40
3.0
 50
180.0
 51
265.00000000000028
  0
LINE
  5
2D5B
  8
AM_0
 10
177.91848186281251
 20
675.29293396563276
 30
0.0
 11
186.9184818628124
 21
675.29293396563276
 31
0.0
  0
ARC
  5
2D5C
  8
AM_0
 10
186.9184818628124
 20
674.29293396563287
 30
0.0
 40
1.0
 50
0.0
 51
90.0
  0
LINE
  5
2D5D
  8
AM_0
 10
242.76704386281281
 20
636.94293396563285
 30
0.0
 11
254.2264838628125
 21
636.94293396563285
 31
0.0
  0
ARC
  5
2D5E
  8
AM_0
 10
238.91848186281251
 20
646.18995996563285
 30
0.0
 40
2.0
 50
274.99999999999972
 51
0.0
  0
LINE
  5
2D5F
  8
AM_0
 10
240.91848186281251
 20
648.79293396563298
 30
0.0
 11
255.9184818628124
 21
648.79293396563298
 31
0.0
  0
ARC
  5
2D60
  8
ﾁｭｳｼﾝｾﾝ1
 10
696.78751429834915
 20
247.02302803017869
 30
0.0
 40
135.00000299999991
 50
127.743654000003
 51
141.6316069999998
  0
LINE
  5
2D61
  8
ﾁｭｳｼﾝｾﾝ1
 10
611.28277009581632
 20
332.5277601542308
 30
0.0
 11
591.01309131142034
 21
352.79741907286052
 31
0.0
  0
ARC
  5
2D62
  8
ﾁｭｳｼﾝｾﾝ1
 10
696.78751429834915
 20
247.02302803017869
 30
0.0
 40
135.00000299999991
 50
307.74365000000199
 51
321.63160999999963
  0
LINE
  5
2D63
  8
ﾁｭｳｼﾝｾﾝ1
 10
783.18382931208953
 20
160.62671569821299
 30
0.0
 11
801.88891426230339
 21
141.9216286148949
 31
0.0
  0
LINE
  5
2D64
  8
AM_0
 10
242.7670938628126
 20
179.47701403017851
 30
0.0
 11
254.2265338628124
 21
179.47701403017851
 31
0.0
  0
LINE
  5
2D65
  8
AM_0
 10
242.7670938628126
 20
258.42637303017852
 30
0.0
 11
254.2265338628124
 21
258.42637303017852
 31
0.0
  0
LINE
  5
2D66
  8
AM_0
 10
242.76704386281281
 20
535.74692396563285
 30
0.0
 11
254.2264838628125
 21
535.74692396563285
 31
0.0
  0
LINE
  5
2D67
  8
AM_0
 10
242.76704386281281
 20
614.69626396563274
 30
0.0
 11
254.2264838628125
 21
614.69626396563274
 31
0.0
  0
TEXT
  5
2F55
  8
AM_0
 10
599.61090992844856
 20
605.50143817012486
 30
0.0
 40
15.0
  1
VX15-003AF~VX15-030AF
  0
ENDSEC
  0
EOF
