  0
SECTION
  2
HEADER
  9
$ACADVER
  1
AC1009
  9
$INSBASE
 10
0.0
 20
0.0
 30
0.0
  9
$EXTMIN
 10
242.0828664478413
 20
170.33233877775771
 30
-0.0000000000112498
  9
$EXTMAX
 10
986.04324621211617
 20
759.53712659484825
 30
0.0000000000002956
  9
$LIMMIN
 10
0.0
 20
0.0
  9
$LIMMAX
 10
1422.5
 20
925.0
  9
$ORTHOMODE
 70
     0
  9
$REGENMODE
 70
     1
  9
$FILLMODE
 70
     1
  9
$QTEXTMODE
 70
     0
  9
$MIRRTEXT
 70
     1
  9
$DRAGMODE
 70
     2
  9
$LTSCALE
 40
5.0
  9
$OSMODE
 70
   551
  9
$ATTMODE
 70
     1
  9
$TEXTSIZE
 40
2.5
  9
$TRACEWID
 40
1.0
  9
$TEXTSTYLE
  7
STANDARD
  9
$CLAYER
  8
AM_0
  9
$CELTYPE
  6
BYLAYER
  9
$CECOLOR
 62
   256
  9
$DIMSCALE
 40
1.0
  9
$DIMASZ
 40
2.5
  9
$DIMEXO
 40
1.0
  9
$DIMDLI
 40
8.0
  9
$DIMRND
 40
0.0
  9
$DIMDLE
 40
0.0
  9
$DIMEXE
 40
0.6
  9
$DIMTP
 40
0.1
  9
$DIMTM
 40
0.1
  9
$DIMTXT
 40
2.5
  9
$DIMCEN
 40
0.0
  9
$DIMTSZ
 40
0.0
  9
$DIMTOL
 70
     0
  9
$DIMLIM
 70
     0
  9
$DIMTIH
 70
     0
  9
$DIMTOH
 70
     0
  9
$DIMSE1
 70
     0
  9
$DIMSE2
 70
     0
  9
$DIMTAD
 70
     1
  9
$DIMZIN
 70
     8
  9
$DIMBLK
  1

  9
$DIMASO
 70
     1
  9
$DIMSHO
 70
     1
  9
$DIMPOST
  1

  9
$DIMAPOST
  1
"
  9
$DIMALT
 70
     0
  9
$DIMALTD
 70
     2
  9
$DIMALTF
 40
0.0393701
  9
$DIMLFAC
 40
1.0
  9
$DIMTOFL
 70
     1
  9
$DIMTVP
 40
0.0
  9
$DIMTIX
 70
     0
  9
$DIMSOXD
 70
     0
  9
$DIMSAH
 70
     0
  9
$DIMBLK1
  1

  9
$DIMBLK2
  1

  9
$DIMSTYLE
  2
AM_ISO
  9
$DIMCLRD
 70
   256
  9
$DIMCLRE
 70
   256
  9
$DIMCLRT
 70
     4
  9
$DIMTFAC
 40
0.71
  9
$DIMGAP
 40
0.8
  9
$LUNITS
 70
     2
  9
$LUPREC
 70
     2
  9
$SKETCHINC
 40
1.0
  9
$FILLETRAD
 40
25.0
  9
$AUNITS
 70
     0
  9
$AUPREC
 70
     0
  9
$MENU
  1
.
  9
$ELEVATION
 40
0.0
  9
$PELEVATION
 40
0.0
  9
$THICKNESS
 40
0.0
  9
$LIMCHECK
 70
     0
  9
$BLIPMODE
 70
     0
  9
$CHAMFERA
 40
10.0
  9
$CHAMFERB
 40
5.0
  9
$SKPOLY
 70
     0
  9
$TDCREATE
 40
2452066.5636696988
  9
$TDUPDATE
 40
2458541.5465138308
  9
$TDINDWG
 40
0.1961690046
  9
$TDUSRTIMER
 40
0.1961688079
  9
$USRTIMER
 70
     1
  9
$ANGBASE
 50
0.0
  9
$ANGDIR
 70
     0
  9
$PDMODE
 70
     0
  9
$PDSIZE
 40
0.0
  9
$PLINEWID
 40
0.0
  9
$COORDS
 70
     1
  9
$SPLFRAME
 70
     0
  9
$SPLINETYPE
 70
     6
  9
$SPLINESEGS
 70
     8
  9
$ATTDIA
 70
     1
  9
$ATTREQ
 70
     1
  9
$HANDLING
 70
     1
  9
$HANDSEED
  5
310E
  9
$SURFTAB1
 70
     6
  9
$SURFTAB2
 70
     6
  9
$SURFTYPE
 70
     6
  9
$SURFU
 70
     6
  9
$SURFV
 70
     6
  9
$UCSNAME
  2

  9
$UCSORG
 10
0.0
 20
0.0
 30
0.0
  9
$UCSXDIR
 10
1.0
 20
0.0
 30
0.0
  9
$UCSYDIR
 10
0.0
 20
1.0
 30
0.0
  9
$PUCSNAME
  2

  9
$PUCSORG
 10
0.0
 20
0.0
 30
0.0
  9
$PUCSXDIR
 10
1.0
 20
0.0
 30
0.0
  9
$PUCSYDIR
 10
0.0
 20
1.0
 30
0.0
  9
$USERI1
 70
     0
  9
$USERI2
 70
     0
  9
$USERI3
 70
     0
  9
$USERI4
 70
     0
  9
$USERI5
 70
     0
  9
$USERR1
 40
0.0
  9
$USERR2
 40
0.0
  9
$USERR3
 40
0.0
  9
$USERR4
 40
0.0
  9
$USERR5
 40
0.0
  9
$WORLDVIEW
 70
     1
  9
$SHADEDGE
 70
     3
  9
$SHADEDIF
 70
    70
  9
$TILEMODE
 70
     1
  9
$MAXACTVP
 70
    64
  9
$PLIMCHECK
 70
     0
  9
$PEXTMIN
 10
1.0000000000000000E+020
 20
1.0000000000000000E+020
 30
1.0000000000000000E+020
  9
$PEXTMAX
 10
-1.0000000000000000E+020
 20
-1.0000000000000000E+020
 30
-1.0000000000000000E+020
  9
$PLIMMIN
 10
0.0
 20
0.0
  9
$PLIMMAX
 10
420.0
 20
297.0
  9
$UNITMODE
 70
     0
  9
$VISRETAIN
 70
     1
  9
$PLINEGEN
 70
     0
  9
$PSLTSCALE
 70
     1
  0
ENDSEC
  0
SECTION
  2
TABLES
  0
TABLE
  2
VPORT
 70
     1
  0
VPORT
  2
*ACTIVE
 70
     0
 10
0.0
 20
0.0
 11
1.0
 21
1.0
 12
614.06305632997874
 22
464.93473268630299
 13
0.0
 23
0.0
 14
12.5
 24
12.5
 15
50.0
 25
50.0
 16
0.0
 26
0.0
 36
1.0
 17
0.0
 27
0.0
 37
0.0
 40
593.2496719439813
 41
1.7571592210767459
 42
50.0
 43
0.0
 44
0.0
 50
0.0
 51
0.0
 71
     0
 72
   100
 73
     1
 74
     3
 75
     0
 76
     0
 77
     0
 78
     0
  0
ENDTAB
  0
TABLE
  2
LTYPE
 70
    25
  0
LTYPE
  2
CONTINUOUS
 70
     0
  3
Solid line
 72
    65
 73
     0
 40
0.0
  0
LTYPE
  2
AM_ISO02W050
 70
     0
  3
__ __ __ __ __ __ __ __ __ __ __ __ __ __ __
 72
    65
 73
     2
 40
7.5
 49
6.0
 49
-1.5
  0
LTYPE
  2
AM_ISO08W050
 70
     0
  3
____ . ____ . ____ . ____ . ____ . ____ . ____
 72
    65
 73
     4
 40
18.0
 49
12.0
 49
-1.5
 49
3.0
 49
-1.5
  0
LTYPE
  2
AM_ISO09W050
 70
     0
  3
_____ . . _____ . . _____ . . ____ .. ____
 72
    65
 73
     6
 40
22.5
 49
12.0
 49
-1.5
 49
3.0
 49
-1.5
 49
3.0
 49
-1.5
  0
LTYPE
  2
AMCONSTR
 70
     0
  3
_______________________
 72
    65
 73
     2
 40
9999.0
 49
9999.0
 49
0.0
  0
LTYPE
  2
AM_ISO08W050X2
 70
     0
  3
__ . __ . __ . __ . __ . __
 72
    65
 73
     4
 40
9.0
 49
6.0
 49
-0.75
 49
1.5
 49
-0.75
  0
LTYPE
  2
AM_ISO02W050X2
 70
     0
  3
 _ _ _ _ _ _ _ _ _ _ _ _
 72
    65
 73
     2
 40
3.75
 49
3.0
 49
-0.75
  0
LTYPE
  2
AMZIGZAG
 70
     0
  3
/\/-/\/-/\/-/\/-/\/-/\/
 72
    65
 73
     2
 40
11.000099999999991
 49
0.0001
 49
-11.0
  0
LTYPE
  2
ACISOWELD
 70
     0
  3
_ _ _ _ _
 72
    65
 73
     2
 40
2.0
 49
2.0
 49
-1.0
  0
LTYPE
  2
ACISOTGB
 70
     0
  3
__ . . __ . .
 72
    65
 73
     6
 40
9.0
 49
4.0
 49
-1.0
 49
1.0
 49
-1.0
 49
1.0
 49
-1.0
  0
LTYPE
  2
ACISOTGL
 70
     0
  3
_ _ _ _ _
 72
    65
 73
     2
 40
3.0
 49
2.0
 49
-1.0
  0
LTYPE
  2
CENTER
 70
     0
  3
__ . __
 72
    65
 73
     4
 40
7.0
 49
4.0
 49
-1.0
 49
1.0
 49
-1.0
  0
LTYPE
  2
PHANTOM2
 70
     0
  3
Phantom (.5x) ___ _ _ ___ _ _ ___ _ _ ___ _ _
 72
    65
 73
     6
 40
31.75
 49
15.875
 49
-3.174999999999998
 49
3.174999999999998
 49
-3.174999999999998
 49
3.174999999999998
 49
-3.174999999999998
  0
LTYPE
  2
ACANSTGBM
 70
     0
  3
__ . . __ . .
 72
    65
 73
     6
 40
9.0
 49
4.0
 49
-1.0
 49
1.0
 49
-1.0
 49
1.0
 49
-1.0
  0
LTYPE
  2
ACANSTGLM
 70
     0
  3
_ _ _ _ _
 72
    65
 73
     2
 40
3.0
 49
2.0
 49
-1.0
  0
LTYPE
  2
GEN7A
 70
     0
  3
__ . __ . __
 72
    65
 73
     4
 40
7.375
 49
4.75
 49
-0.875
 49
0.875
 49
-0.875
  0
LTYPE
  2
ACJISTGB
 70
     0
  3
__ . . __ . .
 72
    65
 73
     6
 40
9.0
 49
4.0
 49
-1.0
 49
1.0
 49
-1.0
 49
1.0
 49
-1.0
  0
LTYPE
  2
ACJISTGL
 70
     0
  3
_ _ _ _ _
 72
    65
 73
     2
 40
3.0
 49
2.0
 49
-1.0
  0
LTYPE
  2
HIDDEN
 70
     0
  3
Hidden __ __ __ __ __ __ __ __ __ __ __ __ __ _
 72
    65
 73
     2
 40
0.375
 49
0.25
 49
-0.125
  0
LTYPE
  2
CENTER2
 70
     0
  3
Center (.5x) ___ _ ___ _ ___ _ ___ _ ___ _ ___
 72
    65
 73
     4
 40
1.125
 49
0.75
 49
-0.125
 49
0.125
 49
-0.125
  0
LTYPE
  2
HIDDEN2
 70
     0
  3
Hidden (.5x) _ _ _ _ _ _ _ _ _ _ _ _ _ _ _ _ _
 72
    65
 73
     2
 40
0.1875
 49
0.125
 49
-0.0625
  0
LTYPE
  2
AMZIGZAG2
 70
     0
  3
/\/-/\/-/\/-/\/-/\/-/\/
 72
    65
 73
     2
 40
0.4401
 49
0.0001
 49
-0.4400000000000002
  0
LTYPE
  2
ACANSTGB
 70
     0
  3
__ . . __ . .
 72
    65
 73
     6
 40
0.35433070866
 49
0.15748031496
 49
-0.03937007874
 49
0.03937007874
 49
-0.03937007874
 49
0.03937007874
 49
-0.03937007874
  0
LTYPE
  2
ACANSTGL
 70
     0
  3
_ _ _ _ _
 72
    65
 73
     2
 40
0.11811023622
 49
0.07874015748
 49
-0.03937007874
  0
ENDTAB
  0
TABLE
  2
LAYER
 70
     5
  0
LAYER
  2
0
 70
     0
 62
     7
  6
CONTINUOUS
  0
LAYER
  2
AM_0
 70
     0
 62
     7
  6
CONTINUOUS
  0
LAYER
  2
AM_5
 70
     0
 62
     2
  6
CONTINUOUS
  0
LAYER
  2
DEFPOINTS
 70
     0
 62
     7
  6
CONTINUOUS
  0
LAYER
  2
ﾁｭｳｼﾝｾﾝ1
 70
     0
 62
     1
  6
GEN7A
  0
ENDTAB
  0
TABLE
  2
STYLE
 70
     9
  0
STYLE
  2
STANDARD
 70
     0
 40
0.0
 41
0.8299999999999999
 50
0.0
 71
     0
 42
2.5
  3
txt.shx
  4
bigfont.shx
  0
STYLE
  2
ANNOTATIVE
 70
     0
 40
0.0
 41
1.0
 50
0.0
 71
     0
 42
0.2
  3
txt
  4

  0
STYLE
  2

 70
     1
 40
0.0
 41
1.0
 50
0.0
 71
     0
 42
2.5
  3
ltypeshp.shx
  4

  0
STYLE
  2
ACISOTS
 70
     0
 40
1.0
 41
1.0
 50
0.0
 71
     0
 42
2.5
  3
isocp.shx
  4
extfont.shx
  0
STYLE
  2
ACISOGDT
 70
     0
 40
0.0
 41
1.0
 50
0.0
 71
     0
 42
2.5
  3
amgdt.shx
  4

  0
STYLE
  2
ACANSTS
 70
     0
 40
1.0
 41
1.0
 50
0.0
 71
     0
 42
2.5
  3
romans.shx
  4
bigfont.shx
  0
STYLE
  2
ACANSGDT
 70
     0
 40
0.0
 41
1.0
 50
0.0
 71
     0
 42
2.5
  3
amgdt.shx
  4

  0
STYLE
  2
ACJISTS
 70
     0
 40
1.0
 41
1.0
 50
0.0
 71
     0
 42
2.5
  3
isocp.shx
  4
bigfont.shx
  0
STYLE
  2
ACJISGDT
 70
     0
 40
0.0
 41
1.0
 50
0.0
 71
     0
 42
2.5
  3
amgdt.shx
  4

  0
ENDTAB
  0
TABLE
  2
VIEW
 70
     6
  0
VIEW
  2
AM_VIEW1
 70
     0
 40
462.5
 10
416.07965009208078
 20
693.75
 41
832.15930018416213
 11
0.0
 21
0.0
 31
1.0
 12
0.0
 22
0.0
 32
0.0
 42
50.0
 43
0.0
 44
0.0
 50
0.0
 71
     0
  0
VIEW
  2
AM_VIEW2
 70
     0
 40
462.5
 10
1006.420349907918
 20
693.75
 41
832.15930018416213
 11
0.0
 21
0.0
 31
1.0
 12
0.0
 22
0.0
 32
0.0
 42
50.0
 43
0.0
 44
0.0
 50
0.0
 71
     0
  0
VIEW
  2
AM_VIEW3
 70
     0
 40
462.5
 10
416.07965009208078
 20
231.25
 41
832.15930018416213
 11
0.0
 21
0.0
 31
1.0
 12
0.0
 22
0.0
 32
0.0
 42
50.0
 43
0.0
 44
0.0
 50
0.0
 71
     0
  0
VIEW
  2
AM_VIEW4
 70
     0
 40
462.5
 10
1006.420349907918
 20
231.25
 41
832.15930018416213
 11
0.0
 21
0.0
 31
1.0
 12
0.0
 22
0.0
 32
0.0
 42
50.0
 43
0.0
 44
0.0
 50
0.0
 71
     0
  0
VIEW
  2
AM_VIEW5
 70
     0
 40
462.5
 10
711.24999999999966
 20
462.5
 41
832.15930018416179
 11
0.0
 21
0.0
 31
1.0
 12
0.0
 22
0.0
 32
0.0
 42
50.0
 43
0.0
 44
0.0
 50
0.0
 71
     0
  0
VIEW
  2
AM_VIEW6
 70
     0
 40
924.99075000000005
 10
711.24999999999966
 20
462.5
 41
1664.3019571823199
 11
0.0
 21
0.0
 31
1.0
 12
0.0
 22
0.0
 32
0.0
 42
50.0
 43
0.0
 44
0.0
 50
0.0
 71
     0
  0
ENDTAB
  0
TABLE
  2
UCS
 70
     0
  0
ENDTAB
  0
TABLE
  2
APPID
 70
    95
  0
APPID
  2
ACAD
 70
     0
  0
APPID
  2
ACADANNOTATIVE
 70
     0
  0
APPID
  2
MCAD_NO_VIS
 70
     0
  0
APPID
  2
ACAD_TEMP_GRAPHIC
 70
     0
  0
APPID
  2
ACATTRIBSERVICES
 70
     0
  0
APPID
  2
GENIUS_GENREC_14
 70
     0
  0
APPID
  2
GENIUS_GENOBJ-N-REC_13
 70
     0
  0
APPID
  2
GENIUS_GENODEF_13
 70
     0
  0
APPID
  2
GENIUS_GENOLIS_13
 70
     0
  0
APPID
  2
GENIUS_GENOBJ-N-TIT_13
 70
     0
  0
APPID
  2
GENIUS_GENOENT_13
 70
     0
  0
APPID
  2
GENIUS_GENTITLE_13
 70
     0
  0
APPID
  2
GENIUS_GENOREF_13
 70
     0
  0
APPID
  2
GENIUS_GENSCREG_15
 70
     0
  0
APPID
  2
GENIUS_GENOBJ-N-SDF_13
 70
     0
  0
APPID
  2
GENIUS_GENFIL_13
 70
     0
  0
APPID
  2
GENIUS_GENOBJ-N-CHA_13
 70
     0
  0
APPID
  2
GENIUS_GENDTOL_13
 70
     0
  0
APPID
  2
GENIUS_GENOBJ-N-FIL_13
 70
     0
  0
APPID
  2
AD_DRAW
 70
     0
  0
APPID
  2
DESIGNERASSEMBLIES
 70
     0
  0
APPID
  2
ASURF_PCURVE_APPNAME
 70
     0
  0
APPID
  2
GENIUS_GE3SECT_13
 70
     0
  0
APPID
  2
GENIUS_GENCFG_13
 70
     0
  0
APPID
  2
GENIUS_GE3CFG0_13
 70
     0
  0
APPID
  2
GENIUS_GENCFG0_13
 70
     0
  0
APPID
  2
GENIUS_GENCFG1_13
 70
     0
  0
APPID
  2
GENIUS_GENCFG2_13
 70
     0
  0
APPID
  2
GENIUS_GENCFG3_13
 70
     0
  0
APPID
  2
GENIUS_GENCFG4_13
 70
     0
  0
APPID
  2
GENIUS_GEVCFG0_13
 70
     0
  0
APPID
  2
GENIUS_GENHINW_13
 70
     0
  0
APPID
  2
GENIUS_FIRSTVISTXT_14
 70
     0
  0
APPID
  2
GENIUS_GENOBJ-N-LEADER_13
 70
     0
  0
APPID
  2
GEV_VCCNULL_SWITCH_OFF
 70
     0
  0
APPID
  2
GENIUS_GEFCFG0_13
 70
     0
  0
APPID
  2
GENIUS_GENZVEED_13
 70
     0
  0
APPID
  2
GENIUS_GENSCREG_13
 70
     0
  0
APPID
  2
GENIUS_DUMCFG0_13
 70
     0
  0
APPID
  2
GEVID936201362
 70
     0
  0
APPID
  2
GEVDC
 70
     0
  0
APPID
  2
GEVCON
 70
     0
  0
APPID
  2
VCC
 70
     0
  0
APPID
  2
GEVPT
 70
     0
  0
APPID
  2
GEVIT
 70
     0
  0
APPID
  2
GENBH
 70
     0
  0
APPID
  2
GEVMK
 70
     0
  0
APPID
  2
GENIUS_GENBH_13
 70
     0
  0
APPID
  2
GENIUS_GENOBJ-NBEHI-BHF_13
 70
     0
  0
APPID
  2
GENIUS_GENOBJ-NBEHI-BHB_13
 70
     0
  0
APPID
  2
GENIUS_GENOBJ-F-DESC_13
 70
     0
  0
APPID
  2
GENIUS_GEFDESC_14
 70
     0
  0
APPID
  2
GENIUS_GENOBJ-F-PART_13
 70
     0
  0
APPID
  2
GENIUS_GEFSTDP_13
 70
     0
  0
APPID
  2
GENIUS_GEFPARTINS_13
 70
     0
  0
APPID
  2
GENIUS_GENTRA_14
 70
     0
  0
APPID
  2
GENIUS_GENINF13_13
 70
     0
  0
APPID
  2
GENIUS_GENOBJ-N-INFOPT_13
 70
     0
  0
APPID
  2
GENIUS_GENOBJ-N-RSSYM_13
 70
     0
  0
APPID
  2
GENIUS_GENSYMENT_13
 70
     0
  0
APPID
  2
GENIUS_GENSCSYM_13
 70
     0
  0
APPID
  2
GENIUS_GEFINFNAM_13
 70
     0
  0
APPID
  2
GENIUS_GENOBJ-N-CEN_13
 70
     0
  0
APPID
  2
GENIUS_GENOBJ-N-CRS_13
 70
     0
  0
APPID
  2
GENIUS_GENOBJ-N-CRC_13
 70
     0
  0
APPID
  2
GENIUS_GENCRC_14
 70
     0
  0
APPID
  2
GEVID942827039
 70
     0
  0
APPID
  2
GEVID942827040
 70
     0
  0
APPID
  2
GEVID942827041
 70
     0
  0
APPID
  2
GENIUS_GENOBJ-F-SCPASSM_13
 70
     0
  0
APPID
  2
GENIUS_GENDIMSH_14
 70
     0
  0
APPID
  2
GEVID942827042
 70
     0
  0
APPID
  2
GEVID946020473
 70
     0
  0
APPID
  2
GEVID946020474
 70
     0
  0
APPID
  2
GEVID946020475
 70
     0
  0
APPID
  2
GENIUS_GENOBJ-N-HTC_13
 70
     0
  0
APPID
  2
GENIUS_GENHATCH_13
 70
     0
  0
APPID
  2
GEVID948854295
 70
     0
  0
APPID
  2
GEVID939402019
 70
     0
  0
APPID
  2
GEVID952919491
 70
     0
  0
APPID
  2
GEVID952919492
 70
     0
  0
APPID
  2
GENIUS_GEFWELD_13
 70
     0
  0
APPID
  2
GENIUS_GENOBJ-F-WELS_13
 70
     0
  0
APPID
  2
GEVID952919493
 70
     0
  0
APPID
  2
GENIUS_GENOBJ-N-RSBK_13
 70
     0
  0
APPID
  2
GENIUS_GENOBJ-N-LIB_13
 70
     0
  0
APPID
  2
GENIUS_GENSCALE_13
 70
     0
  0
APPID
  2
GEVID986376691
 70
     0
  0
APPID
  2
DCO15
 70
     0
  0
APPID
  2
ACAD_DSTYLE_DIMBREAK
 70
     0
  0
APPID
  2
ACAD_DSTYLE_DIMJAG
 70
     0
  0
APPID
  2
ACAD_NAV_VCDISPLAY
 70
     0
  0
APPID
  2
ACADANNOPO
 70
     0
  0
APPID
  2
ACAD_EXEMPT_FROM_CAD_STANDARDS
 70
     0
  0
APPID
  2
ACAD_MLEADERVER
 70
     0
  0
ENDTAB
  0
TABLE
  2
DIMSTYLE
 70
    22
  0
DIMSTYLE
  2
STANDARD
 70
     0
  3

  4

  5

  6

  7

 40
1.0
 41
0.18
 42
0.0625
 43
0.38
 44
0.18
 45
0.0
 46
0.0
 47
0.0
 48
0.0
140
0.18
141
0.09
142
0.0
143
25.399999999999999
144
1.0
145
0.0
146
1.0
147
0.09
 71
     0
 72
     0
 73
     1
 74
     1
 75
     0
 76
     0
 77
     0
 78
     0
170
     0
171
     2
172
     0
173
     0
174
     0
175
     0
176
     0
177
     0
178
     0
  0
DIMSTYLE
  2
ANNOTATIVE
 70
     0
  3

  4

  5

  6

  7

 40
1.0
 41
0.18
 42
0.0625
 43
0.38
 44
0.18
 45
0.0
 46
0.0
 47
0.0
 48
0.0
140
0.18
141
0.09
142
0.0
143
25.399999999999999
144
1.0
145
0.0
146
1.0
147
0.09
 71
     0
 72
     0
 73
     1
 74
     1
 75
     0
 76
     0
 77
     0
 78
     0
170
     0
171
     2
172
     0
173
     0
174
     0
175
     0
176
     0
177
     0
178
     0
  0
DIMSTYLE
  2
AM_ISO
 70
     0
  3

  4
"
  5

  6

  7

 40
1.0
 41
2.5
 42
1.0
 43
8.0
 44
0.6
 45
0.0
 46
0.0
 47
0.1
 48
0.1
140
2.5
141
0.0
142
0.0
143
0.0393701
144
1.0
145
0.0
146
0.71
147
0.8
 71
     0
 72
     0
 73
     0
 74
     0
 75
     0
 76
     0
 77
     1
 78
     8
170
     0
171
     2
172
     1
173
     0
174
     0
175
     0
176
   256
177
   256
178
     4
  0
DIMSTYLE
  2
AM_ISO$3
 70
     0
  3

  4
"
  5

  6

  7

 40
1.0
 41
2.5
 42
1.0
 43
8.0
 44
0.6
 45
0.0
 46
0.0
 47
0.1
 48
0.1
140
2.5
141
0.0
142
0.0
143
0.0393701
144
1.0
145
0.0
146
0.71
147
0.8
 71
     0
 72
     0
 73
     0
 74
     1
 75
     0
 76
     0
 77
     1
 78
     8
170
     0
171
     2
172
     0
173
     0
174
     0
175
     0
176
   256
177
   256
178
     4
  0
DIMSTYLE
  2
AM_ISO$4
 70
     0
  3

  4
"
  5

  6

  7

 40
1.0
 41
2.5
 42
1.0
 43
8.0
 44
0.6
 45
0.0
 46
0.0
 47
0.1
 48
0.1
140
2.5
141
0.0
142
0.0
143
0.0393701
144
1.0
145
0.0
146
0.71
147
0.8
 71
     0
 72
     0
 73
     0
 74
     1
 75
     0
 76
     0
 77
     1
 78
     8
170
     0
171
     2
172
     0
173
     0
174
     0
175
     0
176
   256
177
   256
178
     4
  0
DIMSTYLE
  2
AM_ISO$6
 70
     0
  3

  4
"
  5

  6

  7

 40
1.0
 41
2.5
 42
1.0
 43
8.0
 44
0.6
 45
0.0
 46
0.0
 47
0.1
 48
0.1
140
2.5
141
0.0
142
0.0
143
0.0393701
144
1.0
145
0.0
146
0.71
147
0.8
 71
     0
 72
     0
 73
     0
 74
     0
 75
     0
 76
     0
 77
     0
 78
     8
170
     0
171
     2
172
     1
173
     0
174
     0
175
     0
176
   256
177
   256
178
     4
  0
DIMSTYLE
  2
AM_ISO$7
 70
     0
  3

  4
"
  5

  6

  7

 40
1.0
 41
2.5
 42
1.0
 43
8.0
 44
0.6
 45
0.0
 46
0.0
 47
0.1
 48
0.1
140
2.5
141
0.0
142
0.0
143
0.0393701
144
1.0
145
0.0
146
0.71
147
0.8
 71
     0
 72
     0
 73
     0
 74
     0
 75
     0
 76
     0
 77
     1
 78
     8
170
     0
171
     2
172
     1
173
     0
174
     0
175
     0
176
   256
177
   256
178
     4
  0
DIMSTYLE
  2
AM_ISO$SF
 70
     0
  3

  4
"
  5

  6

  7

 40
1.0
 41
2.5
 42
1.0
 43
10.0
 44
1.0
 45
0.0
 46
0.0
 47
0.1
 48
0.1
140
3.5
141
0.0
142
0.0
143
0.0393701
144
1.0
145
0.0
146
0.71
147
1.5
 71
     0
 72
     0
 73
     0
 74
     0
 75
     1
 76
     1
 77
     1
 78
     8
170
     0
171
     2
172
     1
173
     0
174
     0
175
     0
176
   256
177
   256
178
     2
  0
DIMSTYLE
  2
AM_ISO$SH
 70
     0
  3

  4
"
  5

  6

  7

 40
1.0
 41
2.5
 42
1.0
 43
10.0
 44
1.0
 45
0.0
 46
0.0
 47
0.1
 48
0.1
140
3.5
141
0.0
142
0.0
143
0.0393701
144
2.0
145
0.0
146
0.71
147
1.5
 71
     0
 72
     0
 73
     0
 74
     0
 75
     1
 76
     1
 77
     1
 78
     8
170
     0
171
     2
172
     1
173
     1
174
     0
175
     0
176
   256
177
   256
178
     2
  0
DIMSTYLE
  2
AM_JIS
 70
     0
  3

  4
"
  5

  6

  7

 40
1.0
 41
2.5
 42
1.0
 43
7.0
 44
1.0
 45
0.0
 46
0.0
 47
0.1
 48
0.1000000001
140
2.5
141
0.0
142
0.0
143
0.0393701
144
1.0
145
0.0
146
0.71
147
1.0
 71
     0
 72
     0
 73
     0
 74
     0
 75
     0
 76
     0
 77
     3
 78
     8
170
     0
171
     2
172
     1
173
     0
174
     0
175
     0
176
   256
177
   256
178
     4
  0
DIMSTYLE
  2
AM_JIS$3
 70
     0
  3

  4
"
  5

  6

  7

 40
1.0
 41
2.5
 42
1.0
 43
7.0
 44
1.0
 45
0.0
 46
0.0
 47
0.1
 48
0.1000000001
140
2.5
141
0.0
142
0.0
143
0.0393701
144
1.0
145
0.0
146
0.71
147
1.0
 71
     0
 72
     0
 73
     0
 74
     1
 75
     0
 76
     0
 77
     3
 78
     8
170
     0
171
     2
172
     0
173
     0
174
     0
175
     0
176
   256
177
   256
178
     4
  0
DIMSTYLE
  2
AM_JIS$4
 70
     0
  3

  4
"
  5

  6

  7

 40
1.0
 41
2.5
 42
1.0
 43
7.0
 44
1.0
 45
0.0
 46
0.0
 47
0.1
 48
0.1000000001
140
2.5
141
0.0
142
0.0
143
0.0393701
144
1.0
145
0.0
146
0.71
147
1.0
 71
     0
 72
     0
 73
     0
 74
     0
 75
     0
 76
     0
 77
     3
 78
     8
170
     0
171
     2
172
     0
173
     0
174
     0
175
     0
176
   256
177
   256
178
     4
  0
DIMSTYLE
  2
AM_JIS$6
 70
     0
  3

  4
"
  5

  6

  7

 40
1.0
 41
2.5
 42
1.0
 43
7.0
 44
1.0
 45
0.0
 46
0.0
 47
0.1
 48
0.1000000001
140
2.5
141
0.0
142
0.0
143
0.0393701
144
1.0
145
0.0
146
0.71
147
1.0
 71
     0
 72
     0
 73
     0
 74
     0
 75
     0
 76
     0
 77
     0
 78
     8
170
     0
171
     2
172
     1
173
     0
174
     0
175
     0
176
   256
177
   256
178
     4
  0
DIMSTYLE
  2
AM_JIS$7
 70
     0
  3

  4
"
  5

  6

  7

 40
1.0
 41
2.5
 42
1.0
 43
7.0
 44
1.0
 45
0.0
 46
0.0
 47
0.1
 48
0.1000000001
140
2.5
141
0.0
142
0.0
143
0.0393701
144
1.0
145
0.0
146
0.71
147
1.0
 71
     0
 72
     0
 73
     0
 74
     0
 75
     0
 76
     0
 77
     3
 78
     8
170
     0
171
     2
172
     1
173
     0
174
     0
175
     0
176
   256
177
   256
178
     4
  0
DIMSTYLE
  2
AM_JIS$SF
 70
     0
  3

  4
"
  5

  6

  7

 40
1.0
 41
2.5
 42
1.0
 43
10.0
 44
1.0
 45
0.0
 46
0.0
 47
0.1
 48
0.1
140
3.5
141
0.0
142
0.0
143
0.0393701
144
1.0
145
0.0
146
0.71
147
1.5
 71
     0
 72
     0
 73
     0
 74
     0
 75
     1
 76
     1
 77
     3
 78
     8
170
     0
171
     2
172
     1
173
     0
174
     0
175
     0
176
   256
177
   256
178
     4
  0
DIMSTYLE
  2
AM_JIS$SH
 70
     0
  3

  4
"
  5

  6

  7

 40
1.0
 41
2.5
 42
1.0
 43
10.0
 44
1.0
 45
0.0
 46
0.0
 47
0.1
 48
0.1
140
3.5
141
0.0
142
0.0
143
0.0393701
144
1.0
145
0.0
146
0.71
147
1.5
 71
     0
 72
     0
 73
     0
 74
     0
 75
     1
 76
     0
 77
     3
 78
     8
170
     0
171
     2
172
     1
173
     1
174
     0
175
     0
176
   256
177
   256
178
     4
  0
DIMSTYLE
  2
AM_ANSI
 70
     0
  3

  4
mm
  5

  6

  7

 40
1.0
 41
0.1
 42
0.05
 43
0.5
 44
0.1
 45
0.0
 46
0.0
 47
0.1
 48
0.1
140
0.12
141
0.0
142
0.0
143
25.399999999999999
144
1.0
145
0.0
146
0.71
147
0.06
 71
     0
 72
     0
 73
     1
 74
     1
 75
     0
 76
     0
 77
     0
 78
     7
170
     0
171
     2
172
     0
173
     0
174
     0
175
     0
176
   256
177
   256
178
     2
  0
DIMSTYLE
  2
AM_ANSI$3
 70
     0
  3

  4
mm
  5

  6

  7

 40
1.0
 41
0.1
 42
0.05
 43
0.5
 44
0.1
 45
0.0
 46
0.0
 47
0.1
 48
0.1
140
0.12
141
0.0
142
0.0
143
25.399999999999999
144
1.0
145
0.0
146
0.71
147
0.06
 71
     0
 72
     0
 73
     1
 74
     1
 75
     0
 76
     0
 77
     0
 78
     7
170
     0
171
     2
172
     0
173
     0
174
     0
175
     0
176
   256
177
   256
178
     2
  0
DIMSTYLE
  2
AM_ANSI$4
 70
     0
  3

  4
mm
  5

  6

  7

 40
1.0
 41
0.1
 42
0.05
 43
0.5
 44
0.1
 45
0.0
 46
0.0
 47
0.1
 48
0.1
140
0.12
141
0.0
142
0.0
143
25.399999999999999
144
1.0
145
0.0
146
0.71
147
0.06
 71
     0
 72
     0
 73
     1
 74
     1
 75
     0
 76
     0
 77
     0
 78
     7
170
     0
171
     2
172
     0
173
     0
174
     0
175
     0
176
   256
177
   256
178
     2
  0
DIMSTYLE
  2
AM_ANSI$7
 70
     0
  3

  4
mm
  5

  6

  7

 40
1.0
 41
0.1
 42
0.05
 43
0.5
 44
0.1
 45
0.0
 46
0.0
 47
0.1
 48
0.1
140
0.24
141
0.0
142
0.0
143
25.399999999999999
144
1.0
145
0.0
146
0.71
147
0.06
 71
     0
 72
     0
 73
     1
 74
     1
 75
     0
 76
     0
 77
     0
 78
     7
170
     0
171
     2
172
     0
173
     0
174
     0
175
     0
176
   256
177
   256
178
     2
  0
DIMSTYLE
  2
AM_ANSI$SF
 70
     0
  3

  4
mm
  5

  6

  7

 40
1.0
 41
0.1
 42
0.05
 43
0.5
 44
0.1
 45
0.0
 46
0.0
 47
0.1
 48
0.1
140
0.12
141
0.0
142
0.0
143
25.399999999999999
144
1.0
145
0.0
146
0.71
147
0.06
 71
     0
 72
     0
 73
     1
 74
     1
 75
     1
 76
     1
 77
     0
 78
     7
170
     0
171
     2
172
     0
173
     0
174
     0
175
     0
176
   256
177
   256
178
     2
  0
DIMSTYLE
  2
AM_ANSI$SH
 70
     0
  3

  4
mm
  5

  6

  7

 40
1.0
 41
0.1
 42
0.05
 43
0.5
 44
0.1
 45
0.0
 46
0.0
 47
0.1
 48
0.1
140
0.12
141
0.0
142
0.0
143
25.399999999999999
144
1.0
145
0.0
146
0.71
147
0.06
 71
     0
 72
     0
 73
     1
 74
     1
 75
     1
 76
     1
 77
     0
 78
     7
170
     0
171
     2
172
     0
173
     1
174
     0
175
     0
176
   256
177
   256
178
     2
  0
ENDTAB
  0
ENDSEC
  0
SECTION
  2
BLOCKS
  0
BLOCK
  8
0
  2
$MODEL_SPACE
 70
     0
 10
0.0
 20
0.0
 30
0.0
  3
$MODEL_SPACE
  1

  0
ENDBLK
  5
2F78
  8
0
  0
BLOCK
 67
     1
  8
0
  2
$PAPER_SPACE
 70
     0
 10
0.0
 20
0.0
 30
0.0
  3
$PAPER_SPACE
  1

  0
ENDBLK
  5
2F74
 67
     1
  8
0
  0
BLOCK
  8
0
  2
GENAXEH
 70
     0
 10
0.0
 20
0.0
 30
0.0
  3
GENAXEH
  1

  0
LINE
  5
2D68
  8
0
 10
-1.0
 20
0.0
 30
0.0
 11
1.0
 21
0.0
 31
0.0
  0
ENDBLK
  5
2D69
  8
0
  0
BLOCK
  8
0
  2
_OPEN30
 70
     0
 10
0.0
 20
0.0
 30
0.0
  3
_OPEN30
  1

  0
LINE
  5
2D6C
  8
0
 62
     0
 10
-1.0
 20
0.26794919
 30
0.0
 11
0.0
 21
0.0
 31
0.0
  0
LINE
  5
2D6D
  8
0
 62
     0
 10
0.0
 20
0.0
 30
0.0
 11
-1.0
 21
-0.26794919
 31
0.0
  0
LINE
  5
2D6E
  8
0
 62
     0
 10
0.0
 20
0.0
 30
0.0
 11
-1.0
 21
0.0
 31
0.0
  0
ENDBLK
  5
2D6F
  8
0
  0
BLOCK
  8
0
  2
_NONE
 70
     0
 10
0.0
 20
0.0
 30
0.0
  3
_NONE
  1

  0
ENDBLK
  5
2D72
  8
0
  0
BLOCK
  8
0
  2
*U5
 70
     1
 10
0.0
 20
0.0
 30
0.0
  3
*U5
  1

  0
TEXT
  5
2D75
  8
AM_0
 62
     4
 10
405.9741162531389
 20
372.32975089952112
 30
0.0
 40
12.5
  1
\U+2205
 50
90.0
 41
0.8299999999999999
  0
TEXT
  5
2D76
  8
AM_0
 62
     4
 10
405.9741162531389
 20
382.70475089952112
 30
0.0
 40
12.5
  1
200
 50
90.0
 41
0.8299999999999999
  0
ENDBLK
  5
2D77
  8
0
  0
BLOCK
  8
0
  2
*U6
 70
     1
 10
0.0
 20
0.0
 30
0.0
  3
*U6
  1

  0
TEXT
  5
2D7A
  8
AM_0
 62
     4
 10
438.86557558809722
 20
364.54850089952112
 30
0.0
 40
12.5
  1
\U+2205
 50
90.0
 41
0.8299999999999999
  0
TEXT
  5
2D7B
  8
AM_0
 62
     4
 10
438.86557558809722
 20
374.92350089952112
 30
0.0
 40
12.5
  1
130
 50
90.0
 41
0.8299999999999999
  0
TEXT
  5
2D7C
  8
AM_0
 62
     4
 10
438.86557558809722
 20
400.861000899521
 30
0.0
 40
10.0
  1
G7
 50
90.0
 41
0.8299999999999999
  0
ENDBLK
  5
2D7D
  8
0
  0
BLOCK
  8
0
  2
*U7
 70
     1
 10
0.0
 20
0.0
 30
0.0
  3
*U7
  1

  0
TEXT
  5
2D80
  8
AM_0
 62
     4
 10
1077.8511706164211
 20
597.06216998223033
 30
0.0
 40
12.5
  1
o
 41
0.8299999999999999
  0
TEXT
  5
2D81
  8
AM_0
 62
     4
 10
1090.202361092613
 20
597.06216998223033
 30
0.0
 40
12.5
  1
 235
 41
0.8299999999999999
  0
ENDBLK
  5
2D82
  8
0
  0
BLOCK
  8
0
  2
*U8
 70
     1
 10
0.0
 20
0.0
 30
0.0
  3
*U8
  1

  0
TEXT
  5
2D85
  8
AM_0
 62
     4
 10
855.63462073218921
 20
392.54849989952118
 30
0.0
 40
12.5
  1
\U+2205
 50
90.0
 41
0.8299999999999999
  0
TEXT
  5
2D86
  8
AM_0
 62
     4
 10
855.63462073218921
 20
402.92349989952112
 30
0.0
 40
12.5
  1
210
 50
90.0
 41
0.8299999999999999
  0
TEXT
  5
2D87
  8
AM_0
 62
     4
 10
855.63462073218921
 20
428.86099989952118
 30
0.0
 40
10.0
  1
h7
 50
90.0
 41
0.8299999999999999
  0
ENDBLK
  5
2D88
  8
0
  0
BLOCK
  8
0
  2
*U9
 70
     1
 10
0.0
 20
0.0
 30
0.0
  3
*U9
  1

  0
TEXT
  5
2D8B
  8
AM_0
 62
     4
 10
180.2092546982139
 20
257.84697938399
 30
0.0
 40
12.5
  1
\U+2205
 50
90.0
 41
0.8299999999999999
  0
TEXT
  5
2D8C
  8
AM_0
 62
     4
 10
180.2092546982139
 20
268.22197938398989
 30
0.0
 40
12.5
  1
200
 50
90.0
 41
0.8299999999999999
  0
ENDBLK
  5
2D8D
  8
0
  0
BLOCK
  8
0
  2
*U10
 70
     1
 10
0.0
 20
0.0
 30
0.0
  3
*U10
  1

  0
TEXT
  5
2D90
  8
AM_0
 62
     4
 10
213.1007140331721
 20
250.0657293839898
 30
0.0
 40
12.5
  1
\U+2205
 50
90.0
 41
0.8299999999999999
  0
TEXT
  5
2D91
  8
AM_0
 62
     4
 10
213.1007140331721
 20
260.44072938399
 30
0.0
 40
12.5
  1
130
 50
90.0
 41
0.8299999999999999
  0
TEXT
  5
2D92
  8
AM_0
 62
     4
 10
213.1007140331721
 20
286.37822938399
 30
0.0
 40
10.0
  1
G7
 50
90.0
 41
0.8299999999999999
  0
ENDBLK
  5
2D93
  8
0
  0
BLOCK
  8
0
  2
*U11
 70
     1
 10
0.0
 20
0.0
 30
0.0
  3
*U11
  1

  0
TEXT
  5
2D96
  8
AM_0
 62
     4
 10
629.86975917726375
 20
278.06572838399001
 30
0.0
 40
12.5
  1
\U+2205
 50
90.0
 41
0.8299999999999999
  0
TEXT
  5
2D97
  8
AM_0
 62
     4
 10
629.86975917726375
 20
288.44072838399001
 30
0.0
 40
12.5
  1
210
 50
90.0
 41
0.8299999999999999
  0
TEXT
  5
2D98
  8
AM_0
 62
     4
 10
629.86975917726375
 20
314.37822838399001
 30
0.0
 40
10.0
  1
h7
 50
90.0
 41
0.8299999999999999
  0
ENDBLK
  5
2D99
  8
0
  0
BLOCK
  8
0
  2
*U12
 70
     1
 10
0.0
 20
0.0
 30
0.0
  3
*U12
  1

  0
TEXT
  5
2D9C
  8
AM_0
 62
     4
 10
852.0863090614971
 20
482.57939846669939
 30
0.0
 40
12.5
  1
o
 41
0.8299999999999999
  0
TEXT
  5
2D9D
  8
AM_0
 62
     4
 10
864.43749953768759
 20
482.57939846669939
 30
0.0
 40
12.5
  1
 235
 41
0.8299999999999999
  0
ENDBLK
  5
2D9E
  8
0
  0
BLOCK
  8
0
  2
_ACMFILLEDHALF
 70
     0
 10
0.0
 20
0.0
 30
0.0
  3
_ACMFILLEDHALF
  1

  0
TRACE
  5
307C
  8
AM_0
 62
     0
 10
-0.8
 20
0.0
 30
0.0
 11
-1.0
 21
0.166666666
 31
0.0
 12
0.0
 22
0.0
 32
0.0
 13
0.0
 23
0.0
 33
0.0
  0
LINE
  5
307D
  8
AM_0
 62
     0
 10
-1.0
 20
0.0
 30
0.0
 11
-0.8
 21
0.0
 31
0.0
  0
ENDBLK
  5
307B
  8
0
  0
ENDSEC
  0
SECTION
  2
ENTITIES
  0
LINE
  5
2DA0
  8
AM_0
 10
558.80635747461429
 20
657.97864227514981
 30
0.0
 11
500.80632747461419
 21
657.97864227514981
 31
0.0
  0
LINE
  5
2DA1
  8
AM_0
 10
558.80635747461429
 20
625.9786422751497
 30
0.0
 11
500.80632747461419
 21
625.9786422751497
 31
0.0
  0
LINE
  5
2DA2
  8
AM_0
 10
513.80632747461425
 20
646.97858227514985
 30
0.0
 11
558.80635747461429
 21
646.97858227514985
 31
0.0
  0
LINE
  5
2DA3
  8
AM_0
 10
513.80632747461425
 20
636.97858227514985
 30
0.0
 11
558.80635747461429
 21
636.97858227514985
 31
0.0
  0
LINE
  5
2DA4
  8
ﾁｭｳｼﾝｾﾝ1
 10
242.17020126217611
 20
641.97858227514985
 30
0.0
 11
566.7191374746144
 21
641.97858227514985
 31
0.0
  0
POLYLINE
  5
2DA5
  8
AM_0
 66
     1
 10
0.0
 20
0.0
 30
0.0
  0
VERTEX
  5
2DA6
  8
AM_0
 10
474.47243747461431
 20
744.64471227514969
 30
0.0
 42
0.079826728
  0
VERTEX
  5
2DA7
  8
AM_0
 10
448.6306074746139
 20
677.7382722751496
 30
0.0
 42
0.10414858
  0
VERTEX
  5
2DA8
  8
AM_0
 10
448.630677474614
 20
606.21854227514962
 30
0.0
 42
0.079826255
  0
VERTEX
  5
2DA9
  8
AM_0
 10
474.47243747461431
 20
539.31247227514973
 30
0.0
  0
SEQEND
  5
2DAA
  8
AM_0
  0
LINE
  5
2DAB
  8
AM_0
 10
500.80632747461419
 20
536.97858227514985
 30
0.0
 11
500.80632747461419
 21
746.97864227514958
 31
0.0
  0
LINE
  5
2DAC
  8
AM_0
 10
496.80632747461419
 20
524.47861227514977
 30
0.0
 11
496.80632747461419
 21
759.47864227514958
 31
0.0
  0
LINE
  5
2DAD
  8
AM_0
 10
488.80632747461419
 20
551.37888227514975
 30
0.0
 11
488.80632747461419
 21
732.57837227514972
 31
0.0
  0
LINE
  5
2DAE
  8
AM_0
 10
481.80632747461402
 20
527.89948227514981
 30
0.0
 11
481.80632747461402
 21
756.05774227514974
 31
0.0
  0
LINE
  5
2DAF
  8
AM_0
 10
327.30632747461431
 20
568.47861227514954
 30
0.0
 11
327.30632747461431
 21
715.47858227514985
 31
0.0
  0
LINE
  5
2DB0
  8
AM_0
 10
361.80626747461429
 20
551.05750227514955
 30
0.0
 11
361.80626747461429
 21
732.89972227514966
 31
0.0
  0
LINE
  5
2DB1
  8
AM_0
 10
373.8062674746144
 20
576.9064022751495
 30
0.0
 11
373.8062674746144
 21
707.05084227514965
 31
0.0
  0
LINE
  5
2DB2
  8
AM_0
 10
383.8062674746144
 20
542.47861227514966
 30
0.0
 11
383.8062674746144
 21
741.47858227514973
 31
0.0
  0
LINE
  5
2DB3
  8
AM_0
 10
383.80632747461431
 20
542.47861227514966
 30
0.0
 11
472.50408747461421
 21
539.38123227514973
 31
0.0
  0
LINE
  5
2DB4
  8
AM_0
 10
327.30626747461417
 20
568.47861227514954
 30
0.0
 11
359.37615747461427
 21
567.35870227514965
 31
0.0
  0
LINE
  5
2DB5
  8
AM_0
 10
327.30626747461417
 20
580.39996227514985
 30
0.0
 11
361.80626747461429
 21
580.39996227514985
 31
0.0
  0
ARC
  5
2DB6
  8
AM_0
 10
364.80626747461429
 20
562.08859227514995
 30
0.0
 40
3.0
 50
180.00001000000091
 51
270.0
  0
ARC
  5
2DB7
  8
AM_0
 10
370.8434974746142
 20
545.05750227514977
 30
0.0
 40
3.0
 50
6.3862994000021986
 51
90.00000299999769
  0
ARC
  5
2DB8
  8
AM_0
 10
376.80626747461429
 20
545.72488227514975
 30
0.0
 40
3.0
 50
180.00001000000091
 51
267.99999999999631
  0
ARC
  5
2DB9
  8
AM_0
 10
370.80626747461429
 20
556.08859227514995
 30
0.0
 40
3.0
 50
0.0
 51
90.00000299999769
  0
LINE
  5
2DBA
  8
AM_0
 10
373.8062674746144
 20
545.72488227514975
 30
0.0
 11
373.8062674746144
 21
556.08859227514995
 31
0.0
  0
LINE
  5
2DBB
  8
AM_0
 10
364.80626747461429
 20
548.05750227514955
 30
0.0
 11
370.8434974746142
 21
548.05750227514955
 31
0.0
  0
LINE
  5
2DBC
  8
AM_0
 10
364.80626747461429
 20
559.08859227514995
 30
0.0
 11
370.80626747461429
 21
559.08859227514995
 31
0.0
  0
ARC
  5
2DBD
  8
AM_0
 10
364.80626747461429
 20
551.05750227514955
 30
0.0
 40
3.0
 50
180.00001000000091
 51
270.0
  0
LINE
  5
2DBE
  8
AM_0
 10
376.7015974746144
 20
542.72672227514965
 30
0.0
 11
383.80620747461433
 21
542.47861227514966
 31
0.0
  0
ARC
  5
2DBF
  8
AM_0
 10
370.80626747461429
 20
576.9064022751495
 30
0.0
 40
3.0
 50
270.0
 51
0.0
  0
ARC
  5
2DC0
  8
AM_0
 10
358.80626747461417
 20
564.37677227514985
 30
0.0
 40
3.0
 50
0.0
 51
87.999999999996248
  0
LINE
  5
2DC1
  8
AM_0
 10
361.80626747461429
 20
584.66104227514961
 30
0.0
 11
373.8062674746144
 21
584.66104227514961
 31
0.0
  0
LINE
  5
2DC2
  8
AM_0
 10
361.80626747461429
 20
573.90640227514962
 30
0.0
 11
370.80626747461429
 21
573.90640227514962
 31
0.0
  0
LINE
  5
2DC3
  8
AM_0
 10
327.30626747461417
 20
602.50394227514971
 30
0.0
 11
361.80626747461429
 21
602.50394227514971
 31
0.0
  0
LINE
  5
2DC4
  8
AM_0
 10
475.86513747461419
 20
537.91980227514978
 30
0.0
 11
481.80635747461389
 21
531.97858227514985
 31
0.0
  0
LINE
  5
2DC5
  8
AM_0
 10
484.70162747461433
 20
524.90131227514985
 30
0.0
 11
496.80629747461433
 21
524.47861227514977
 31
0.0
  0
ARC
  5
2DC6
  8
AM_0
 10
484.80632747461419
 20
527.89948227514981
 30
0.0
 40
3.0
 50
179.9999899999988
 51
268.00000999999861
  0
ARC
  5
2DC7
  8
AM_0
 10
484.80632747461419
 20
583.06787227514985
 30
0.0
 40
3.0
 50
90.00000299999769
 51
180.00001000000091
  0
ARC
  5
2DC8
  8
AM_0
 10
472.3295874746143
 20
534.38425227514972
 30
0.0
 40
5.0
 50
45.000001000003799
 51
87.999999999996248
  0
ARC
  5
2DC9
  8
AM_0
 10
485.80632747461402
 20
551.37888227514975
 30
0.0
 40
3.0
 50
267.99999999999631
 51
0.0
  0
LINE
  5
2DCA
  8
AM_0
 10
485.52175747461411
 20
548.38699227514985
 30
0.0
 11
485.70162747461421
 21
548.38071227514979
 31
0.0
  0
LINE
  5
2DCB
  8
AM_0
 10
496.80632747461419
 20
536.97858227514985
 30
0.0
 11
500.80632747461419
 21
536.97858227514985
 31
0.0
  0
LINE
  5
2DCC
  8
AM_0
 10
484.80632747461419
 20
586.06787227514985
 30
0.0
 11
488.80632747461419
 21
586.06787227514985
 31
0.0
  0
LINE
  5
2DCD
  8
AM_0
 10
383.80632747461431
 20
741.4786422751497
 30
0.0
 11
472.50408747461421
 21
744.5759922751497
 31
0.0
  0
ARC
  5
2DCE
  8
AM_0
 10
376.80626747461429
 20
738.23236227514974
 30
0.0
 40
3.0
 50
91.999998000000545
 51
180.00001000000091
  0
LINE
  5
2DCF
  8
AM_0
 10
327.30626747461417
 20
681.45331227514976
 30
0.0
 11
361.80626747461429
 21
681.45331227514976
 31
0.0
  0
LINE
  5
2DD0
  8
AM_0
 10
327.30632747461431
 20
715.47858227514985
 30
0.0
 11
358.91100747461428
 21
716.58221227514969
 31
0.0
  0
LINE
  5
2DD1
  8
AM_0
 10
327.30626747461417
 20
703.55725227514972
 30
0.0
 11
361.80626747461429
 21
703.55725227514972
 31
0.0
  0
ARC
  5
2DD2
  8
AM_0
 10
370.80626747461429
 20
707.05084227514965
 30
0.0
 40
3.0
 50
0.0
 51
90.00000299999769
  0
LINE
  5
2DD3
  8
AM_0
 10
361.80626747461429
 20
699.29620227514965
 30
0.0
 11
373.8062674746144
 21
699.29620227514965
 31
0.0
  0
LINE
  5
2DD4
  8
AM_0
 10
361.80626747461429
 20
710.05084227514988
 30
0.0
 11
370.80626747461429
 21
710.05084227514988
 31
0.0
  0
ARC
  5
2DD5
  8
AM_0
 10
370.80626747461429
 20
727.86865227514966
 30
0.0
 40
3.0
 50
270.0
 51
0.0
  0
ARC
  5
2DD6
  8
AM_0
 10
370.8434974746142
 20
738.89972227514966
 30
0.0
 40
3.0
 50
270.0
 51
353.61370000000318
  0
LINE
  5
2DD7
  8
AM_0
 10
364.80626747461429
 20
724.86865227514966
 30
0.0
 11
370.80626747461429
 21
724.86865227514966
 31
0.0
  0
ARC
  5
2DD8
  8
AM_0
 10
364.80626747461429
 20
721.86865227514966
 30
0.0
 40
3.0
 50
90.00000299999769
 51
180.00001000000091
  0
ARC
  5
2DD9
  8
AM_0
 10
358.80626747461417
 20
719.58044227514972
 30
0.0
 40
3.0
 50
272.00000000000369
 51
0.0
  0
LINE
  5
2DDA
  8
AM_0
 10
364.80626747461429
 20
735.89972227514966
 30
0.0
 11
370.8434974746142
 21
735.89972227514966
 31
0.0
  0
ARC
  5
2DDB
  8
AM_0
 10
364.80626747461429
 20
732.89972227514966
 30
0.0
 40
3.0
 50
90.00000299999769
 51
180.00001000000091
  0
LINE
  5
2DDC
  8
AM_0
 10
373.8062674746144
 20
738.23236227514974
 30
0.0
 11
373.8062674746144
 21
727.86865227514966
 31
0.0
  0
LINE
  5
2DDD
  8
AM_0
 10
376.7015974746144
 20
741.2305322751497
 30
0.0
 11
383.8062674746144
 21
741.47858227514973
 31
0.0
  0
ARC
  5
2DDE
  8
AM_0
 10
513.80632747461425
 20
641.97858227514985
 30
0.0
 40
5.0
 50
90.00000299999769
 51
270.0
  0
LINE
  5
2DDF
  8
AM_0
 10
513.80632747461425
 20
646.97858227514985
 30
0.0
 11
513.80632747461425
 21
636.97858227514985
 31
0.0
  0
ARC
  5
2DE0
  8
AM_0
 10
484.80632747461419
 20
700.88934227514972
 30
0.0
 40
3.0
 50
179.9999899999988
 51
270.0
  0
LINE
  5
2DE1
  8
AM_0
 10
484.80632747461419
 20
697.88934227514972
 30
0.0
 11
488.80632747461419
 21
697.88934227514972
 31
0.0
  0
ARC
  5
2DE2
  8
AM_0
 10
485.80632747461402
 20
732.57837227514972
 30
0.0
 40
3.0
 50
0.0
 51
91.999998000000545
  0
LINE
  5
2DE3
  8
AM_0
 10
485.52178747461431
 20
735.57025227514964
 30
0.0
 11
485.70159747461418
 21
735.57654227514956
 31
0.0
  0
LINE
  5
2DE4
  8
AM_0
 10
484.70165747461419
 20
759.05591227514947
 30
0.0
 11
496.80632747461419
 21
759.47864227514958
 31
0.0
  0
ARC
  5
2DE5
  8
AM_0
 10
472.3295874746143
 20
749.57294227514956
 30
0.0
 40
5.0
 50
272.00000000000369
 51
315.0
  0
LINE
  5
2DE6
  8
AM_0
 10
475.86513747461419
 20
746.03742227514965
 30
0.0
 11
481.80632747461402
 21
751.97864227514958
 31
0.0
  0
ARC
  5
2DE7
  8
AM_0
 10
484.80632747461419
 20
756.05774227514974
 30
0.0
 40
3.0
 50
91.999998000000545
 51
180.00001000000091
  0
LINE
  5
2DE8
  8
AM_0
 10
496.80632747461419
 20
746.97864227514958
 30
0.0
 11
500.80632747461419
 21
746.97864227514958
 31
0.0
  0
LINE
  5
2DE9
  8
AM_0
 10
558.80635747461429
 20
625.9786422751497
 30
0.0
 11
558.80635747461429
 21
657.97864227514981
 31
0.0
  0
LINE
  5
2DEA
  8
ﾁｭｳｼﾝｾﾝ1
 10
348.76795747461432
 20
303.13863005065662
 30
0.0
 11
561.58555747461435
 21
303.13863005065662
 31
0.0
  0
LINE
  5
2DEB
  8
AM_0
 10
469.0432674746142
 20
173.4066180506565
 30
0.0
 11
489.806357474614
 21
185.3941800506565
 31
0.0
  0
LINE
  5
2DEC
  8
AM_0
 10
484.91107747461427
 20
185.2232220506564
 30
0.0
 11
496.80634747461443
 21
185.6386260506566
 31
0.0
  0
LINE
  5
2DED
  8
AM_0
 10
484.09093747461441
 20
208.7089260506564
 30
0.0
 11
485.91103747461432
 21
208.77247805065639
 31
0.0
  0
LINE
  5
2DEE
  8
AM_0
 10
484.80631747461422
 20
241.44936005065651
 30
0.0
 11
488.80636747461438
 21
241.44936005065651
 31
0.0
  0
LINE
  5
2DEF
  8
AM_0
 10
484.80631747461422
 20
271.37439305065652
 30
0.0
 11
488.80636747461438
 21
271.37439305065652
 31
0.0
  0
LINE
  5
2DF0
  8
AM_0
 10
484.70161747461401
 20
420.21591305065652
 30
0.0
 11
496.80634747461443
 21
420.63861305065632
 31
0.0
  0
LINE
  5
2DF1
  8
AM_0
 10
484.80631747461422
 20
359.04939305065648
 30
0.0
 11
488.80636747461438
 21
359.04939305065648
 31
0.0
  0
ARC
  5
2DF2
  8
AM_0
 10
262.3063474746142
 20
348.2643330506566
 30
0.0
 40
3.0
 50
180.0
 51
265.00000000000028
  0
LINE
  5
2DF3
  8
AM_0
 10
259.30634747461431
 20
374.13864605065652
 30
0.0
 11
259.30634747461431
 21
176.1386460506564
 31
0.0
  0
LINE
  5
2DF4
  8
AM_0
 10
249.30634747461431
 20
175.13864605065669
 30
0.0
 11
249.30634747461431
 21
375.13864605065652
 31
0.0
  0
LINE
  5
2DF5
  8
AM_0
 10
312.3063474746142
 20
348.63864605065669
 30
0.0
 11
312.3063474746142
 21
201.6386460506566
 31
0.0
  0
LINE
  5
2DF6
  8
AM_0
 10
469.6942074746143
 20
352.17566405065651
 30
0.0
 11
465.27349747461432
 21
309.5717670506566
 31
0.0
  0
LINE
  5
2DF7
  8
AM_0
 10
481.80631747461422
 20
274.37439305065641
 30
0.0
 11
481.80631747461422
 21
362.04939305065648
 31
0.0
  0
LINE
  5
2DF8
  8
AM_0
 10
361.80634747461443
 20
355.44129305065672
 30
0.0
 11
361.80634747461443
 21
215.39593805065641
 31
0.0
  0
LINE
  5
2DF9
  8
AM_0
 10
327.30634747461443
 20
201.63862805065651
 30
0.0
 11
327.30634747461443
 21
348.63864605065652
 31
0.0
  0
LINE
  5
2DFA
  8
AM_0
 10
383.80636747461432
 20
175.6386180506565
 30
0.0
 11
383.80636747461432
 21
374.63865305065673
 31
0.0
  0
LINE
  5
2DFB
  8
AM_0
 10
293.30634747461431
 20
342.54072505065659
 30
0.0
 11
262.04487947461411
 21
345.2757490506566
 31
0.0
  0
LINE
  5
2DFC
  8
AM_0
 10
293.30634747461431
 20
207.7365670506567
 30
0.0
 11
262.04487947461411
 21
205.00154305065649
 31
0.0
  0
LINE
  5
2DFD
  8
ﾁｭｳｼﾝｾﾝ1
 10
242.17020126217611
 20
275.1386460506564
 30
0.0
 11
386.73406504973792
 21
275.1386460506564
 31
0.0
  0
ARC
  5
2DFE
  8
AM_0
 10
262.3063474746142
 20
202.01295905065669
 30
0.0
 40
3.0
 50
94.99999999999973
 51
180.0
  0
LINE
  5
2DFF
  8
AM_0
 10
249.30634747461431
 20
175.13864605065669
 30
0.0
 11
258.30634747461431
 21
175.13864605065669
 31
0.0
  0
ARC
  5
2E00
  8
AM_0
 10
258.30634747461431
 20
176.1386460506564
 30
0.0
 40
1.0
 50
270.0
 51
0.0
  0
LINE
  5
2E01
  8
AM_0
 10
361.80634747461443
 20
215.39593805065641
 30
0.0
 11
361.80634747461443
 21
197.72084105065639
 31
0.0
  0
LINE
  5
2E02
  8
AM_0
 10
481.80631747461422
 20
188.2214070506565
 30
0.0
 11
481.80631747461422
 21
238.4493600506564
 31
0.0
  0
LINE
  5
2E03
  8
AM_0
 10
371.80636747461432
 20
194.7208410506565
 30
0.0
 11
480.06985747461403
 21
194.7208410506565
 31
0.0
  0
ARC
  5
2E04
  8
AM_0
 10
375.80635747461429
 20
177.91921205065651
 30
0.0
 40
2.00000007
 50
179.9999899999988
 51
268.00000999999861
  0
LINE
  5
2E05
  8
AM_0
 10
312.3063474746142
 20
201.6386460506566
 30
0.0
 11
327.30634747461431
 21
201.6386460506566
 31
0.0
  0
LINE
  5
2E06
  8
AM_0
 10
327.30634747461443
 20
201.63862805065651
 30
0.0
 11
358.91101747461431
 21
200.5349730506565
 31
0.0
  0
LINE
  5
2E07
  8
AM_0
 10
373.80634747461443
 20
192.7208430506565
 30
0.0
 11
373.80634747461443
 21
177.91921205065651
 31
0.0
  0
ARC
  5
2E08
  8
AM_0
 10
358.80634747461443
 20
197.5367910506564
 30
0.0
 40
3.0
 50
0.0
 51
88.000000000002899
  0
LINE
  5
2E09
  8
AM_0
 10
364.80634747461443
 20
194.7208410506565
 30
0.0
 11
371.80636747461432
 21
194.7208410506565
 31
0.0
  0
ARC
  5
2E0A
  8
AM_0
 10
364.80634747461443
 20
197.72084105065639
 30
0.0
 40
3.0
 50
179.9999899999988
 51
270.0
  0
ARC
  5
2E0B
  8
AM_0
 10
371.80636747461432
 20
192.7208430506565
 30
0.0
 40
2.00000007
 50
0.0
 51
90.00000299999769
  0
LINE
  5
2E0C
  8
AM_0
 10
383.80636747461432
 20
175.63863305065649
 30
0.0
 11
469.0432674746142
 21
173.4066240506564
 31
0.0
  0
LINE
  5
2E0D
  8
AM_0
 10
375.7365174746144
 20
175.92044105065659
 30
0.0
 11
383.80636747461432
 21
175.63863305065649
 31
0.0
  0
ARC
  5
2E0E
  8
AM_0
 10
484.80631747461422
 20
188.2214070506565
 30
0.0
 40
3.0
 50
179.9999899999988
 51
271.99999000000139
  0
LINE
  5
2E0F
  8
AM_0
 10
361.80634747461443
 20
214.7583780506564
 30
0.0
 11
480.06985747461403
 21
214.7583780506564
 31
0.0
  0
LINE
  5
2E10
  8
AM_0
 10
373.80634747461443
 20
339.47073905065662
 30
0.0
 11
373.80634747461443
 21
214.7583780506564
 31
0.0
  0
LINE
  5
2E11
  8
AM_0
 10
293.30634747461431
 20
213.29389105065661
 30
0.0
 11
293.30634747461431
 21
336.61505805065661
 31
0.0
  0
LINE
  5
2E12
  8
AM_0
 10
314.15490947461439
 20
213.48864605065671
 30
0.0
 11
325.61434947461419
 21
213.48864605065671
 31
0.0
  0
LINE
  5
2E13
  8
AM_0
 10
310.4806584746143
 20
206.23401005065651
 30
0.0
 11
293.30634747461431
 21
207.7365670506567
 31
0.0
  0
ARC
  5
2E14
  8
AM_0
 10
310.30634747461431
 20
204.24162005065671
 30
0.0
 40
2.0
 50
0.0
 51
85.000000000000256
  0
LINE
  5
2E15
  8
AM_0
 10
327.30634747461443
 20
213.5599830506564
 30
0.0
 11
361.80634747461443
 21
213.5599830506564
 31
0.0
  0
LINE
  5
2E16
  8
AM_0
 10
327.30634747461443
 20
235.6639590506565
 30
0.0
 11
361.80634747461443
 21
235.6639590506565
 31
0.0
  0
LINE
  5
2E17
  8
AM_0
 10
314.15490947461439
 20
336.78864605065672
 30
0.0
 11
325.61434947461419
 21
336.78864605065672
 31
0.0
  0
LINE
  5
2E18
  8
AM_0
 10
310.4806584746143
 20
344.04328305065673
 30
0.0
 11
293.30634747461431
 21
342.54072505065659
 31
0.0
  0
ARC
  5
2E19
  8
AM_0
 10
310.30634747461431
 20
346.03567205065667
 30
0.0
 40
2.0
 50
274.99999999999972
 51
0.0
  0
LINE
  5
2E1A
  8
AM_0
 10
327.30634747461443
 20
336.71729105065651
 30
0.0
 11
361.80634747461443
 21
336.71729105065651
 31
0.0
  0
LINE
  5
2E1B
  8
AM_0
 10
327.30634747461443
 20
314.61331505065652
 30
0.0
 11
361.80634747461443
 21
314.61331505065652
 31
0.0
  0
LINE
  5
2E1C
  8
AM_0
 10
362.86213747461431
 20
332.52130805065661
 30
0.0
 11
372.41986747461442
 21
332.52130805065661
 31
0.0
  0
LINE
  5
2E1D
  8
AM_0
 10
363.806357474614
 20
341.47074005065662
 30
0.0
 11
371.80636747461432
 21
341.47074005065662
 31
0.0
  0
ARC
  5
2E1E
  8
AM_0
 10
363.806357474614
 20
339.47073905065662
 30
0.0
 40
2.00000007
 50
90.00000299999769
 51
180.00001000000091
  0
ARC
  5
2E1F
  8
AM_0
 10
371.80636747461432
 20
339.47073905065662
 30
0.0
 40
2.00000007
 50
0.0
 51
90.00000299999769
  0
ARC
  5
2E20
  8
AM_0
 10
505.05982747461428
 20
305.44341005065661
 30
0.0
 40
40.000001999999981
 50
174.0759799999995
 51
234.45533999999751
  0
ARC
  5
2E21
  8
AM_0
 10
484.80631747461422
 20
238.4493600506564
 30
0.0
 40
3.0
 50
90.00000299999769
 51
180.00001000000091
  0
ARC
  5
2E22
  8
AM_0
 10
484.80631747461422
 20
274.37439305065641
 30
0.0
 40
3.0
 50
179.9999899999988
 51
270.0
  0
LINE
  5
2E23
  8
AM_0
 10
383.80633747461428
 20
305.32396505065662
 30
0.0
 11
383.80789747461432
 21
305.32396505065662
 31
0.0
  0
LINE
  5
2E24
  8
AM_0
 10
249.30634747461431
 20
375.13864605065652
 30
0.0
 11
258.30634747461431
 21
375.13864605065652
 31
0.0
  0
ARC
  5
2E25
  8
AM_0
 10
258.30634747461431
 20
374.13864605065652
 30
0.0
 40
1.0
 50
0.0
 51
90.0
  0
LINE
  5
2E26
  8
AM_0
 10
361.80634747461443
 20
354.34305305065652
 30
0.0
 11
468.79981747461431
 21
354.34305305065652
 31
0.0
  0
ARC
  5
2E27
  8
AM_0
 10
375.80635747461429
 20
372.35808305065672
 30
0.0
 40
2.00000007
 50
91.999998000000545
 51
180.00001000000091
  0
LINE
  5
2E28
  8
AM_0
 10
312.3063474746142
 20
348.63864605065669
 30
0.0
 11
327.30634747461431
 21
348.63864605065669
 31
0.0
  0
LINE
  5
2E29
  8
AM_0
 10
327.30634747461443
 20
348.63861605065648
 30
0.0
 11
358.91101747461431
 21
349.74228605065667
 31
0.0
  0
LINE
  5
2E2A
  8
AM_0
 10
373.80634747461443
 20
372.35808305065672
 30
0.0
 11
373.80634747461443
 21
360.44130305065647
 31
0.0
  0
ARC
  5
2E2B
  8
AM_0
 10
358.80634747461443
 20
352.74048305065668
 30
0.0
 40
3.0
 50
271.99999999999687
 51
0.0
  0
LINE
  5
2E2C
  8
AM_0
 10
364.80634747461443
 20
358.44129305065672
 30
0.0
 11
371.80636747461432
 21
358.44129305065672
 31
0.0
  0
ARC
  5
2E2D
  8
AM_0
 10
364.80634747461443
 20
355.44129305065672
 30
0.0
 40
3.0
 50
90.00000299999769
 51
180.00001000000091
  0
ARC
  5
2E2E
  8
AM_0
 10
371.80636747461432
 20
360.44130305065647
 30
0.0
 40
2.00000007
 50
270.0
 51
0.0
  0
ARC
  5
2E2F
  8
AM_0
 10
484.80631747461422
 20
417.21774305065651
 30
0.0
 40
3.0
 50
91.999998000000545
 51
180.00001000000091
  0
LINE
  5
2E30
  8
AM_0
 10
383.80633747461428
 20
374.63862305065658
 30
0.0
 11
442.91218747461431
 21
376.18638305065667
 31
0.0
  0
LINE
  5
2E31
  8
AM_0
 10
375.7365174746144
 20
374.35686305065627
 30
0.0
 11
383.80636747461432
 21
374.63865305065673
 31
0.0
  0
LINE
  5
2E32
  8
AM_0
 10
446.3168874746143
 20
377.64912305065639
 30
0.0
 11
481.80637747461429
 21
413.13861305065632
 31
0.0
  0
LINE
  5
2E33
  8
AM_0
 10
481.80631747461422
 20
362.04939305065648
 30
0.0
 11
481.80631747461422
 21
417.21774305065651
 31
0.0
  0
ARC
  5
2E34
  8
AM_0
 10
448.80631747461427
 20
354.34305305065652
 30
0.0
 40
21.000000600000011
 50
354.07597999999939
 51
80.875524999996657
  0
ARC
  5
2E35
  8
AM_0
 10
442.78126747461442
 20
381.18468305065647
 30
0.0
 40
5.0000001000000003
 50
271.50000000000261
 51
315.0
  0
LINE
  5
2E36
  8
AM_0
 10
444.90634747461428
 20
376.23858305065647
 30
0.0
 11
452.13655747461439
 21
375.07734305065668
 31
0.0
  0
ARC
  5
2E37
  8
AM_0
 10
484.80631747461422
 20
362.04939305065648
 30
0.0
 40
3.0
 50
179.9999899999988
 51
270.0
  0
LINE
  5
2E38
  8
AM_0
 10
500.80636747461438
 20
198.13862705065651
 30
0.0
 11
500.80636747461438
 21
408.13866305065659
 31
0.0
  0
LINE
  5
2E39
  8
AM_0
 10
496.80631747461422
 20
303.13863005065662
 30
0.0
 11
496.80631747461422
 21
420.63864305065653
 31
0.0
  0
LINE
  5
2E3A
  8
AM_0
 10
488.80636747461438
 20
303.13863005065662
 30
0.0
 11
488.80636747461438
 21
393.73839305065673
 31
0.0
  0
LINE
  5
2E3B
  8
AM_0
 10
756.26109004560794
 20
342.89945105065652
 30
0.0
 11
727.03078804560812
 21
372.12972305065659
 31
0.0
  0
LINE
  5
2E3C
  8
AM_0
 10
672.86504404560833
 20
333.1386150506566
 30
0.0
 11
676.27989904560832
 21
398.29788305065648
 31
0.0
  0
LINE
  5
2E3D
  8
AM_0
 10
907.8650430456081
 20
333.1386150506566
 30
0.0
 11
904.45018804560812
 21
398.29788305065648
 31
0.0
  0
LINE
  5
2E3E
  8
AM_0
 10
750.60422704560801
 20
337.24259105065647
 30
0.0
 11
721.37392504560842
 21
366.47286305065671
 31
0.0
  0
LINE
  5
2E3F
  8
AM_0
 10
824.46896104560835
 20
342.89945105065652
 30
0.0
 11
853.69927804560791
 21
372.12972305065659
 31
0.0
  0
LINE
  5
2E40
  8
AM_0
 10
830.12582104560829
 20
337.24255805065661
 30
0.0
 11
859.35613804560796
 21
366.47286305065671
 31
0.0
  0
LINE
  5
2E41
  8
ﾁｭｳｼﾝｾﾝ1
 10
790.36503304560802
 20
170.3678970506565
 30
0.0
 11
790.36503304560802
 21
425.6045397994227
 31
0.0
  0
ARC
  5
2E42
  8
AM_0
 10
790.36503304560802
 20
275.1386460506564
 30
0.0
 40
99.500004000000004
 50
125.863690000004
 51
150.26975999999769
  0
ARC
  5
2E43
  8
AM_0
 10
790.36503304560802
 20
303.13863005065662
 30
0.0
 40
48.0
 50
54.776849999997779
 51
125.2231400000008
  0
ARC
  5
2E44
  8
AM_0
 10
790.36503304560802
 20
275.1386460506564
 30
0.0
 40
99.500004000000004
 50
29.730243000000002
 51
54.136312000000359
  0
CIRCLE
  5
2E45
  8
AM_0
 10
790.36503304560802
 20
303.13863005065662
 30
0.0
 40
99.000003000000021
  0
CIRCLE
  5
2E46
  8
AM_0
 10
790.36503304560802
 20
303.13863005065662
 30
0.0
 40
105.00000299999979
  0
LINE
  5
2E47
  8
AM_0
 10
843.3650430456081
 20
260.13864305065653
 30
0.0
 11
876.34178704560804
 21
260.13864305065653
 31
0.0
  0
LINE
  5
2E48
  8
AM_0
 10
820.3650330456079
 20
185.6386260506566
 30
0.0
 11
885.52431304560832
 21
189.05348405065641
 31
0.0
  0
LINE
  5
2E49
  8
ﾁｭｳｼﾝｾﾝ1
 10
667.69737904560805
 20
303.13863005065662
 30
0.0
 11
912.17478304560791
 21
303.13863005065662
 31
0.0
  0
LINE
  5
2E4A
  8
ﾁｭｳｼﾝｾﾝ1
 10
731.87486788832348
 20
275.1386460506564
 30
0.0
 11
848.11319304679932
 21
275.1386460506564
 31
0.0
  0
LINE
  5
2E4B
  8
AM_0
 10
496.80631747461422
 20
185.6386260506566
 30
0.0
 11
496.80631747461422
 21
303.13863005065662
 31
0.0
  0
LINE
  5
2E4C
  8
AM_0
 10
496.80631747461422
 20
198.13862705065651
 30
0.0
 11
500.80636747461438
 21
198.13862705065651
 31
0.0
  0
LINE
  5
2E4D
  8
AM_0
 10
488.80636747461438
 20
211.77064805065649
 30
0.0
 11
488.80636747461438
 21
303.13863005065662
 31
0.0
  0
ARC
  5
2E4E
  8
AM_0
 10
485.80636747461421
 20
211.77064805065649
 30
0.0
 40
3.0
 50
271.99999999999687
 51
0.0
  0
LINE
  5
2E4F
  8
AM_0
 10
558.80635747461429
 20
319.13864705065652
 30
0.0
 11
500.80636747461438
 21
319.13864705065652
 31
0.0
  0
LINE
  5
2E50
  8
AM_0
 10
558.80635747461429
 20
287.13864605065652
 30
0.0
 11
500.80636747461438
 21
287.13864605065652
 31
0.0
  0
LINE
  5
2E51
  8
AM_0
 10
558.80635747461429
 20
322.13864705065657
 30
0.0
 11
513.80635747461417
 21
322.13864705065657
 31
0.0
  0
LINE
  5
2E52
  8
AM_0
 10
513.80635747461417
 20
319.13864705065652
 30
0.0
 11
513.80635747461417
 21
322.13864705065657
 31
0.0
  0
LINE
  5
2E53
  8
AM_0
 10
558.80635747461429
 20
287.13864605065652
 30
0.0
 11
558.80635747461429
 21
322.13864705065657
 31
0.0
  0
LINE
  5
2E54
  8
ﾁｭｳｼﾝｾﾝ1
 10
704.69677799258852
 20
217.47038882163309
 30
0.0
 11
685.4728181313784
 21
198.24641799904461
 31
0.0
  0
CIRCLE
  5
2E55
  8
AM_0
 10
694.90563304560806
 20
207.6792150506565
 30
0.0
 40
7.5000002999999982
  0
ARC
  5
2E56
  8
ﾁｭｳｼﾝｾﾝ1
 10
790.36503304560802
 20
303.13863005065662
 30
0.0
 40
135.00000299999991
 50
218.3683900000002
 51
232.25634999999781
  0
ARC
  5
2E57
  8
AM_0
 10
696.25249504560804
 20
209.0260650506566
 30
0.0
 40
20.000000700000001
 50
183.00000999999961
 51
267.0000000000008
  0
LINE
  5
2E58
  8
AM_0
 10
760.36504804560809
 20
185.6386260506566
 30
0.0
 11
695.20577404560811
 21
189.05348405065641
 31
0.0
  0
ARC
  5
2E59
  8
AM_0
 10
790.36503304560802
 20
275.1386460506564
 30
0.0
 40
99.500004000000004
 50
242.88566000000239
 51
297.11435000000108
  0
LINE
  5
2E5A
  8
AM_0
 10
790.36503304560802
 20
185.6386260506566
 30
0.0
 11
760.36503304560802
 21
185.6386260506566
 31
0.0
  0
LINE
  5
2E5B
  8
AM_0
 10
790.36503304560802
 20
185.6386260506566
 30
0.0
 11
820.3650330456079
 21
185.6386260506566
 31
0.0
  0
LINE
  5
2E5C
  8
AM_0
 10
737.36504704560798
 20
260.13864305065653
 30
0.0
 11
704.38830004560805
 21
260.13864305065653
 31
0.0
  0
ARC
  5
2E5D
  8
AM_0
 10
790.36503304560802
 20
275.1386460506564
 30
0.0
 40
93.500003999999976
 50
162.1467900000001
 51
183.00788
  0
LINE
  5
2E5E
  8
AM_0
 10
672.86504404560833
 20
303.13863005065662
 30
0.0
 11
672.86504404560833
 21
273.13863005065662
 31
0.0
  0
LINE
  5
2E5F
  8
AM_0
 10
672.86504404560833
 20
273.13863005065662
 30
0.0
 11
676.27989904560832
 21
207.97935605065649
 31
0.0
  0
ARC
  5
2E60
  8
AM_0
 10
704.38830004560805
 20
265.13864405065641
 30
0.0
 40
5.0000001000000003
 50
203.84446999999949
 51
270.0
  0
LINE
  5
2E61
  8
AM_0
 10
672.86504404560833
 20
303.13863005065662
 30
0.0
 11
672.86504404560833
 21
333.1386150506566
 31
0.0
  0
ARC
  5
2E62
  8
AM_0
 10
790.36503304560802
 20
303.13863005065662
 30
0.0
 40
89.000003999999961
 50
166.12423000000109
 51
179.5717700000001
  0
LINE
  5
2E63
  8
AM_0
 10
742.36503004560802
 20
303.13863005065662
 30
0.0
 11
742.36503004560802
 21
265.13864405065641
 31
0.0
  0
LINE
  5
2E64
  8
AM_0
 10
838.36503304560836
 20
303.13863005065662
 30
0.0
 11
838.36503304560836
 21
265.13864405065641
 31
0.0
  0
CIRCLE
  5
2E65
  8
AM_0
 10
790.36503304560802
 20
303.13863005065662
 30
0.0
 40
29.000001000000001
  0
ARC
  5
2E66
  8
AM_0
 10
737.36504704560798
 20
265.13864405065641
 30
0.0
 40
5.0000001000000003
 50
270.0
 51
0.0
  0
ARC
  5
2E67
  8
AM_0
 10
843.3650430456081
 20
265.13864405065641
 30
0.0
 40
5.0000001000000003
 50
179.9999899999988
 51
270.0
  0
ARC
  5
2E68
  8
AM_0
 10
790.36503304560802
 20
303.13863005065662
 30
0.0
 40
16.000000499999999
 50
108.2099599999986
 51
71.790051999998809
  0
ARC
  5
2E69
  8
AM_0
 10
790.36503304560802
 20
303.13863005065662
 30
0.0
 40
16.000000499999999
 50
108.2099599999986
 51
71.790051999998809
  0
CIRCLE
  5
2E6A
  8
AM_0
 10
790.36503304560802
 20
303.13863005065662
 30
0.0
 40
2.75000007
  0
CIRCLE
  5
2E6B
  8
AM_0
 10
790.36503304560802
 20
303.13863005065662
 30
0.0
 40
2.75000007
  0
CIRCLE
  5
2E6C
  8
AM_0
 10
790.36503304560802
 20
303.13863005065662
 30
0.0
 40
2.75000007
  0
CIRCLE
  5
2E6D
  8
AM_5
 10
790.36503304560802
 20
303.13863005065662
 30
0.0
 40
4.000000199999997
  0
LINE
  5
2E6E
  8
AM_0
 10
785.36503204560802
 20
322.13864705065657
 30
0.0
 11
795.36503404560835
 21
322.13864705065657
 31
0.0
  0
LINE
  5
2E6F
  8
AM_0
 10
785.36503204560802
 20
314.13864605065658
 30
0.0
 11
795.36503404560835
 21
314.13864605065658
 31
0.0
  0
ARC
  5
2E70
  8
AM_0
 10
790.36503304560802
 20
303.13863005065662
 30
0.0
 40
48.0
 50
144.77684000000161
 51
180.00001000000091
  0
ARC
  5
2E71
  8
AM_0
 10
759.79662604560804
 20
346.43497205065643
 30
0.0
 40
5.0000001000000003
 50
225.0
 51
305.22315000000219
  0
ARC
  5
2E72
  8
AM_0
 10
747.06872104560796
 20
333.70706705065652
 30
0.0
 40
5.0000001000000003
 50
324.77685000000031
 51
45.00000100000149
  0
LINE
  5
2E73
  8
AM_0
 10
785.36503204560802
 20
314.13864605065658
 30
0.0
 11
785.36503204560802
 21
322.13864705065657
 31
0.0
  0
ARC
  5
2E74
  8
AM_0
 10
790.36503304560802
 20
303.13863005065662
 30
0.0
 40
48.0
 50
0.0
 51
35.223151999999843
  0
POINT
  5
2E75
  8
AM_0
 10
790.36503304560802
 20
303.13863005065662
 30
0.0
  0
POINT
  5
2E76
  8
AM_0
 10
790.36503304560802
 20
303.13863005065662
 30
0.0
  0
LINE
  5
2E77
  8
AM_0
 10
795.36503404560835
 20
314.13864605065658
 30
0.0
 11
795.36503404560835
 21
322.13864705065657
 31
0.0
  0
ARC
  5
2E78
  8
AM_0
 10
820.93343704560834
 20
346.43497205065643
 30
0.0
 40
5.0000001000000003
 50
234.776859999999
 51
315.0
  0
ARC
  5
2E79
  8
AM_0
 10
833.66137504560811
 20
333.70706705065652
 30
0.0
 40
5.0000001000000003
 50
135.0
 51
215.22314999999929
  0
CIRCLE
  5
2E7A
  8
AM_0
 10
885.82446304560813
 20
207.6792150506565
 30
0.0
 40
7.5000002999999982
  0
ARC
  5
2E7B
  8
AM_0
 10
884.47759804560837
 20
209.0260650506566
 30
0.0
 40
20.000000700000001
 50
272.99999999999909
 51
357.00000000000108
  0
LINE
  5
2E7C
  8
AM_0
 10
907.86504004560834
 20
303.13863005065662
 30
0.0
 11
907.86504004560834
 21
273.13863005065662
 31
0.0
  0
ARC
  5
2E7D
  8
AM_0
 10
790.36503304560802
 20
275.1386460506564
 30
0.0
 40
93.500003999999976
 50
356.99211999999977
 51
17.85321299999984
  0
ARC
  5
2E7E
  8
AM_0
 10
876.34178704560804
 20
265.13864405065641
 30
0.0
 40
5.0000001000000003
 50
270.0
 51
336.15553000000051
  0
LINE
  5
2E7F
  8
AM_0
 10
907.86504004560834
 20
273.13863005065662
 30
0.0
 11
904.45018504560835
 21
207.97935605065649
 31
0.0
  0
ARC
  5
2E80
  8
AM_0
 10
790.36503304560802
 20
303.13863005065662
 30
0.0
 40
89.000003999999961
 50
0.4282278599984297
 51
13.87576399999806
  0
LINE
  5
2E81
  8
AM_0
 10
907.86504004560834
 20
303.13863005065662
 30
0.0
 11
907.86504004560834
 21
333.1386150506566
 31
0.0
  0
LINE
  5
2E82
  8
AM_0
 10
820.36504804560832
 20
420.63861305065632
 30
0.0
 11
885.52432204560807
 21
417.2238030506565
 31
0.0
  0
ARC
  5
2E83
  8
AM_0
 10
485.80636747461421
 20
393.73839305065673
 30
0.0
 40
3.0
 50
0.0
 51
91.999998000000545
  0
LINE
  5
2E84
  8
AM_0
 10
485.52175747461428
 20
396.73023305065652
 30
0.0
 11
485.70166747461428
 21
396.73653305065659
 31
0.0
  0
LINE
  5
2E85
  8
AM_0
 10
496.80631747461422
 20
408.13866305065659
 30
0.0
 11
500.80636747461438
 21
408.13866305065659
 31
0.0
  0
LINE
  5
2E86
  8
AM_0
 10
760.36503304560802
 20
420.63861305065632
 30
0.0
 11
695.20574404560796
 21
417.22377305065652
 31
0.0
  0
ARC
  5
2E87
  8
AM_0
 10
696.25249504560804
 20
397.25118305065672
 30
0.0
 40
20.000000700000001
 50
92.999999000001679
 51
176.99999000000011
  0
ARC
  5
2E88
  8
AM_0
 10
717.83840404560794
 20
362.93736305065647
 30
0.0
 40
5.0000001000000003
 50
45.00000100000149
 51
140.49417999999881
  0
ARC
  5
2E89
  8
AM_0
 10
730.56630904560791
 20
375.66528305065668
 30
0.0
 40
5.0000001000000003
 50
129.50581999999901
 51
225.0
  0
CIRCLE
  5
2E8A
  8
AM_0
 10
694.90563304560806
 20
398.59806305065672
 30
0.0
 40
7.5000002999999982
  0
ARC
  5
2E8B
  8
AM_0
 10
784.36503304560802
 20
383.65335305065651
 30
0.0
 40
3.0
 50
0.0
 51
90.00000299999769
  0
ARC
  5
2E8C
  8
AM_0
 10
790.36503304560802
 20
275.1386460506564
 30
0.0
 40
99.500004000000004
 50
93.355817999997413
 51
121.1614999999983
  0
LINE
  5
2E8D
  8
AM_0
 10
787.36503304560802
 20
383.65335305065651
 30
0.0
 11
787.36503304560802
 21
377.46285305065652
 31
0.0
  0
ARC
  5
2E8E
  8
AM_0
 10
784.36503304560802
 20
377.46285305065652
 30
0.0
 40
3.0
 50
273.35581999999681
 51
0.0
  0
ARC
  5
2E8F
  8
AM_0
 10
796.36503304560802
 20
383.65335305065651
 30
0.0
 40
3.0
 50
90.00000299999769
 51
180.00001000000091
  0
ARC
  5
2E90
  8
AM_0
 10
790.36503304560802
 20
275.1386460506564
 30
0.0
 40
99.500004000000004
 50
58.838493999997567
 51
86.644180000003075
  0
LINE
  5
2E91
  8
AM_0
 10
793.36503304560836
 20
383.65335305065651
 30
0.0
 11
793.36503304560836
 21
377.46285305065652
 31
0.0
  0
ARC
  5
2E92
  8
AM_0
 10
796.36503304560802
 20
377.46285305065652
 30
0.0
 40
3.0
 50
179.9999899999988
 51
266.64419000000049
  0
LINE
  5
2E93
  8
AM_0
 10
790.36503304560802
 20
420.63864305065653
 30
0.0
 11
760.36503304560802
 21
420.63864305065653
 31
0.0
  0
LINE
  5
2E94
  8
AM_0
 10
790.36503304560802
 20
420.63864305065653
 30
0.0
 11
820.3650330456079
 21
420.63864305065653
 31
0.0
  0
ARC
  5
2E95
  8
AM_0
 10
884.47759804560837
 20
397.25118305065672
 30
0.0
 40
20.000000700000001
 50
3.0000000999988461
 51
86.99999899999699
  0
ARC
  5
2E96
  8
AM_0
 10
850.16375704560789
 20
375.66528305065668
 30
0.0
 40
5.0000001000000003
 50
315.0
 51
50.49418200000094
  0
ARC
  5
2E97
  8
AM_0
 10
862.89166804560841
 20
362.93736305065647
 30
0.0
 40
5.0000001000000003
 50
39.505817999999088
 51
135.0
  0
ARC
  5
2E98
  8
ﾁｭｳｼﾝｾﾝ1
 10
790.36503304560802
 20
303.13863005065662
 30
0.0
 40
135.00000299999991
 50
38.36839300000004
 51
52.256345999996789
  0
CIRCLE
  5
2E99
  8
AM_0
 10
885.82446304560813
 20
398.59806305065672
 30
0.0
 40
7.5000002999999982
  0
LINE
  5
2E9A
  8
ﾁｭｳｼﾝｾﾝ1
 10
876.79844208120574
 20
389.57202463171137
 30
0.0
 11
894.74184236126393
 21
407.51544054362472
 31
0.0
  0
LINE
  5
2E9B
  8
AM_0
 10
293.30632747461419
 20
574.57650327514966
 30
0.0
 11
262.04485947461399
 21
571.84147927514948
 31
0.0
  0
LINE
  5
2E9C
  8
AM_0
 10
293.30632747461419
 20
709.38066127514969
 30
0.0
 11
262.04485947461399
 21
712.11568527514964
 31
0.0
  0
LINE
  5
2E9D
  8
AM_0
 10
249.30632747461411
 20
541.97858227514985
 30
0.0
 11
249.30632747461411
 21
741.97858227514973
 31
0.0
  0
LINE
  5
2E9E
  8
AM_0
 10
259.30632747461408
 20
740.97858227514973
 30
0.0
 11
259.30632747461408
 21
542.97858227514985
 31
0.0
  0
LINE
  5
2E9F
  8
AM_0
 10
249.30632747461411
 20
541.97858227514985
 30
0.0
 11
258.30632747461408
 21
541.97858227514985
 31
0.0
  0
ARC
  5
2EA0
  8
AM_0
 10
258.30632747461408
 20
542.97858227514985
 30
0.0
 40
1.0
 50
270.0
 51
0.0
  0
ARC
  5
2EA1
  8
AM_0
 10
262.30632747461402
 20
568.85289527514965
 30
0.0
 40
3.0
 50
94.99999999999973
 51
180.0
  0
ARC
  5
2EA2
  8
AM_0
 10
262.30632747461402
 20
715.1042692751497
 30
0.0
 40
3.0
 50
180.0
 51
265.00000000000028
  0
LINE
  5
2EA3
  8
AM_0
 10
249.30632747461411
 20
741.97858227514973
 30
0.0
 11
258.30632747461408
 21
741.97858227514973
 31
0.0
  0
ARC
  5
2EA4
  8
AM_0
 10
258.30632747461408
 20
740.97858227514973
 30
0.0
 40
1.0
 50
0.0
 51
90.0
  0
LINE
  5
2EA5
  8
AM_0
 10
293.30632747461419
 20
580.13382727514988
 30
0.0
 11
293.30632747461419
 21
703.45499427514972
 31
0.0
  0
LINE
  5
2EA6
  8
AM_0
 10
312.30632747461402
 20
715.47858227514985
 30
0.0
 11
312.30632747461402
 21
568.47858227514985
 31
0.0
  0
LINE
  5
2EA7
  8
AM_0
 10
314.15488947461432
 20
580.32858227514976
 30
0.0
 11
325.61432947461401
 21
580.32858227514976
 31
0.0
  0
LINE
  5
2EA8
  8
AM_0
 10
312.30632747461402
 20
568.47858227514985
 30
0.0
 11
327.30632747461408
 21
568.47858227514985
 31
0.0
  0
LINE
  5
2EA9
  8
AM_0
 10
310.48063847461418
 20
573.07394627514986
 30
0.0
 11
293.30632747461419
 21
574.57650327514966
 31
0.0
  0
ARC
  5
2EAA
  8
AM_0
 10
310.30632747461408
 20
571.08155627514975
 30
0.0
 40
2.0
 50
0.0
 51
85.000000000000256
  0
LINE
  5
2EAB
  8
AM_0
 10
312.30632747461402
 20
715.47858227514985
 30
0.0
 11
327.30632747461408
 21
715.47858227514985
 31
0.0
  0
LINE
  5
2EAC
  8
AM_0
 10
314.15488947461432
 20
703.62858227514971
 30
0.0
 11
325.61432947461401
 21
703.62858227514971
 31
0.0
  0
LINE
  5
2EAD
  8
AM_0
 10
310.48063847461418
 20
710.88321927514971
 30
0.0
 11
293.30632747461419
 21
709.38066127514969
 31
0.0
  0
ARC
  5
2EAE
  8
AM_0
 10
310.30632747461408
 20
712.87560827514972
 30
0.0
 40
2.0
 50
274.99999999999972
 51
0.0
  0
LINE
  5
2EAF
  8
AM_0
 10
314.15490947461439
 20
235.59262205065659
 30
0.0
 11
325.61434947461419
 21
235.59262205065659
 31
0.0
  0
LINE
  5
2EB0
  8
AM_0
 10
314.15490947461439
 20
314.54197805065672
 30
0.0
 11
325.61434947461419
 21
314.54197805065672
 31
0.0
  0
LINE
  5
2EB1
  8
AM_0
 10
314.1548294746143
 20
602.43260527515019
 30
0.0
 11
325.61426947461428
 21
602.43260527515019
 31
0.0
  0
LINE
  5
2EB2
  8
AM_0
 10
314.15488947461432
 20
681.38197527514978
 30
0.0
 11
325.61432947461401
 21
681.38197527514978
 31
0.0
  0
ARC
  5
2EB3
  8
ﾁｭｳｼﾝｾﾝ1
 10
790.36503304560802
 20
303.13863005065662
 30
0.0
 40
135.00000299999991
 50
307.74365000000199
 51
321.63160999999963
  0
LINE
  5
2EB4
  8
ﾁｭｳｼﾝｾﾝ1
 10
876.03328809862785
 20
217.47038882163309
 30
0.0
 11
895.25724795983842
 21
198.24641799904461
 31
0.0
  0
ARC
  5
2EB5
  8
ﾁｭｳｼﾝｾﾝ1
 10
790.36503304560802
 20
303.13863005065662
 30
0.0
 40
135.00000299999991
 50
127.743654000003
 51
141.6316069999998
  0
LINE
  5
2EB6
  8
ﾁｭｳｼﾝｾﾝ1
 10
703.93162401001052
 20
389.57202463171137
 30
0.0
 11
685.98822372995244
 21
407.51544054362472
 31
0.0
  0
TEXT
  5
30A1
  8
AM_0
 10
685.99499303531127
 20
656.36305535748045
 30
0.0
 40
15.0
  1
VX15-040AF~VX15-050AF
  0
ENDSEC
  0
EOF
