  0
SECTION
  2
HEADER
  9
$ACADVER
  1
AC1009
  9
$INSBASE
 10
0.0
 20
0.0
 30
0.0
  9
$EXTMIN
 10
315.7734716972023
 20
249.63875584176711
 30
-0.0000000000112498
  9
$EXTMAX
 10
1108.8970976734961
 20
959.90004454352686
 30
0.0000000000002956
  9
$LIMMIN
 10
0.0
 20
0.0
  9
$LIMMAX
 10
1422.5
 20
925.0
  9
$ORTHOMODE
 70
     0
  9
$REGENMODE
 70
     1
  9
$FILLMODE
 70
     1
  9
$QTEXTMODE
 70
     0
  9
$MIRRTEXT
 70
     1
  9
$DRAGMODE
 70
     2
  9
$LTSCALE
 40
5.0
  9
$OSMODE
 70
   551
  9
$ATTMODE
 70
     1
  9
$TEXTSIZE
 40
2.5
  9
$TRACEWID
 40
1.0
  9
$TEXTSTYLE
  7
STANDARD
  9
$CLAYER
  8
AM_0
  9
$CELTYPE
  6
BYLAYER
  9
$CECOLOR
 62
   256
  9
$DIMSCALE
 40
1.0
  9
$DIMASZ
 40
2.5
  9
$DIMEXO
 40
1.0
  9
$DIMDLI
 40
8.0
  9
$DIMRND
 40
0.0
  9
$DIMDLE
 40
0.0
  9
$DIMEXE
 40
0.6
  9
$DIMTP
 40
0.1
  9
$DIMTM
 40
0.1
  9
$DIMTXT
 40
2.5
  9
$DIMCEN
 40
0.0
  9
$DIMTSZ
 40
0.0
  9
$DIMTOL
 70
     0
  9
$DIMLIM
 70
     0
  9
$DIMTIH
 70
     0
  9
$DIMTOH
 70
     0
  9
$DIMSE1
 70
     0
  9
$DIMSE2
 70
     0
  9
$DIMTAD
 70
     1
  9
$DIMZIN
 70
     8
  9
$DIMBLK
  1

  9
$DIMASO
 70
     1
  9
$DIMSHO
 70
     1
  9
$DIMPOST
  1

  9
$DIMAPOST
  1
"
  9
$DIMALT
 70
     0
  9
$DIMALTD
 70
     2
  9
$DIMALTF
 40
0.0393701
  9
$DIMLFAC
 40
1.0
  9
$DIMTOFL
 70
     1
  9
$DIMTVP
 40
0.0
  9
$DIMTIX
 70
     0
  9
$DIMSOXD
 70
     0
  9
$DIMSAH
 70
     0
  9
$DIMBLK1
  1

  9
$DIMBLK2
  1

  9
$DIMSTYLE
  2
AM_ISO
  9
$DIMCLRD
 70
   256
  9
$DIMCLRE
 70
   256
  9
$DIMCLRT
 70
     4
  9
$DIMTFAC
 40
0.71
  9
$DIMGAP
 40
0.8
  9
$LUNITS
 70
     2
  9
$LUPREC
 70
     2
  9
$SKETCHINC
 40
1.0
  9
$FILLETRAD
 40
25.0
  9
$AUNITS
 70
     0
  9
$AUPREC
 70
     0
  9
$MENU
  1
.
  9
$ELEVATION
 40
0.0
  9
$PELEVATION
 40
0.0
  9
$THICKNESS
 40
0.0
  9
$LIMCHECK
 70
     0
  9
$BLIPMODE
 70
     0
  9
$CHAMFERA
 40
10.0
  9
$CHAMFERB
 40
5.0
  9
$SKPOLY
 70
     0
  9
$TDCREATE
 40
2452066.5777982059
  9
$TDUPDATE
 40
2458541.5469403709
  9
$TDINDWG
 40
0.1875901042
  9
$TDUSRTIMER
 40
0.1875899074
  9
$USRTIMER
 70
     1
  9
$ANGBASE
 50
0.0
  9
$ANGDIR
 70
     0
  9
$PDMODE
 70
     0
  9
$PDSIZE
 40
0.0
  9
$PLINEWID
 40
0.0
  9
$COORDS
 70
     1
  9
$SPLFRAME
 70
     0
  9
$SPLINETYPE
 70
     6
  9
$SPLINESEGS
 70
     8
  9
$ATTDIA
 70
     1
  9
$ATTREQ
 70
     1
  9
$HANDLING
 70
     1
  9
$HANDSEED
  5
3135
  9
$SURFTAB1
 70
     6
  9
$SURFTAB2
 70
     6
  9
$SURFTYPE
 70
     6
  9
$SURFU
 70
     6
  9
$SURFV
 70
     6
  9
$UCSNAME
  2

  9
$UCSORG
 10
0.0
 20
0.0
 30
0.0
  9
$UCSXDIR
 10
1.0
 20
0.0
 30
0.0
  9
$UCSYDIR
 10
0.0
 20
1.0
 30
0.0
  9
$PUCSNAME
  2

  9
$PUCSORG
 10
0.0
 20
0.0
 30
0.0
  9
$PUCSXDIR
 10
1.0
 20
0.0
 30
0.0
  9
$PUCSYDIR
 10
0.0
 20
1.0
 30
0.0
  9
$USERI1
 70
     0
  9
$USERI2
 70
     0
  9
$USERI3
 70
     0
  9
$USERI4
 70
     0
  9
$USERI5
 70
     0
  9
$USERR1
 40
0.0
  9
$USERR2
 40
0.0
  9
$USERR3
 40
0.0
  9
$USERR4
 40
0.0
  9
$USERR5
 40
0.0
  9
$WORLDVIEW
 70
     1
  9
$SHADEDGE
 70
     3
  9
$SHADEDIF
 70
    70
  9
$TILEMODE
 70
     1
  9
$MAXACTVP
 70
    64
  9
$PLIMCHECK
 70
     0
  9
$PEXTMIN
 10
1.0000000000000000E+020
 20
1.0000000000000000E+020
 30
1.0000000000000000E+020
  9
$PEXTMAX
 10
-1.0000000000000000E+020
 20
-1.0000000000000000E+020
 30
-1.0000000000000000E+020
  9
$PLIMMIN
 10
0.0
 20
0.0
  9
$PLIMMAX
 10
420.0
 20
297.0
  9
$UNITMODE
 70
     0
  9
$VISRETAIN
 70
     1
  9
$PLINEGEN
 70
     0
  9
$PSLTSCALE
 70
     1
  0
ENDSEC
  0
SECTION
  2
TABLES
  0
TABLE
  2
VPORT
 70
     1
  0
VPORT
  2
*ACTIVE
 70
     0
 10
0.0
 20
0.0
 11
1.0
 21
1.0
 12
712.33528468534917
 22
604.76940019264703
 13
0.0
 23
0.0
 14
12.5
 24
12.5
 15
50.0
 25
50.0
 16
0.0
 26
0.0
 36
1.0
 17
0.0
 27
0.0
 37
0.0
 40
715.13722432213808
 41
1.7571592210767459
 42
50.0
 43
0.0
 44
0.0
 50
0.0
 51
0.0
 71
     0
 72
   100
 73
     1
 74
     3
 75
     0
 76
     0
 77
     0
 78
     0
  0
ENDTAB
  0
TABLE
  2
LTYPE
 70
    26
  0
LTYPE
  2
CONTINUOUS
 70
     0
  3
Solid line
 72
    65
 73
     0
 40
0.0
  0
LTYPE
  2
AM_ISO02W050
 70
     0
  3
__ __ __ __ __ __ __ __ __ __ __ __ __ __ __
 72
    65
 73
     2
 40
7.5
 49
6.0
 49
-1.5
  0
LTYPE
  2
AM_ISO08W050
 70
     0
  3
____ . ____ . ____ . ____ . ____ . ____ . ____
 72
    65
 73
     4
 40
18.0
 49
12.0
 49
-1.5
 49
3.0
 49
-1.5
  0
LTYPE
  2
AM_ISO09W050
 70
     0
  3
_____ . . _____ . . _____ . . ____ .. ____
 72
    65
 73
     6
 40
22.5
 49
12.0
 49
-1.5
 49
3.0
 49
-1.5
 49
3.0
 49
-1.5
  0
LTYPE
  2
AMCONSTR
 70
     0
  3
_______________________
 72
    65
 73
     2
 40
9999.0
 49
9999.0
 49
0.0
  0
LTYPE
  2
AM_ISO08W050X2
 70
     0
  3
__ . __ . __ . __ . __ . __
 72
    65
 73
     4
 40
9.0
 49
6.0
 49
-0.75
 49
1.5
 49
-0.75
  0
LTYPE
  2
AM_ISO02W050X2
 70
     0
  3
 _ _ _ _ _ _ _ _ _ _ _ _
 72
    65
 73
     2
 40
3.75
 49
3.0
 49
-0.75
  0
LTYPE
  2
AMZIGZAG
 70
     0
  3
/\/-/\/-/\/-/\/-/\/-/\/
 72
    65
 73
     2
 40
11.000099999999991
 49
0.0001
 49
-11.0
  0
LTYPE
  2
ACISOWELD
 70
     0
  3
_ _ _ _ _
 72
    65
 73
     2
 40
2.0
 49
2.0
 49
-1.0
  0
LTYPE
  2
ACISOTGB
 70
     0
  3
__ . . __ . .
 72
    65
 73
     6
 40
9.0
 49
4.0
 49
-1.0
 49
1.0
 49
-1.0
 49
1.0
 49
-1.0
  0
LTYPE
  2
ACISOTGL
 70
     0
  3
_ _ _ _ _
 72
    65
 73
     2
 40
3.0
 49
2.0
 49
-1.0
  0
LTYPE
  2
CENTER
 70
     0
  3
__ . __
 72
    65
 73
     4
 40
7.0
 49
4.0
 49
-1.0
 49
1.0
 49
-1.0
  0
LTYPE
  2
PHANTOM2
 70
     0
  3
Phantom (.5x) ___ _ _ ___ _ _ ___ _ _ ___ _ _
 72
    65
 73
     6
 40
31.75
 49
15.875
 49
-3.174999999999998
 49
3.174999999999998
 49
-3.174999999999998
 49
3.174999999999998
 49
-3.174999999999998
  0
LTYPE
  2
ACANSTGBM
 70
     0
  3
__ . . __ . .
 72
    65
 73
     6
 40
9.0
 49
4.0
 49
-1.0
 49
1.0
 49
-1.0
 49
1.0
 49
-1.0
  0
LTYPE
  2
ACANSTGLM
 70
     0
  3
_ _ _ _ _
 72
    65
 73
     2
 40
3.0
 49
2.0
 49
-1.0
  0
LTYPE
  2
GEN7
 70
     0
  3
____ . ____ . ____ . ____ . ____ . ____ . ____
 72
    65
 73
     4
 40
14.25
 49
9.75
 49
-1.5
 49
1.5
 49
-1.5
  0
LTYPE
  2
GEN7A
 70
     0
  3
__ . __ . __
 72
    65
 73
     4
 40
7.375
 49
4.75
 49
-0.875
 49
0.875
 49
-0.875
  0
LTYPE
  2
ACJISTGB
 70
     0
  3
__ . . __ . .
 72
    65
 73
     6
 40
9.0
 49
4.0
 49
-1.0
 49
1.0
 49
-1.0
 49
1.0
 49
-1.0
  0
LTYPE
  2
ACJISTGL
 70
     0
  3
_ _ _ _ _
 72
    65
 73
     2
 40
3.0
 49
2.0
 49
-1.0
  0
LTYPE
  2
HIDDEN
 70
     0
  3
Hidden __ __ __ __ __ __ __ __ __ __ __ __ __ _
 72
    65
 73
     2
 40
0.375
 49
0.25
 49
-0.125
  0
LTYPE
  2
CENTER2
 70
     0
  3
Center (.5x) ___ _ ___ _ ___ _ ___ _ ___ _ ___
 72
    65
 73
     4
 40
1.125
 49
0.75
 49
-0.125
 49
0.125
 49
-0.125
  0
LTYPE
  2
HIDDEN2
 70
     0
  3
Hidden (.5x) _ _ _ _ _ _ _ _ _ _ _ _ _ _ _ _ _
 72
    65
 73
     2
 40
0.1875
 49
0.125
 49
-0.0625
  0
LTYPE
  2
AMZIGZAG2
 70
     0
  3
/\/-/\/-/\/-/\/-/\/-/\/
 72
    65
 73
     2
 40
0.4401
 49
0.0001
 49
-0.4400000000000002
  0
LTYPE
  2
ACANSTGB
 70
     0
  3
__ . . __ . .
 72
    65
 73
     6
 40
0.35433070866
 49
0.15748031496
 49
-0.03937007874
 49
0.03937007874
 49
-0.03937007874
 49
0.03937007874
 49
-0.03937007874
  0
LTYPE
  2
ACANSTGL
 70
     0
  3
_ _ _ _ _
 72
    65
 73
     2
 40
0.11811023622
 49
0.07874015748
 49
-0.03937007874
  0
ENDTAB
  0
TABLE
  2
LAYER
 70
     6
  0
LAYER
  2
0
 70
     0
 62
     7
  6
CONTINUOUS
  0
LAYER
  2
AM_0
 70
     0
 62
     7
  6
CONTINUOUS
  0
LAYER
  2
AM_5
 70
     0
 62
     2
  6
CONTINUOUS
  0
LAYER
  2
DEFPOINTS
 70
     0
 62
     7
  6
CONTINUOUS
  0
LAYER
  2
ﾁｭｳｼﾝｾﾝ
 70
     0
 62
     1
  6
GEN7
  0
LAYER
  2
ﾁｭｳｼﾝｾﾝ1
 70
     0
 62
     1
  6
GEN7A
  0
ENDTAB
  0
TABLE
  2
STYLE
 70
     9
  0
STYLE
  2
STANDARD
 70
     0
 40
0.0
 41
0.8299999999999999
 50
0.0
 71
     0
 42
2.5
  3
txt.shx
  4
bigfont.shx
  0
STYLE
  2
ANNOTATIVE
 70
     0
 40
0.0
 41
1.0
 50
0.0
 71
     0
 42
0.2
  3
txt
  4

  0
STYLE
  2

 70
     1
 40
0.0
 41
1.0
 50
0.0
 71
     0
 42
2.5
  3
ltypeshp.shx
  4

  0
STYLE
  2
ACISOTS
 70
     0
 40
1.0
 41
1.0
 50
0.0
 71
     0
 42
2.5
  3
isocp.shx
  4
extfont.shx
  0
STYLE
  2
ACISOGDT
 70
     0
 40
0.0
 41
1.0
 50
0.0
 71
     0
 42
2.5
  3
amgdt.shx
  4

  0
STYLE
  2
ACANSTS
 70
     0
 40
1.0
 41
1.0
 50
0.0
 71
     0
 42
2.5
  3
romans.shx
  4
bigfont.shx
  0
STYLE
  2
ACANSGDT
 70
     0
 40
0.0
 41
1.0
 50
0.0
 71
     0
 42
2.5
  3
amgdt.shx
  4

  0
STYLE
  2
ACJISTS
 70
     0
 40
1.0
 41
1.0
 50
0.0
 71
     0
 42
2.5
  3
isocp.shx
  4
bigfont.shx
  0
STYLE
  2
ACJISGDT
 70
     0
 40
0.0
 41
1.0
 50
0.0
 71
     0
 42
2.5
  3
amgdt.shx
  4

  0
ENDTAB
  0
TABLE
  2
VIEW
 70
     6
  0
VIEW
  2
AM_VIEW1
 70
     0
 40
462.5
 10
416.07965009208078
 20
693.75
 41
832.15930018416213
 11
0.0
 21
0.0
 31
1.0
 12
0.0
 22
0.0
 32
0.0
 42
50.0
 43
0.0
 44
0.0
 50
0.0
 71
     0
  0
VIEW
  2
AM_VIEW2
 70
     0
 40
462.5
 10
1006.420349907918
 20
693.75
 41
832.15930018416213
 11
0.0
 21
0.0
 31
1.0
 12
0.0
 22
0.0
 32
0.0
 42
50.0
 43
0.0
 44
0.0
 50
0.0
 71
     0
  0
VIEW
  2
AM_VIEW3
 70
     0
 40
462.5
 10
416.07965009208078
 20
231.25
 41
832.15930018416213
 11
0.0
 21
0.0
 31
1.0
 12
0.0
 22
0.0
 32
0.0
 42
50.0
 43
0.0
 44
0.0
 50
0.0
 71
     0
  0
VIEW
  2
AM_VIEW4
 70
     0
 40
462.5
 10
1006.420349907918
 20
231.25
 41
832.15930018416213
 11
0.0
 21
0.0
 31
1.0
 12
0.0
 22
0.0
 32
0.0
 42
50.0
 43
0.0
 44
0.0
 50
0.0
 71
     0
  0
VIEW
  2
AM_VIEW5
 70
     0
 40
462.5
 10
711.24999999999966
 20
462.5
 41
832.15930018416179
 11
0.0
 21
0.0
 31
1.0
 12
0.0
 22
0.0
 32
0.0
 42
50.0
 43
0.0
 44
0.0
 50
0.0
 71
     0
  0
VIEW
  2
AM_VIEW6
 70
     0
 40
924.99075000000005
 10
711.24999999999966
 20
462.5
 41
1664.3019571823199
 11
0.0
 21
0.0
 31
1.0
 12
0.0
 22
0.0
 32
0.0
 42
50.0
 43
0.0
 44
0.0
 50
0.0
 71
     0
  0
ENDTAB
  0
TABLE
  2
UCS
 70
     0
  0
ENDTAB
  0
TABLE
  2
APPID
 70
    95
  0
APPID
  2
ACAD
 70
     0
  0
APPID
  2
ACADANNOTATIVE
 70
     0
  0
APPID
  2
MCAD_NO_VIS
 70
     0
  0
APPID
  2
ACAD_TEMP_GRAPHIC
 70
     0
  0
APPID
  2
ACATTRIBSERVICES
 70
     0
  0
APPID
  2
GENIUS_GENREC_14
 70
     0
  0
APPID
  2
GENIUS_GENOBJ-N-REC_13
 70
     0
  0
APPID
  2
GENIUS_GENODEF_13
 70
     0
  0
APPID
  2
GENIUS_GENOLIS_13
 70
     0
  0
APPID
  2
GENIUS_GENOBJ-N-TIT_13
 70
     0
  0
APPID
  2
GENIUS_GENOENT_13
 70
     0
  0
APPID
  2
GENIUS_GENTITLE_13
 70
     0
  0
APPID
  2
GENIUS_GENOREF_13
 70
     0
  0
APPID
  2
GENIUS_GENSCREG_15
 70
     0
  0
APPID
  2
GENIUS_GENOBJ-N-SDF_13
 70
     0
  0
APPID
  2
GENIUS_GENFIL_13
 70
     0
  0
APPID
  2
GENIUS_GENOBJ-N-CHA_13
 70
     0
  0
APPID
  2
GENIUS_GENDTOL_13
 70
     0
  0
APPID
  2
GENIUS_GENOBJ-N-FIL_13
 70
     0
  0
APPID
  2
AD_DRAW
 70
     0
  0
APPID
  2
DESIGNERASSEMBLIES
 70
     0
  0
APPID
  2
ASURF_PCURVE_APPNAME
 70
     0
  0
APPID
  2
GENIUS_GE3SECT_13
 70
     0
  0
APPID
  2
GENIUS_GENCFG_13
 70
     0
  0
APPID
  2
GENIUS_GE3CFG0_13
 70
     0
  0
APPID
  2
GENIUS_GENCFG0_13
 70
     0
  0
APPID
  2
GENIUS_GENCFG1_13
 70
     0
  0
APPID
  2
GENIUS_GENCFG2_13
 70
     0
  0
APPID
  2
GENIUS_GENCFG3_13
 70
     0
  0
APPID
  2
GENIUS_GENCFG4_13
 70
     0
  0
APPID
  2
GENIUS_GEVCFG0_13
 70
     0
  0
APPID
  2
GENIUS_GENHINW_13
 70
     0
  0
APPID
  2
GENIUS_FIRSTVISTXT_14
 70
     0
  0
APPID
  2
GENIUS_GENOBJ-N-LEADER_13
 70
     0
  0
APPID
  2
GEV_VCCNULL_SWITCH_OFF
 70
     0
  0
APPID
  2
GENIUS_GEFCFG0_13
 70
     0
  0
APPID
  2
GENIUS_GENZVEED_13
 70
     0
  0
APPID
  2
GENIUS_GENSCREG_13
 70
     0
  0
APPID
  2
GENIUS_DUMCFG0_13
 70
     0
  0
APPID
  2
GEVID936201362
 70
     0
  0
APPID
  2
GEVDC
 70
     0
  0
APPID
  2
GEVCON
 70
     0
  0
APPID
  2
VCC
 70
     0
  0
APPID
  2
GEVPT
 70
     0
  0
APPID
  2
GEVIT
 70
     0
  0
APPID
  2
GENBH
 70
     0
  0
APPID
  2
GEVMK
 70
     0
  0
APPID
  2
GENIUS_GENBH_13
 70
     0
  0
APPID
  2
GENIUS_GENOBJ-NBEHI-BHF_13
 70
     0
  0
APPID
  2
GENIUS_GENOBJ-NBEHI-BHB_13
 70
     0
  0
APPID
  2
GENIUS_GENOBJ-F-DESC_13
 70
     0
  0
APPID
  2
GENIUS_GEFDESC_14
 70
     0
  0
APPID
  2
GENIUS_GENOBJ-F-PART_13
 70
     0
  0
APPID
  2
GENIUS_GEFSTDP_13
 70
     0
  0
APPID
  2
GENIUS_GEFPARTINS_13
 70
     0
  0
APPID
  2
GENIUS_GENTRA_14
 70
     0
  0
APPID
  2
GENIUS_GENINF13_13
 70
     0
  0
APPID
  2
GENIUS_GENOBJ-N-INFOPT_13
 70
     0
  0
APPID
  2
GENIUS_GENOBJ-N-RSSYM_13
 70
     0
  0
APPID
  2
GENIUS_GENSYMENT_13
 70
     0
  0
APPID
  2
GENIUS_GENSCSYM_13
 70
     0
  0
APPID
  2
GENIUS_GEFINFNAM_13
 70
     0
  0
APPID
  2
GENIUS_GENOBJ-N-CEN_13
 70
     0
  0
APPID
  2
GENIUS_GENOBJ-N-CRS_13
 70
     0
  0
APPID
  2
GENIUS_GENOBJ-N-CRC_13
 70
     0
  0
APPID
  2
GENIUS_GENCRC_14
 70
     0
  0
APPID
  2
GEVID942827039
 70
     0
  0
APPID
  2
GEVID942827040
 70
     0
  0
APPID
  2
GEVID942827041
 70
     0
  0
APPID
  2
GENIUS_GENOBJ-F-SCPASSM_13
 70
     0
  0
APPID
  2
GENIUS_GENDIMSH_14
 70
     0
  0
APPID
  2
GEVID942827042
 70
     0
  0
APPID
  2
GEVID946020473
 70
     0
  0
APPID
  2
GEVID946020474
 70
     0
  0
APPID
  2
GEVID946020475
 70
     0
  0
APPID
  2
GENIUS_GENOBJ-N-HTC_13
 70
     0
  0
APPID
  2
GENIUS_GENHATCH_13
 70
     0
  0
APPID
  2
GEVID948854295
 70
     0
  0
APPID
  2
GEVID939402019
 70
     0
  0
APPID
  2
GEVID952919491
 70
     0
  0
APPID
  2
GEVID952919492
 70
     0
  0
APPID
  2
GENIUS_GEFWELD_13
 70
     0
  0
APPID
  2
GENIUS_GENOBJ-F-WELS_13
 70
     0
  0
APPID
  2
GEVID952919493
 70
     0
  0
APPID
  2
GENIUS_GENOBJ-N-RSBK_13
 70
     0
  0
APPID
  2
GENIUS_GENOBJ-N-LIB_13
 70
     0
  0
APPID
  2
GENIUS_GENSCALE_13
 70
     0
  0
APPID
  2
GEVID986376691
 70
     0
  0
APPID
  2
DCO15
 70
     0
  0
APPID
  2
ACAD_DSTYLE_DIMBREAK
 70
     0
  0
APPID
  2
ACAD_DSTYLE_DIMJAG
 70
     0
  0
APPID
  2
ACAD_NAV_VCDISPLAY
 70
     0
  0
APPID
  2
ACADANNOPO
 70
     0
  0
APPID
  2
ACAD_EXEMPT_FROM_CAD_STANDARDS
 70
     0
  0
APPID
  2
ACAD_MLEADERVER
 70
     0
  0
ENDTAB
  0
TABLE
  2
DIMSTYLE
 70
    22
  0
DIMSTYLE
  2
STANDARD
 70
     0
  3

  4

  5

  6

  7

 40
1.0
 41
0.18
 42
0.0625
 43
0.38
 44
0.18
 45
0.0
 46
0.0
 47
0.0
 48
0.0
140
0.18
141
0.09
142
0.0
143
25.399999999999999
144
1.0
145
0.0
146
1.0
147
0.09
 71
     0
 72
     0
 73
     1
 74
     1
 75
     0
 76
     0
 77
     0
 78
     0
170
     0
171
     2
172
     0
173
     0
174
     0
175
     0
176
     0
177
     0
178
     0
  0
DIMSTYLE
  2
ANNOTATIVE
 70
     0
  3

  4

  5

  6

  7

 40
1.0
 41
0.18
 42
0.0625
 43
0.38
 44
0.18
 45
0.0
 46
0.0
 47
0.0
 48
0.0
140
0.18
141
0.09
142
0.0
143
25.399999999999999
144
1.0
145
0.0
146
1.0
147
0.09
 71
     0
 72
     0
 73
     1
 74
     1
 75
     0
 76
     0
 77
     0
 78
     0
170
     0
171
     2
172
     0
173
     0
174
     0
175
     0
176
     0
177
     0
178
     0
  0
DIMSTYLE
  2
AM_ISO
 70
     0
  3

  4
"
  5

  6

  7

 40
1.0
 41
2.5
 42
1.0
 43
8.0
 44
0.6
 45
0.0
 46
0.0
 47
0.1
 48
0.1
140
2.5
141
0.0
142
0.0
143
0.0393701
144
1.0
145
0.0
146
0.71
147
0.8
 71
     0
 72
     0
 73
     0
 74
     0
 75
     0
 76
     0
 77
     1
 78
     8
170
     0
171
     2
172
     1
173
     0
174
     0
175
     0
176
   256
177
   256
178
     4
  0
DIMSTYLE
  2
AM_ISO$3
 70
     0
  3

  4
"
  5

  6

  7

 40
1.0
 41
2.5
 42
1.0
 43
8.0
 44
0.6
 45
0.0
 46
0.0
 47
0.1
 48
0.1
140
2.5
141
0.0
142
0.0
143
0.0393701
144
1.0
145
0.0
146
0.71
147
0.8
 71
     0
 72
     0
 73
     0
 74
     1
 75
     0
 76
     0
 77
     1
 78
     8
170
     0
171
     2
172
     0
173
     0
174
     0
175
     0
176
   256
177
   256
178
     4
  0
DIMSTYLE
  2
AM_ISO$4
 70
     0
  3

  4
"
  5

  6

  7

 40
1.0
 41
2.5
 42
1.0
 43
8.0
 44
0.6
 45
0.0
 46
0.0
 47
0.1
 48
0.1
140
2.5
141
0.0
142
0.0
143
0.0393701
144
1.0
145
0.0
146
0.71
147
0.8
 71
     0
 72
     0
 73
     0
 74
     1
 75
     0
 76
     0
 77
     1
 78
     8
170
     0
171
     2
172
     0
173
     0
174
     0
175
     0
176
   256
177
   256
178
     4
  0
DIMSTYLE
  2
AM_ISO$6
 70
     0
  3

  4
"
  5

  6

  7

 40
1.0
 41
2.5
 42
1.0
 43
8.0
 44
0.6
 45
0.0
 46
0.0
 47
0.1
 48
0.1
140
2.5
141
0.0
142
0.0
143
0.0393701
144
1.0
145
0.0
146
0.71
147
0.8
 71
     0
 72
     0
 73
     0
 74
     0
 75
     0
 76
     0
 77
     0
 78
     8
170
     0
171
     2
172
     1
173
     0
174
     0
175
     0
176
   256
177
   256
178
     4
  0
DIMSTYLE
  2
AM_ISO$7
 70
     0
  3

  4
"
  5

  6

  7

 40
1.0
 41
2.5
 42
1.0
 43
8.0
 44
0.6
 45
0.0
 46
0.0
 47
0.1
 48
0.1
140
2.5
141
0.0
142
0.0
143
0.0393701
144
1.0
145
0.0
146
0.71
147
0.8
 71
     0
 72
     0
 73
     0
 74
     0
 75
     0
 76
     0
 77
     1
 78
     8
170
     0
171
     2
172
     1
173
     0
174
     0
175
     0
176
   256
177
   256
178
     4
  0
DIMSTYLE
  2
AM_ISO$SF
 70
     0
  3

  4
"
  5

  6

  7

 40
1.0
 41
2.5
 42
1.0
 43
10.0
 44
1.0
 45
0.0
 46
0.0
 47
0.1
 48
0.1
140
3.5
141
0.0
142
0.0
143
0.0393701
144
1.0
145
0.0
146
0.71
147
1.5
 71
     0
 72
     0
 73
     0
 74
     0
 75
     1
 76
     1
 77
     1
 78
     8
170
     0
171
     2
172
     1
173
     0
174
     0
175
     0
176
   256
177
   256
178
     2
  0
DIMSTYLE
  2
AM_ISO$SH
 70
     0
  3

  4
"
  5

  6

  7

 40
1.0
 41
2.5
 42
1.0
 43
10.0
 44
1.0
 45
0.0
 46
0.0
 47
0.1
 48
0.1
140
3.5
141
0.0
142
0.0
143
0.0393701
144
2.0
145
0.0
146
0.71
147
1.5
 71
     0
 72
     0
 73
     0
 74
     0
 75
     1
 76
     1
 77
     1
 78
     8
170
     0
171
     2
172
     1
173
     1
174
     0
175
     0
176
   256
177
   256
178
     2
  0
DIMSTYLE
  2
AM_JIS
 70
     0
  3

  4
"
  5

  6

  7

 40
1.0
 41
2.5
 42
1.0
 43
7.0
 44
1.0
 45
0.0
 46
0.0
 47
0.1
 48
0.1000000001
140
2.5
141
0.0
142
0.0
143
0.0393701
144
1.0
145
0.0
146
0.71
147
1.0
 71
     0
 72
     0
 73
     0
 74
     0
 75
     0
 76
     0
 77
     3
 78
     8
170
     0
171
     2
172
     1
173
     0
174
     0
175
     0
176
   256
177
   256
178
     4
  0
DIMSTYLE
  2
AM_JIS$3
 70
     0
  3

  4
"
  5

  6

  7

 40
1.0
 41
2.5
 42
1.0
 43
7.0
 44
1.0
 45
0.0
 46
0.0
 47
0.1
 48
0.1000000001
140
2.5
141
0.0
142
0.0
143
0.0393701
144
1.0
145
0.0
146
0.71
147
1.0
 71
     0
 72
     0
 73
     0
 74
     1
 75
     0
 76
     0
 77
     3
 78
     8
170
     0
171
     2
172
     0
173
     0
174
     0
175
     0
176
   256
177
   256
178
     4
  0
DIMSTYLE
  2
AM_JIS$4
 70
     0
  3

  4
"
  5

  6

  7

 40
1.0
 41
2.5
 42
1.0
 43
7.0
 44
1.0
 45
0.0
 46
0.0
 47
0.1
 48
0.1000000001
140
2.5
141
0.0
142
0.0
143
0.0393701
144
1.0
145
0.0
146
0.71
147
1.0
 71
     0
 72
     0
 73
     0
 74
     0
 75
     0
 76
     0
 77
     3
 78
     8
170
     0
171
     2
172
     0
173
     0
174
     0
175
     0
176
   256
177
   256
178
     4
  0
DIMSTYLE
  2
AM_JIS$6
 70
     0
  3

  4
"
  5

  6

  7

 40
1.0
 41
2.5
 42
1.0
 43
7.0
 44
1.0
 45
0.0
 46
0.0
 47
0.1
 48
0.1000000001
140
2.5
141
0.0
142
0.0
143
0.0393701
144
1.0
145
0.0
146
0.71
147
1.0
 71
     0
 72
     0
 73
     0
 74
     0
 75
     0
 76
     0
 77
     0
 78
     8
170
     0
171
     2
172
     1
173
     0
174
     0
175
     0
176
   256
177
   256
178
     4
  0
DIMSTYLE
  2
AM_JIS$7
 70
     0
  3

  4
"
  5

  6

  7

 40
1.0
 41
2.5
 42
1.0
 43
7.0
 44
1.0
 45
0.0
 46
0.0
 47
0.1
 48
0.1000000001
140
2.5
141
0.0
142
0.0
143
0.0393701
144
1.0
145
0.0
146
0.71
147
1.0
 71
     0
 72
     0
 73
     0
 74
     0
 75
     0
 76
     0
 77
     3
 78
     8
170
     0
171
     2
172
     1
173
     0
174
     0
175
     0
176
   256
177
   256
178
     4
  0
DIMSTYLE
  2
AM_JIS$SF
 70
     0
  3

  4
"
  5

  6

  7

 40
1.0
 41
2.5
 42
1.0
 43
10.0
 44
1.0
 45
0.0
 46
0.0
 47
0.1
 48
0.1
140
3.5
141
0.0
142
0.0
143
0.0393701
144
1.0
145
0.0
146
0.71
147
1.5
 71
     0
 72
     0
 73
     0
 74
     0
 75
     1
 76
     1
 77
     3
 78
     8
170
     0
171
     2
172
     1
173
     0
174
     0
175
     0
176
   256
177
   256
178
     4
  0
DIMSTYLE
  2
AM_JIS$SH
 70
     0
  3

  4
"
  5

  6

  7

 40
1.0
 41
2.5
 42
1.0
 43
10.0
 44
1.0
 45
0.0
 46
0.0
 47
0.1
 48
0.1
140
3.5
141
0.0
142
0.0
143
0.0393701
144
1.0
145
0.0
146
0.71
147
1.5
 71
     0
 72
     0
 73
     0
 74
     0
 75
     1
 76
     0
 77
     3
 78
     8
170
     0
171
     2
172
     1
173
     1
174
     0
175
     0
176
   256
177
   256
178
     4
  0
DIMSTYLE
  2
AM_ANSI
 70
     0
  3

  4
mm
  5

  6

  7

 40
1.0
 41
0.1
 42
0.05
 43
0.5
 44
0.1
 45
0.0
 46
0.0
 47
0.1
 48
0.1
140
0.12
141
0.0
142
0.0
143
25.399999999999999
144
1.0
145
0.0
146
0.71
147
0.06
 71
     0
 72
     0
 73
     1
 74
     1
 75
     0
 76
     0
 77
     0
 78
     7
170
     0
171
     2
172
     0
173
     0
174
     0
175
     0
176
   256
177
   256
178
     2
  0
DIMSTYLE
  2
AM_ANSI$3
 70
     0
  3

  4
mm
  5

  6

  7

 40
1.0
 41
0.1
 42
0.05
 43
0.5
 44
0.1
 45
0.0
 46
0.0
 47
0.1
 48
0.1
140
0.12
141
0.0
142
0.0
143
25.399999999999999
144
1.0
145
0.0
146
0.71
147
0.06
 71
     0
 72
     0
 73
     1
 74
     1
 75
     0
 76
     0
 77
     0
 78
     7
170
     0
171
     2
172
     0
173
     0
174
     0
175
     0
176
   256
177
   256
178
     2
  0
DIMSTYLE
  2
AM_ANSI$4
 70
     0
  3

  4
mm
  5

  6

  7

 40
1.0
 41
0.1
 42
0.05
 43
0.5
 44
0.1
 45
0.0
 46
0.0
 47
0.1
 48
0.1
140
0.12
141
0.0
142
0.0
143
25.399999999999999
144
1.0
145
0.0
146
0.71
147
0.06
 71
     0
 72
     0
 73
     1
 74
     1
 75
     0
 76
     0
 77
     0
 78
     7
170
     0
171
     2
172
     0
173
     0
174
     0
175
     0
176
   256
177
   256
178
     2
  0
DIMSTYLE
  2
AM_ANSI$7
 70
     0
  3

  4
mm
  5

  6

  7

 40
1.0
 41
0.1
 42
0.05
 43
0.5
 44
0.1
 45
0.0
 46
0.0
 47
0.1
 48
0.1
140
0.24
141
0.0
142
0.0
143
25.399999999999999
144
1.0
145
0.0
146
0.71
147
0.06
 71
     0
 72
     0
 73
     1
 74
     1
 75
     0
 76
     0
 77
     0
 78
     7
170
     0
171
     2
172
     0
173
     0
174
     0
175
     0
176
   256
177
   256
178
     2
  0
DIMSTYLE
  2
AM_ANSI$SF
 70
     0
  3

  4
mm
  5

  6

  7

 40
1.0
 41
0.1
 42
0.05
 43
0.5
 44
0.1
 45
0.0
 46
0.0
 47
0.1
 48
0.1
140
0.12
141
0.0
142
0.0
143
25.399999999999999
144
1.0
145
0.0
146
0.71
147
0.06
 71
     0
 72
     0
 73
     1
 74
     1
 75
     1
 76
     1
 77
     0
 78
     7
170
     0
171
     2
172
     0
173
     0
174
     0
175
     0
176
   256
177
   256
178
     2
  0
DIMSTYLE
  2
AM_ANSI$SH
 70
     0
  3

  4
mm
  5

  6

  7

 40
1.0
 41
0.1
 42
0.05
 43
0.5
 44
0.1
 45
0.0
 46
0.0
 47
0.1
 48
0.1
140
0.12
141
0.0
142
0.0
143
25.399999999999999
144
1.0
145
0.0
146
0.71
147
0.06
 71
     0
 72
     0
 73
     1
 74
     1
 75
     1
 76
     1
 77
     0
 78
     7
170
     0
171
     2
172
     0
173
     1
174
     0
175
     0
176
   256
177
   256
178
     2
  0
ENDTAB
  0
ENDSEC
  0
SECTION
  2
BLOCKS
  0
BLOCK
  8
0
  2
$MODEL_SPACE
 70
     0
 10
0.0
 20
0.0
 30
0.0
  3
$MODEL_SPACE
  1

  0
ENDBLK
  5
2F9B
  8
0
  0
BLOCK
 67
     1
  8
0
  2
$PAPER_SPACE
 70
     0
 10
0.0
 20
0.0
 30
0.0
  3
$PAPER_SPACE
  1

  0
ENDBLK
  5
2F97
 67
     1
  8
0
  0
BLOCK
  8
0
  2
GENAXEH
 70
     0
 10
0.0
 20
0.0
 30
0.0
  3
GENAXEH
  1

  0
LINE
  5
2D5C
  8
0
 10
-1.0
 20
0.0
 30
0.0
 11
1.0
 21
0.0
 31
0.0
  0
ENDBLK
  5
2D5D
  8
0
  0
BLOCK
  8
0
  2
_OPEN30
 70
     0
 10
0.0
 20
0.0
 30
0.0
  3
_OPEN30
  1

  0
LINE
  5
2D60
  8
0
 62
     0
 10
-1.0
 20
0.26794919
 30
0.0
 11
0.0
 21
0.0
 31
0.0
  0
LINE
  5
2D61
  8
0
 62
     0
 10
0.0
 20
0.0
 30
0.0
 11
-1.0
 21
-0.26794919
 31
0.0
  0
LINE
  5
2D62
  8
0
 62
     0
 10
0.0
 20
0.0
 30
0.0
 11
-1.0
 21
0.0
 31
0.0
  0
ENDBLK
  5
2D63
  8
0
  0
BLOCK
  8
0
  2
_NONE
 70
     0
 10
0.0
 20
0.0
 30
0.0
  3
_NONE
  1

  0
ENDBLK
  5
2D66
  8
0
  0
BLOCK
  8
0
  2
*U5
 70
     1
 10
0.0
 20
0.0
 30
0.0
  3
*U5
  1

  0
TEXT
  5
2D69
  8
AM_0
 62
     4
 10
852.56607538182732
 20
383.729733177372
 30
0.0
 40
12.5
  1
\U+2205
 50
90.0
 41
0.8299999999999999
  0
TEXT
  5
2D6A
  8
AM_0
 62
     4
 10
852.56607538182732
 20
394.104733177372
 30
0.0
 40
12.5
  1
240
 50
90.0
 41
0.8299999999999999
  0
TEXT
  5
2D6B
  8
AM_0
 62
     4
 10
852.56607538182732
 20
423.50056651070543
 30
0.0
 40
10.0
  1
h7
 50
90.0
 41
0.8299999999999999
  0
ENDBLK
  5
2D6C
  8
0
  0
BLOCK
  8
0
  2
*U6
 70
     1
 10
0.0
 20
0.0
 30
0.0
  3
*U6
  1

  0
TEXT
  5
2D6F
  8
AM_0
 62
     4
 10
379.8654686540558
 20
354.02172460155327
 30
0.0
 40
12.5
  1
\U+2205
 50
90.0
 41
0.8299999999999999
  0
TEXT
  5
2D70
  8
AM_0
 62
     4
 10
379.8654686540558
 20
364.39672460155322
 30
0.0
 40
12.5
  1
200
 50
90.0
 41
0.8299999999999999
  0
ENDBLK
  5
2D71
  8
0
  0
BLOCK
  8
0
  2
*U7
 70
     1
 10
0.0
 20
0.0
 30
0.0
  3
*U7
  1

  0
TEXT
  5
2D74
  8
AM_0
 62
     4
 10
412.75692798901372
 20
346.24047460155322
 30
0.0
 40
12.5
  1
\U+2205
 50
90.0
 41
0.8299999999999999
  0
TEXT
  5
2D75
  8
AM_0
 62
     4
 10
412.75692798901372
 20
356.61547460155322
 30
0.0
 40
12.5
  1
130
 50
90.0
 41
0.8299999999999999
  0
TEXT
  5
2D76
  8
AM_0
 62
     4
 10
412.75692798901372
 20
382.55297460155322
 30
0.0
 40
10.0
  1
G7
 50
90.0
 41
0.8299999999999999
  0
ENDBLK
  5
2D77
  8
0
  0
BLOCK
  8
0
  2
*U8
 70
     1
 10
0.0
 20
0.0
 30
0.0
  3
*U8
  1

  0
TEXT
  5
2D7A
  8
AM_0
 62
     4
 10
1079.776275393119
 20
617.56529893414256
 30
0.0
 40
12.5
  1
o
 41
0.8299999999999999
  0
TEXT
  5
2D7B
  8
AM_0
 62
     4
 10
1092.1274658693101
 20
617.56529893414256
 30
0.0
 40
12.5
  1
 285
 41
0.8299999999999999
  0
ENDBLK
  5
2D7C
  8
0
  0
BLOCK
  8
0
  2
*U9
 70
     1
 10
0.0
 20
0.0
 30
0.0
  3
*U9
  1

  0
TEXT
  5
2D7F
  8
AM_0
 62
     4
 10
729.9625701084891
 20
400.09352621040068
 30
0.0
 40
12.5
  1
\U+2205
 50
90.0
 41
0.8299999999999999
  0
TEXT
  5
2D80
  8
AM_0
 62
     4
 10
729.9625701084891
 20
410.46852621040068
 30
0.0
 40
12.5
  1
240
 50
90.0
 41
0.8299999999999999
  0
TEXT
  5
2D81
  8
AM_0
 62
     4
 10
729.9625701084891
 20
439.86435954373411
 30
0.0
 40
10.0
  1
h7
 50
90.0
 41
0.8299999999999999
  0
ENDBLK
  5
2D82
  8
0
  0
BLOCK
  8
0
  2
*U10
 70
     1
 10
0.0
 20
0.0
 30
0.0
  3
*U10
  1

  0
TEXT
  5
2D85
  8
AM_0
 62
     4
 10
257.26196338071742
 20
370.3855176345819
 30
0.0
 40
12.5
  1
\U+2205
 50
90.0
 41
0.8299999999999999
  0
TEXT
  5
2D86
  8
AM_0
 62
     4
 10
257.26196338071742
 20
380.76051763458167
 30
0.0
 40
12.5
  1
200
 50
90.0
 41
0.8299999999999999
  0
ENDBLK
  5
2D87
  8
0
  0
BLOCK
  8
0
  2
*U11
 70
     1
 10
0.0
 20
0.0
 30
0.0
  3
*U11
  1

  0
TEXT
  5
2D8A
  8
AM_0
 62
     4
 10
290.15342271567562
 20
362.60426763458179
 30
0.0
 40
12.5
  1
\U+2205
 50
90.0
 41
0.8299999999999999
  0
TEXT
  5
2D8B
  8
AM_0
 62
     4
 10
290.15342271567562
 20
372.9792676345819
 30
0.0
 40
12.5
  1
130
 50
90.0
 41
0.8299999999999999
  0
TEXT
  5
2D8C
  8
AM_0
 62
     4
 10
290.15342271567562
 20
398.91676763458167
 30
0.0
 40
10.0
  1
G7
 50
90.0
 41
0.8299999999999999
  0
ENDBLK
  5
2D8D
  8
0
  0
BLOCK
  8
0
  2
*U12
 70
     1
 10
0.0
 20
0.0
 30
0.0
  3
*U12
  1

  0
TEXT
  5
2D90
  8
AM_0
 62
     4
 10
957.17277011978194
 20
633.92909196717153
 30
0.0
 40
12.5
  1
o
 41
0.8299999999999999
  0
TEXT
  5
2D91
  8
AM_0
 62
     4
 10
969.52396059597243
 20
633.92909196717153
 30
0.0
 40
12.5
  1
 285
 41
0.8299999999999999
  0
ENDBLK
  5
2D92
  8
0
  0
BLOCK
  8
0
  2
_ACMFILLEDHALF
 70
     0
 10
0.0
 20
0.0
 30
0.0
  3
_ACMFILLEDHALF
  1

  0
TRACE
  5
30A1
  8
AM_0
 62
     0
 10
-0.8
 20
0.0
 30
0.0
 11
-1.0
 21
0.166666666
 31
0.0
 12
0.0
 22
0.0
 32
0.0
 13
0.0
 23
0.0
 33
0.0
  0
LINE
  5
30A2
  8
AM_0
 62
     0
 10
-1.0
 20
0.0
 30
0.0
 11
-0.8
 21
0.0
 31
0.0
  0
ENDBLK
  5
30A0
  8
0
  0
ENDSEC
  0
SECTION
  2
ENTITIES
  0
LINE
  5
2D94
  8
ﾁｭｳｼﾝｾﾝ
 10
315.85930885639601
 20
817.32796147307704
 30
0.0
 11
669.3730261571186
 21
817.32796147307704
 31
0.0
  0
POLYLINE
  5
2D95
  8
AM_0
 66
     1
 10
0.0
 20
0.0
 30
0.0
  0
VERTEX
  5
2D96
  8
AM_0
 10
542.72329615711874
 20
868.89248147307705
 30
0.0
 42
0.030646372
  0
VERTEX
  5
2D97
  8
AM_0
 10
538.31376615711872
 20
834.60907147307694
 30
0.0
 42
0.064801293
  0
VERTEX
  5
2D98
  8
AM_0
 10
542.72329615711874
 20
765.76342147307673
 30
0.0
  0
SEQEND
  5
2D99
  8
AM_0
  0
LINE
  5
2D9A
  8
AM_0
 10
585.85905615711852
 20
697.32796147307693
 30
0.0
 11
585.85905615711852
 21
937.32796147307715
 31
0.0
  0
LINE
  5
2D9B
  8
AM_0
 10
571.8590561571184
 20
706.37069147307693
 30
0.0
 11
571.8590561571184
 21
928.28524147307667
 31
0.0
  0
LINE
  5
2D9C
  8
AM_0
 10
581.85905615711852
 20
674.82796147307704
 30
0.0
 11
581.85905615711852
 21
959.82796147307693
 31
0.0
  0
LINE
  5
2D9D
  8
AM_0
 10
563.85905615711829
 20
678.33700147307695
 30
0.0
 11
563.85905615711829
 21
956.30233147307683
 31
0.0
  0
LINE
  5
2D9E
  8
AM_0
 10
657.85905615711852
 20
796.32796147307693
 30
0.0
 11
657.85905615711852
 21
838.32796147307715
 31
0.0
  0
LINE
  5
2D9F
  8
AM_0
 10
587.85905615711852
 20
794.82796147307693
 30
0.0
 11
587.85905615711852
 21
839.82796147307693
 31
0.0
  0
LINE
  5
2DA0
  8
AM_0
 10
404.3589861571183
 20
743.82796147307693
 30
0.0
 11
404.3589861571183
 21
890.82802147307689
 31
0.0
  0
LINE
  5
2DA1
  8
AM_0
 10
465.85905615711852
 20
677.58999147307702
 30
0.0
 11
465.85905615711852
 21
813.32796147307715
 31
0.0
  0
LINE
  5
2DA2
  8
AM_0
 10
452.85898615711852
 20
681.11818147307713
 30
0.0
 11
452.85898615711852
 21
807.78853147307711
 31
0.0
  0
LINE
  5
2DA3
  8
AM_0
 10
438.85905615711829
 20
703.21999147307667
 30
0.0
 11
438.85905615711829
 21
813.32796147307715
 31
0.0
  0
LINE
  5
2DA4
  8
AM_0
 10
465.85905615711852
 20
765.76345147307666
 30
0.0
 11
563.85905615711829
 21
765.76345147307666
 31
0.0
  0
LINE
  5
2DA5
  8
AM_0
 10
465.85905615711852
 20
739.76217147307693
 30
0.0
 11
517.65482615711846
 21
739.76217147307693
 31
0.0
  0
LINE
  5
2DA6
  8
AM_0
 10
465.85905615711852
 20
677.58999147307702
 30
0.0
 11
566.79264615711872
 21
675.35433147307685
 31
0.0
  0
LINE
  5
2DA7
  8
AM_0
 10
465.85905615711852
 20
688.19759147307695
 30
0.0
 11
563.85905615711829
 21
684.77535147307685
 31
0.0
  0
ARC
  5
2DA8
  8
AM_0
 10
433.85905615711852
 20
737.79470147307666
 30
0.0
 40
5.0
 50
0.0
 51
87.999999999996248
  0
LINE
  5
2DA9
  8
AM_0
 10
404.35905615711852
 20
777.85329147307709
 30
0.0
 11
438.85905615711829
 21
777.85329147307709
 31
0.0
  0
LINE
  5
2DAA
  8
AM_0
 10
404.35905615711852
 20
755.74929147307694
 30
0.0
 11
438.85905615711829
 21
755.74929147307694
 31
0.0
  0
LINE
  5
2DAB
  8
AM_0
 10
404.35905615711852
 20
743.82796147307693
 30
0.0
 11
434.0336161571185
 21
742.79171147307693
 31
0.0
  0
LINE
  5
2DAC
  8
AM_0
 10
454.78928615711851
 20
688.58419147307666
 30
0.0
 11
465.85911615711871
 21
688.19759147307695
 31
0.0
  0
LINE
  5
2DAD
  8
AM_0
 10
455.6890661571187
 20
678.1230114730771
 30
0.0
 11
465.85905615711852
 21
677.59005147307698
 31
0.0
  0
ARC
  5
2DAE
  8
AM_0
 10
455.85898615711852
 20
681.11818147307713
 30
0.0
 40
3.0
 50
180.00001000000091
 51
266.99999000000008
  0
ARC
  5
2DAF
  8
AM_0
 10
454.85905615711852
 20
690.58303147307697
 30
0.0
 40
2.0
 50
179.9999899999988
 51
268.00000999999861
  0
LINE
  5
2DB0
  8
AM_0
 10
441.33805615711861
 20
700.24898147307692
 30
0.0
 11
450.37998615711848
 21
698.65462147307687
 31
0.0
  0
ARC
  5
2DB1
  8
AM_0
 10
441.85905615711852
 20
703.20339147307686
 30
0.0
 40
3.0
 50
179.9999899999988
 51
260.00000000000119
  0
ARC
  5
2DB2
  8
AM_0
 10
449.85905615711852
 20
695.70022147307691
 30
0.0
 40
3.0
 50
0.0
 51
79.999998000001099
  0
LINE
  5
2DB3
  8
AM_0
 10
452.85898615711852
 20
765.76345147307666
 30
0.0
 11
465.85905615711852
 21
765.76345147307666
 31
0.0
  0
LINE
  5
2DB4
  8
AM_0
 10
452.85898615711852
 20
739.76217147307693
 30
0.0
 11
465.85905615711852
 21
739.76217147307693
 31
0.0
  0
ARC
  5
2DB5
  8
AM_0
 10
566.85905615711852
 20
678.35360147307699
 30
0.0
 40
3.0
 50
179.9999899999988
 51
268.00000999999861
  0
LINE
  5
2DB6
  8
AM_0
 10
587.85905615711852
 20
796.32796147307693
 30
0.0
 11
657.85905615711852
 21
796.32796147307693
 31
0.0
  0
ARC
  5
2DB7
  8
AM_0
 10
517.65482615711846
 20
736.76217147307693
 30
0.0
 40
3.0
 50
59.11902300000196
 51
90.00000299999769
  0
ARC
  5
2DB8
  8
AM_0
 10
521.54655615711852
 20
741.42586147307691
 30
0.0
 40
3.0
 50
90.00000299999769
 51
239.11901999999981
  0
LINE
  5
2DB9
  8
AM_0
 10
561.71171615711853
 20
720.32430147307673
 30
0.0
 11
529.20890615711858
 21
739.76217147307693
 31
0.0
  0
LINE
  5
2DBA
  8
AM_0
 10
553.72764615711856
 20
744.42586147307679
 30
0.0
 11
563.85898615711847
 21
736.8678214730769
 31
0.0
  0
LINE
  5
2DBB
  8
AM_0
 10
561.42527615711856
 20
714.08138147307693
 30
0.0
 11
520.00681615711846
 21
738.85116147307713
 31
0.0
  0
POLYLINE
  5
2DBC
  8
AM_0
 66
     1
 10
0.0
 20
0.0
 30
0.0
  0
VERTEX
  5
2DBD
  8
AM_0
 10
556.2001561571185
 20
717.20598147307692
 30
0.0
 42
0.0052467582
  0
VERTEX
  5
2DBE
  8
AM_0
 10
558.62037615711847
 20
710.79615147307686
 30
0.0
 42
0.0052066449
  0
VERTEX
  5
2DBF
  8
AM_0
 10
561.17405615711857
 20
704.43832147307694
 30
0.0
 42
0.0051740769
  0
VERTEX
  5
2DC0
  8
AM_0
 10
563.85905615711829
 20
698.13509147307695
 30
0.0
  0
SEQEND
  5
2DC1
  8
AM_0
  0
LINE
  5
2DC2
  8
AM_0
 10
566.75431615711875
 20
675.35543147307715
 30
0.0
 11
581.85905615711852
 21
674.82796147307704
 31
0.0
  0
ARC
  5
2DC3
  8
AM_0
 10
566.85905615711852
 20
706.37069147307693
 30
0.0
 40
5.0
 50
267.99999999999631
 51
0.0
  0
LINE
  5
2DC4
  8
AM_0
 10
581.85905615711852
 20
697.32796147307693
 30
0.0
 11
585.85905615711852
 21
697.32796147307693
 31
0.0
  0
ARC
  5
2DC5
  8
AM_0
 10
558.85905615711852
 20
709.79018147307693
 30
0.0
 40
5.0
 50
0.0
 51
59.11901699999779
  0
LINE
  5
2DC6
  8
AM_0
 10
521.54655615711852
 20
744.42586147307679
 30
0.0
 11
563.85905615711829
 21
744.42586147307679
 31
0.0
  0
ARC
  5
2DC7
  8
AM_0
 10
568.85905615711852
 20
751.19356147307712
 30
0.0
 40
5.0
 50
90.00000299999769
 51
180.00001000000091
  0
LINE
  5
2DC8
  8
AM_0
 10
585.85905615711852
 20
794.82796147307693
 30
0.0
 11
587.85905615711852
 21
794.82796147307693
 31
0.0
  0
LINE
  5
2DC9
  8
AM_0
 10
465.85905615711852
 20
868.89248147307705
 30
0.0
 11
563.85905615711829
 21
868.89248147307705
 31
0.0
  0
LINE
  5
2DCA
  8
AM_0
 10
465.85905615711852
 20
946.45833147307724
 30
0.0
 11
563.85911615711871
 21
949.88051147307669
 31
0.0
  0
LINE
  5
2DCB
  8
AM_0
 10
465.85905615711852
 20
957.06594147307669
 30
0.0
 11
566.79258615711865
 21
959.30166147307682
 31
0.0
  0
LINE
  5
2DCC
  8
AM_0
 10
465.85905615711852
 20
894.89376147307712
 30
0.0
 11
517.65482615711846
 21
894.89376147307712
 31
0.0
  0
ARC
  5
2DCD
  8
AM_0
 10
441.85905615711852
 20
931.45253147307699
 30
0.0
 40
3.0
 50
99.999999999998593
 51
180.00001000000091
  0
LINE
  5
2DCE
  8
AM_0
 10
452.85898615711852
 20
826.86739147307674
 30
0.0
 11
452.85898615711852
 21
953.53774147307695
 31
0.0
  0
LINE
  5
2DCF
  8
AM_0
 10
465.85905615711852
 20
821.32790147307651
 30
0.0
 11
465.85905615711852
 21
957.06594147307669
 31
0.0
  0
ARC
  5
2DD0
  8
AM_0
 10
433.85905615711852
 20
896.86123147307694
 30
0.0
 40
5.0
 50
272.00000000000369
 51
0.0
  0
LINE
  5
2DD1
  8
AM_0
 10
433.35911615711848
 20
821.32790147307651
 30
0.0
 11
466.35911615711848
 21
821.32790147307651
 31
0.0
  0
LINE
  5
2DD2
  8
AM_0
 10
433.35911615711848
 20
813.32796147307715
 30
0.0
 11
466.35911615711848
 21
813.32796147307715
 31
0.0
  0
LINE
  5
2DD3
  8
AM_0
 10
404.35905615711852
 20
856.80263147307699
 30
0.0
 11
438.85905615711829
 21
856.80263147307699
 31
0.0
  0
LINE
  5
2DD4
  8
AM_0
 10
404.35905615711852
 20
878.90658147307681
 30
0.0
 11
438.85905615711829
 21
878.90658147307681
 31
0.0
  0
ARC
  5
2DD5
  8
AM_0
 10
433.35911615711848
 20
817.32796147307704
 30
0.0
 40
3.9999962
 50
90.00000299999769
 51
270.0
  0
LINE
  5
2DD6
  8
AM_0
 10
404.35905615711852
 20
890.82796147307715
 30
0.0
 11
434.0334861571186
 21
891.86422147307678
 31
0.0
  0
LINE
  5
2DD7
  8
AM_0
 10
438.85905615711829
 20
821.32790147307651
 30
0.0
 11
438.85905615711829
 21
931.46914147307677
 31
0.0
  0
ARC
  5
2DD8
  8
AM_0
 10
449.85911615711848
 20
817.32796147307704
 30
0.0
 40
10.0
 50
203.5782699999985
 51
336.4217200000013
  0
ARC
  5
2DD9
  8
AM_0
 10
449.85911615711848
 20
817.32796147307704
 30
0.0
 40
10.0
 50
23.57803699999776
 51
156.42196000000081
  0
ARC
  5
2DDA
  8
AM_0
 10
466.35911615711848
 20
817.32796147307704
 30
0.0
 40
3.9999962
 50
270.0
 51
90.00000299999769
  0
LINE
  5
2DDB
  8
AM_0
 10
452.85898615711852
 20
868.89248147307705
 30
0.0
 11
465.85905615711852
 21
868.89248147307705
 31
0.0
  0
LINE
  5
2DDC
  8
AM_0
 10
452.85898615711852
 20
894.89376147307712
 30
0.0
 11
465.85905615711852
 21
894.89376147307712
 31
0.0
  0
LINE
  5
2DDD
  8
AM_0
 10
455.70194615711853
 20
956.53359147307663
 30
0.0
 11
465.85905615711852
 21
957.06588147307684
 31
0.0
  0
LINE
  5
2DDE
  8
AM_0
 10
454.78928615711851
 20
946.07174147307671
 30
0.0
 11
465.85905615711852
 21
946.45833147307724
 31
0.0
  0
LINE
  5
2DDF
  8
AM_0
 10
441.33811615711852
 20
934.40694147307681
 30
0.0
 11
450.37998615711848
 21
936.00130147307675
 31
0.0
  0
ARC
  5
2DE0
  8
AM_0
 10
449.85905615711852
 20
938.9557114730768
 30
0.0
 40
3.0
 50
280.00001000000128
 51
0.0
  0
ARC
  5
2DE1
  8
AM_0
 10
454.85905615711852
 20
944.07296147307682
 30
0.0
 40
2.0
 50
91.999998000000545
 51
180.00001000000091
  0
ARC
  5
2DE2
  8
AM_0
 10
455.85898615711852
 20
953.53774147307695
 30
0.0
 40
3.0
 50
92.999999000001679
 51
180.00001000000091
  0
POLYLINE
  5
2DE3
  8
AM_0
 66
     1
 10
0.0
 20
0.0
 30
0.0
  0
VERTEX
  5
2DE4
  8
AM_0
 10
563.85905615711829
 20
936.52083147307724
 30
0.0
  0
VERTEX
  5
2DE5
  8
AM_0
 10
556.20022615711855
 20
917.45014147307677
 30
0.0
 42
-1.0
  0
SEQEND
  5
2DE6
  8
AM_0
  0
ARC
  5
2DE7
  8
AM_0
 10
566.85905615711852
 20
928.28524147307667
 30
0.0
 40
5.0
 50
0.0
 51
91.999998000000545
  0
LINE
  5
2DE8
  8
AM_0
 10
587.85905615711852
 20
838.32796147307715
 30
0.0
 11
657.85905615711852
 21
838.32796147307715
 31
0.0
  0
LINE
  5
2DE9
  8
AM_0
 10
585.85905615711852
 20
839.82796147307693
 30
0.0
 11
587.85905615711852
 21
839.82796147307693
 31
0.0
  0
LINE
  5
2DEA
  8
AM_0
 10
553.72764615711856
 20
890.23006147307694
 30
0.0
 11
563.85905615711829
 21
897.78817147307666
 31
0.0
  0
LINE
  5
2DEB
  8
AM_0
 10
561.71165615711857
 20
914.33162147307678
 30
0.0
 11
529.20890615711858
 21
894.89376147307712
 31
0.0
  0
LINE
  5
2DEC
  8
AM_0
 10
561.42533615711852
 20
920.57454147307692
 30
0.0
 11
520.00681615711846
 21
895.80477147307715
 31
0.0
  0
LINE
  5
2DED
  8
AM_0
 10
521.54655615711852
 20
890.23006147307694
 30
0.0
 11
563.85905615711829
 21
890.23006147307694
 31
0.0
  0
ARC
  5
2DEE
  8
AM_0
 10
517.65482615711846
 20
897.89376147307712
 30
0.0
 40
3.0
 50
270.0
 51
300.88098000000002
  0
ARC
  5
2DEF
  8
AM_0
 10
521.54655615711852
 20
893.23006147307694
 30
0.0
 40
3.0
 50
120.8809700000043
 51
270.0
  0
ARC
  5
2DF0
  8
AM_0
 10
568.85905615711852
 20
883.46236147307695
 30
0.0
 40
5.0
 50
179.9999899999988
 51
270.0
  0
ARC
  5
2DF1
  8
AM_0
 10
558.85905615711852
 20
924.86574147307704
 30
0.0
 40
5.0
 50
300.88098000000002
 51
0.0
  0
LINE
  5
2DF2
  8
AM_0
 10
601.85905615711852
 20
811.32796147307693
 30
0.0
 11
657.85905615711852
 21
811.32796147307693
 31
0.0
  0
LINE
  5
2DF3
  8
AM_0
 10
601.85905615711852
 20
823.32796147307681
 30
0.0
 11
657.85905615711852
 21
823.32796147307681
 31
0.0
  0
ARC
  5
2DF4
  8
AM_0
 10
601.85905615711852
 20
817.32796147307704
 30
0.0
 40
6.0000037999999991
 50
90.00000299999769
 51
270.0
  0
LINE
  5
2DF5
  8
AM_0
 10
601.85905615711852
 20
823.32796147307681
 30
0.0
 11
601.85905615711852
 21
811.32796147307693
 31
0.0
  0
LINE
  5
2DF6
  8
AM_0
 10
566.75425615711856
 20
959.30056147307675
 30
0.0
 11
581.85905615711852
 21
959.82802147307689
 31
0.0
  0
ARC
  5
2DF7
  8
AM_0
 10
566.85905615711852
 20
956.30233147307683
 30
0.0
 40
3.0
 50
91.999998000000545
 51
180.00001000000091
  0
LINE
  5
2DF8
  8
AM_0
 10
581.85905615711852
 20
937.32796147307715
 30
0.0
 11
585.85905615711852
 21
937.32796147307715
 31
0.0
  0
LINE
  5
2DF9
  8
AM_0
 10
587.85905615711852
 20
446.67718430124847
 30
0.0
 11
657.85905615711852
 21
446.67718430124847
 31
0.0
  0
LINE
  5
2DFA
  8
ﾁｭｳｼﾝｾﾝ
 10
428.50500615711809
 20
425.67718430124847
 30
0.0
 11
665.80345615711758
 21
425.67718430124847
 31
0.0
  0
LINE
  5
2DFB
  8
AM_0
 10
587.85905615711852
 20
404.67718430124842
 30
0.0
 11
657.85905615711852
 21
404.67718430124842
 31
0.0
  0
LINE
  5
2DFC
  8
AM_0
 10
438.85910615711799
 20
273.5526393012484
 30
0.0
 11
438.85910615711799
 21
515.67720930124881
 31
0.0
  0
LINE
  5
2DFD
  8
AM_0
 10
452.85905615711852
 20
260.06252430124852
 30
0.0
 11
452.85905615711852
 21
515.29185930124845
 31
0.0
  0
LINE
  5
2DFE
  8
AM_0
 10
465.85910615711788
 20
257.6771793012486
 30
0.0
 11
465.85910615711788
 21
517.67720930124858
 31
0.0
  0
LINE
  5
2DFF
  8
AM_0
 10
581.85905615711806
 20
283.1771793012486
 30
0.0
 11
581.85905615711806
 21
568.17715930124882
 31
0.0
  0
LINE
  5
2E00
  8
AM_0
 10
562.72460615711805
 20
444.03014930124863
 30
0.0
 11
546.47165615711788
 21
493.16616930124871
 31
0.0
  0
LINE
  5
2E01
  8
AM_0
 10
571.85905615711795
 20
425.67718430124847
 30
0.0
 11
571.85905615711795
 21
536.63450930124861
 31
0.0
  0
LINE
  5
2E02
  8
AM_0
 10
585.85910615711805
 20
425.67718430124847
 30
0.0
 11
585.85910615711805
 21
545.67715930124859
 31
0.0
  0
LINE
  5
2E03
  8
AM_0
 10
336.35905615711761
 20
486.67718430124842
 30
0.0
 11
336.35905615711761
 21
288.67718430124859
 31
0.0
  0
LINE
  5
2E04
  8
AM_0
 10
326.35905615711772
 20
287.67718430124847
 30
0.0
 11
326.35905615711772
 21
487.67718430124842
 31
0.0
  0
LINE
  5
2E05
  8
AM_0
 10
563.85910615711805
 20
447.1640293012486
 30
0.0
 11
563.85910615711805
 21
564.65150930124844
 31
0.0
  0
LINE
  5
2E06
  8
AM_0
 10
370.35905615711772
 20
320.27510530124852
 30
0.0
 11
339.09758815711768
 21
317.54008130124862
 31
0.0
  0
LINE
  5
2E07
  8
ﾁｭｳｼﾝｾﾝ
 10
315.85930885639601
 20
387.67718430124847
 30
0.0
 11
446.75050379567961
 21
387.67718430124847
 31
0.0
  0
LINE
  5
2E08
  8
AM_0
 10
370.35905615711772
 20
455.0792633012486
 30
0.0
 11
339.09758815711768
 21
457.81428730124861
 31
0.0
  0
LINE
  5
2E09
  8
AM_0
 10
326.35905615711772
 20
287.67718430124847
 30
0.0
 11
335.35905615711772
 21
287.67718430124847
 31
0.0
  0
ARC
  5
2E0A
  8
AM_0
 10
335.35905615711772
 20
288.67718430124859
 30
0.0
 40
1.0
 50
270.0
 51
0.0
  0
ARC
  5
2E0B
  8
AM_0
 10
339.35905615711772
 20
314.55149730124862
 30
0.0
 40
3.0
 50
94.99999999999973
 51
180.0
  0
ARC
  5
2E0C
  8
AM_0
 10
339.35905615711772
 20
460.80287130124862
 30
0.0
 40
3.0
 50
180.0
 51
265.00000000000028
  0
LINE
  5
2E0D
  8
AM_0
 10
404.35905615711778
 20
314.17714930124862
 30
0.0
 11
404.35905615711778
 21
461.17721430124863
 31
0.0
  0
LINE
  5
2E0E
  8
AM_0
 10
389.35905615711772
 20
461.17718430124842
 30
0.0
 11
389.35905615711772
 21
314.17718430124847
 31
0.0
  0
LINE
  5
2E0F
  8
AM_0
 10
370.35905615711772
 20
325.83242930124862
 30
0.0
 11
370.35905615711772
 21
449.15359630124863
 31
0.0
  0
LINE
  5
2E10
  8
AM_0
 10
585.85910615711805
 20
425.67718430124847
 30
0.0
 11
585.85910615711805
 21
305.6771793012486
 31
0.0
  0
LINE
  5
2E11
  8
AM_0
 10
571.85905615711795
 20
425.67718430124847
 30
0.0
 11
571.85905615711795
 21
314.71987430124852
 31
0.0
  0
ARC
  5
2E12
  8
AM_0
 10
568.85910615711805
 20
334.17031430124871
 30
0.0
 40
5.0
 50
90.00000299999769
 51
180.00001000000091
  0
LINE
  5
2E13
  8
AM_0
 10
465.85905615711852
 20
257.67719430124862
 30
0.0
 11
525.58765615711775
 21
256.11315430124853
 31
0.0
  0
LINE
  5
2E14
  8
AM_0
 10
452.85905615711852
 20
265.9598943012486
 30
0.0
 11
542.64275615711836
 21
265.9598943012486
 31
0.0
  0
LINE
  5
2E15
  8
AM_0
 10
452.85905615711852
 20
280.41671430124848
 30
0.0
 11
567.68260615711813
 21
280.41671430124848
 31
0.0
  0
LINE
  5
2E16
  8
AM_0
 10
454.78930615711772
 20
258.0637293012486
 30
0.0
 11
465.85905615711852
 21
257.67716430124841
 31
0.0
  0
ARC
  5
2E17
  8
AM_0
 10
454.85910615711799
 20
260.06252430124852
 30
0.0
 40
2.0000000500000001
 50
179.9999899999988
 51
268.00000999999861
  0
LINE
  5
2E18
  8
AM_0
 10
412.09765615711819
 20
304.93761930124862
 30
0.0
 11
436.12060615711817
 21
302.83587430124862
 31
0.0
  0
LINE
  5
2E19
  8
AM_0
 10
404.35905615711778
 20
326.09853930124848
 30
0.0
 11
438.85910615711799
 21
326.09853930124848
 31
0.0
  0
LINE
  5
2E1A
  8
AM_0
 10
391.20761815711791
 20
326.0271843012485
 30
0.0
 11
402.66705815711782
 21
326.0271843012485
 31
0.0
  0
LINE
  5
2E1B
  8
AM_0
 10
389.35905615711772
 20
314.17718430124847
 30
0.0
 11
404.35905615711778
 21
314.17718430124847
 31
0.0
  0
LINE
  5
2E1C
  8
AM_0
 10
387.53336715711771
 20
318.77254830124849
 30
0.0
 11
370.35905615711772
 21
320.27510530124852
 31
0.0
  0
ARC
  5
2E1D
  8
AM_0
 10
387.35905615711772
 20
316.7801583012486
 30
0.0
 40
2.0
 50
0.0
 51
85.000000000000256
  0
LINE
  5
2E1E
  8
AM_0
 10
409.359056157118
 20
307.92617430124852
 30
0.0
 11
409.359056157118
 21
325.67717930124849
 31
0.0
  0
ARC
  5
2E1F
  8
AM_0
 10
406.35910615711788
 20
311.10552430124852
 30
0.0
 40
3.0000000500000001
 50
0.0
 51
88.000000000002899
  0
LINE
  5
2E20
  8
AM_0
 10
404.35905615711778
 20
314.1771793012486
 30
0.0
 11
406.4638061571182
 21
314.10366430124861
 31
0.0
  0
ARC
  5
2E21
  8
AM_0
 10
412.35910615711799
 20
307.92617430124852
 30
0.0
 40
3.0000000500000001
 50
179.9999899999988
 51
265.00000000000028
  0
LINE
  5
2E22
  8
AM_0
 10
441.33820615711818
 20
270.59822930124852
 30
0.0
 11
450.38005615711819
 21
269.00388430124849
 31
0.0
  0
ARC
  5
2E23
  8
AM_0
 10
441.85905615711778
 20
273.5526393012484
 30
0.0
 40
3.0000000500000001
 50
179.9999899999988
 51
260.00000000000119
  0
ARC
  5
2E24
  8
AM_0
 10
449.85910615711822
 20
266.04946430124841
 30
0.0
 40
3.0000000500000001
 50
0.0
 51
79.999998000001099
  0
ARC
  5
2E25
  8
AM_0
 10
435.85910615711788
 20
299.84728430124858
 30
0.0
 40
3.0000000500000001
 50
0.0
 51
84.999996999998572
  0
LINE
  5
2E26
  8
AM_0
 10
525.58770615711796
 20
256.1131243012486
 30
0.0
 11
571.85910615711805
 21
282.82796930124852
 31
0.0
  0
LINE
  5
2E27
  8
AM_0
 10
493.85910615711788
 20
324.3152143012486
 30
0.0
 11
563.85910615711805
 21
324.3152143012486
 31
0.0
  0
LINE
  5
2E28
  8
AM_0
 10
493.85910615711788
 20
304.87291930124871
 30
0.0
 11
563.85910615711805
 21
304.87291930124871
 31
0.0
  0
LINE
  5
2E29
  8
AM_0
 10
493.85910615711788
 20
306.71956930124861
 30
0.0
 11
493.85910615711788
 21
322.81957430124868
 31
0.0
  0
ARC
  5
2E2A
  8
AM_0
 10
493.85910615711788
 20
314.59404930124862
 30
0.0
 40
9.7211409999999994
 50
90.00000299999769
 51
270.0
  0
LINE
  5
2E2B
  8
AM_0
 10
563.85910615711805
 20
285.65520930124848
 30
0.0
 11
563.85910615711805
 21
334.17031430124871
 31
0.0
  0
LINE
  5
2E2C
  8
AM_0
 10
566.96380615711803
 20
282.65700930124848
 30
0.0
 11
581.85910615711805
 21
283.1771793012486
 31
0.0
  0
ARC
  5
2E2D
  8
AM_0
 10
566.85905615711795
 20
285.65520930124848
 30
0.0
 40
3.0000000500000001
 50
179.9999899999988
 51
271.99999000000139
  0
ARC
  5
2E2E
  8
AM_0
 10
566.85905615711795
 20
314.71987430124852
 30
0.0
 40
5.0
 50
268.0000000000029
 51
0.0
  0
LINE
  5
2E2F
  8
AM_0
 10
581.85905615711806
 20
305.6771793012486
 30
0.0
 11
585.85910615711805
 21
305.6771793012486
 31
0.0
  0
LINE
  5
2E30
  8
AM_0
 10
452.85905615711852
 20
377.69616430124847
 30
0.0
 11
571.85905615711795
 21
377.69616430124847
 31
0.0
  0
LINE
  5
2E31
  8
AM_0
 10
452.85905615711852
 20
397.65816930124862
 30
0.0
 11
571.85905615711795
 21
397.65816930124862
 31
0.0
  0
LINE
  5
2E32
  8
AM_0
 10
404.35905615711778
 20
348.20250930124871
 30
0.0
 11
438.85910615711799
 21
348.20250930124871
 31
0.0
  0
LINE
  5
2E33
  8
AM_0
 10
404.35905615711778
 20
427.15185430124848
 30
0.0
 11
438.85910615711799
 21
427.15185430124848
 31
0.0
  0
LINE
  5
2E34
  8
AM_0
 10
404.35905615711778
 20
449.25582930124853
 30
0.0
 11
438.85910615711799
 21
449.25582930124853
 31
0.0
  0
LINE
  5
2E35
  8
AM_0
 10
404.35905615711778
 20
461.17724430124861
 30
0.0
 11
434.03355615711808
 21
462.21349930124842
 31
0.0
  0
LINE
  5
2E36
  8
AM_0
 10
391.20761815711791
 20
449.32718430124879
 30
0.0
 11
402.66705815711782
 21
449.32718430124879
 31
0.0
  0
LINE
  5
2E37
  8
AM_0
 10
389.35905615711772
 20
461.17718430124842
 30
0.0
 11
404.35905615711778
 21
461.17718430124842
 31
0.0
  0
LINE
  5
2E38
  8
AM_0
 10
387.53336715711771
 20
456.58182130124868
 30
0.0
 11
370.35905615711772
 21
455.0792633012486
 31
0.0
  0
ARC
  5
2E39
  8
AM_0
 10
387.35905615711772
 20
458.5742103012488
 30
0.0
 40
2.0
 50
274.99999999999972
 51
0.0
  0
ARC
  5
2E3A
  8
AM_0
 10
433.85910615711822
 20
467.21041930124858
 30
0.0
 40
5.0
 50
271.99999999999687
 51
0.0
  0
LINE
  5
2E3B
  8
AM_0
 10
587.85905615711852
 20
403.1771843012483
 30
0.0
 11
587.85905615711852
 21
448.1771843012483
 31
0.0
  0
LINE
  5
2E3C
  8
AM_0
 10
585.85910615711805
 20
403.1771843012483
 30
0.0
 11
587.85905615711852
 21
403.1771843012483
 31
0.0
  0
ARC
  5
2E3D
  8
AM_0
 10
567.47165615711776
 20
445.6003393012486
 30
0.0
 40
5.0
 50
198.30292000000031
 51
270.0
  0
LINE
  5
2E3E
  8
AM_0
 10
567.47165615711776
 20
440.6003393012486
 30
0.0
 11
571.85905615711795
 21
440.6003393012486
 31
0.0
  0
LINE
  5
2E3F
  8
AM_0
 10
585.85910615711805
 20
448.1771843012483
 30
0.0
 11
587.85905615711852
 21
448.1771843012483
 31
0.0
  0
LINE
  5
2E40
  8
AM_0
 10
326.35905615711772
 20
487.67718430124842
 30
0.0
 11
335.35905615711772
 21
487.67718430124842
 31
0.0
  0
ARC
  5
2E41
  8
AM_0
 10
335.35905615711772
 20
486.67718430124842
 30
0.0
 40
1.0
 50
0.0
 51
90.0
  0
LINE
  5
2E42
  8
AM_0
 10
452.85905615711852
 20
494.93768430124862
 30
0.0
 11
514.92060615711785
 21
494.93768430124862
 31
0.0
  0
LINE
  5
2E43
  8
AM_0
 10
465.85910615711788
 20
517.67720930124858
 30
0.0
 11
535.74735615711802
 21
519.5072593012485
 31
0.0
  0
LINE
  5
2E44
  8
AM_0
 10
452.85905615711852
 20
509.39446930124848
 30
0.0
 11
528.76965615711811
 21
509.39446930124848
 31
0.0
  0
ARC
  5
2E45
  8
AM_0
 10
449.85910615711822
 20
538.17720930124835
 30
0.0
 40
20.500000499999992
 50
304.61364000000401
 51
235.3863500000021
  0
LINE
  5
2E46
  8
AM_0
 10
441.33820615711818
 20
504.75616430124842
 30
0.0
 11
450.38005615711819
 21
506.35049430124837
 31
0.0
  0
ARC
  5
2E47
  8
AM_0
 10
441.85905615711778
 20
501.8017593012483
 30
0.0
 40
3.0000000500000001
 50
99.999999999998593
 51
180.00001000000091
  0
ARC
  5
2E48
  8
AM_0
 10
449.85910615711822
 20
509.30489930124861
 30
0.0
 40
3.0000000500000001
 50
279.99999999999852
 51
0.0
  0
LINE
  5
2E49
  8
AM_0
 10
439.53625615711809
 20
517.17720930124835
 30
0.0
 11
454.19175615711828
 21
517.17720930124835
 31
0.0
  0
LINE
  5
2E4A
  8
AM_0
 10
442.35570615711782
 20
524.29185930124879
 30
0.0
 11
449.85910615711822
 21
525.67720930124881
 31
0.0
  0
LINE
  5
2E4B
  8
AM_0
 10
442.04200615711818
 20
524.1772593012488
 30
0.0
 11
457.67620615711837
 21
524.1772593012488
 31
0.0
  0
CIRCLE
  5
2E4C
  8
AM_0
 10
449.85910615711822
 20
538.17720930124835
 30
0.0
 40
12.5
  0
LINE
  5
2E4D
  8
AM_0
 10
439.85910615711788
 20
517.17720930124835
 30
0.0
 11
441.57135615711798
 21
523.56730930124866
 31
0.0
  0
ARC
  5
2E4E
  8
AM_0
 10
435.94215615711818
 20
518.01365930124859
 30
0.0
 40
4.000000049999997
 50
347.9293300000017
 51
55.386359000001512
  0
ARC
  5
2E4F
  8
AM_0
 10
440.85910615711788
 20
515.67720930124881
 30
0.0
 40
2.0000000500000001
 50
131.4096200000032
 51
180.00001000000091
  0
ARC
  5
2E50
  8
AM_0
 10
442.53730615711851
 20
523.3084593012486
 30
0.0
 40
1.0
 50
100.4607200000025
 51
164.99999000000179
  0
LINE
  5
2E51
  8
AM_0
 10
454.78930615711772
 20
517.29065930124864
 30
0.0
 11
465.85905615711852
 21
517.67725930124845
 31
0.0
  0
LINE
  5
2E52
  8
AM_0
 10
459.78195615711797
 20
517.46505930124874
 30
0.0
 11
458.1468561571179
 21
523.56730930124866
 31
0.0
  0
ARC
  5
2E53
  8
AM_0
 10
463.77605615711832
 20
518.01365930124859
 30
0.0
 40
4.000000049999997
 50
124.6136499999977
 51
187.86824999999891
  0
ARC
  5
2E54
  8
AM_0
 10
454.85910615711799
 20
515.29185930124845
 30
0.0
 40
2.0000000500000001
 50
91.999998000000545
 51
180.00001000000091
  0
ARC
  5
2E55
  8
AM_0
 10
457.18095615711837
 20
523.3084593012486
 30
0.0
 40
1.0
 50
15.000000000000741
 51
79.539281000002589
  0
LINE
  5
2E56
  8
AM_0
 10
449.85910615711822
 20
525.67725930124857
 30
0.0
 11
457.36255615711832
 21
524.29190930124878
 31
0.0
  0
LINE
  5
2E57
  8
AM_0
 10
463.85910615711799
 20
517.67720930124858
 30
0.0
 11
465.85910615711788
 21
517.67720930124858
 31
0.0
  0
LINE
  5
2E58
  8
AM_0
 10
463.85910615711799
 20
517.60735930124883
 30
0.0
 11
463.85910615711799
 21
517.67720930124858
 31
0.0
  0
LINE
  5
2E59
  8
AM_0
 10
561.425406157118
 20
528.92380930124841
 30
0.0
 11
524.36650615711812
 21
506.76119930124838
 31
0.0
  0
LINE
  5
2E5A
  8
AM_0
 10
561.71180615711785
 20
522.68080930124836
 30
0.0
 11
519.95375615711805
 21
497.70797430124873
 31
0.0
  0
LINE
  5
2E5B
  8
AM_0
 10
517.35910615711805
 20
493.16610430124848
 30
0.0
 11
544.81215615711824
 21
493.16610430124848
 31
0.0
  0
ARC
  5
2E5C
  8
AM_0
 10
496.0589061571178
 20
519.47230930124863
 30
0.0
 40
30.946884499999999
 50
307.55230999999719
 51
335.59612999999888
  0
ARC
  5
2E5D
  8
AM_0
 10
517.35910615711805
 20
498.16610430124871
 30
0.0
 40
5.0
 50
229.76332999999909
 51
270.0
  0
LINE
  5
2E5E
  8
AM_0
 10
547.80185615711821
 20
494.15847430124848
 30
0.0
 11
563.85910615711805
 21
506.13729930124839
 31
0.0
  0
ARC
  5
2E5F
  8
AM_0
 10
544.81215615711824
 20
498.16610430124871
 30
0.0
 40
5.0
 50
270.0
 51
306.72320999999818
  0
LINE
  5
2E60
  8
AM_0
 10
539.15195615711775
 20
520.97000930124875
 30
0.0
 11
562.39470615711832
 21
544.21265930124878
 31
0.0
  0
LINE
  5
2E61
  8
AM_0
 10
539.06680615711787
 20
515.55255930124861
 30
0.0
 11
537.74140615711815
 21
519.55955930124867
 31
0.0
  0
ARC
  5
2E62
  8
AM_0
 10
535.61640615711838
 20
524.50555930124858
 30
0.0
 40
5.0
 50
271.50000000000261
 51
315.0
  0
ARC
  5
2E63
  8
AM_0
 10
558.85910615711816
 20
533.21500930124864
 30
0.0
 40
5.0
 50
300.88098000000002
 51
0.0
  0
ARC
  5
2E64
  8
AM_0
 10
558.85910615711816
 20
547.74825930124882
 30
0.0
 40
5.0
 50
315.0
 51
0.0
  0
ARC
  5
2E65
  8
AM_0
 10
566.85905615711795
 20
536.63450930124861
 30
0.0
 40
5.0
 50
0.0
 51
91.999998000000545
  0
LINE
  5
2E66
  8
AM_0
 10
581.85905615711806
 20
545.67715930124859
 30
0.0
 11
585.85910615711805
 21
545.67715930124859
 31
0.0
  0
LINE
  5
2E67
  8
AM_0
 10
566.75440615711818
 20
567.64975930124865
 30
0.0
 11
581.85910615711805
 21
568.17720930124835
 31
0.0
  0
ARC
  5
2E68
  8
AM_0
 10
566.85905615711795
 20
564.65150930124844
 30
0.0
 40
3.0000000500000001
 50
91.999998000000545
 51
180.00001000000091
  0
CIRCLE
  5
2E69
  8
AM_0
 10
938.65016952275175
 20
425.67718430124847
 30
0.0
 40
120.0
  0
CIRCLE
  5
2E6A
  8
AM_0
 10
938.65016952275175
 20
425.67718430124847
 30
0.0
 40
113.0
  0
ARC
  5
2E6B
  8
AM_0
 10
938.65016952275175
 20
387.67718430124847
 30
0.0
 40
122.0
 50
22.571981999999569
 51
55.326819999998243
  0
ARC
  5
2E6C
  8
AM_0
 10
938.65016952275175
 20
387.67718430124847
 30
0.0
 40
122.0
 50
124.67318000000159
 51
157.4280199999998
  0
LINE
  5
2E6D
  8
ﾁｭｳｼﾝｾﾝ
 10
938.65016952275175
 20
573.32995031711323
 30
0.0
 11
938.65016952275175
 21
249.7075893012485
 31
0.0
  0
LINE
  5
2E6E
  8
AM_0
 10
1018.225149522752
 20
498.18108930124879
 30
0.0
 11
989.03117952275193
 21
468.98711930124853
 31
0.0
  0
LINE
  5
2E6F
  8
AM_0
 10
1011.15407452275
 20
505.25216430124863
 30
0.0
 11
981.96010452275164
 21
476.05819430124848
 31
0.0
  0
LINE
  5
2E70
  8
AM_0
 10
866.14622952275136
 20
505.25216430124863
 30
0.0
 11
895.34019952275105
 21
476.05819430124848
 31
0.0
  0
LINE
  5
2E71
  8
AM_0
 10
859.07515452275175
 20
498.18111930124883
 30
0.0
 11
888.26912452275144
 21
468.98714930124862
 31
0.0
  0
LINE
  5
2E72
  8
AM_0
 10
798.65297952275137
 20
547.34900930124866
 30
0.0
 11
796.15012952275163
 21
475.67715430124872
 31
0.0
  0
ARC
  5
2E73
  8
AM_0
 10
938.65016952275175
 20
425.67718430124847
 30
0.0
 40
61.999994999999998
 50
53.583681000000588
 51
126.41631999999819
  0
LINE
  5
2E74
  8
AM_0
 10
1078.6472845227511
 20
547.34910930124863
 30
0.0
 11
1081.150124522751
 21
475.67721430124863
 31
0.0
  0
ARC
  5
2E75
  8
AM_0
 10
938.65016952275175
 20
425.67718430124847
 30
0.0
 40
61.999994999999998
 50
0.0
 51
36.416318000003159
  0
LINE
  5
2E76
  8
ﾁｭｳｼﾝｾﾝ
 10
863.70824308274564
 20
387.67718430124847
 30
0.0
 11
1013.592095962756
 21
387.67718430124847
 31
0.0
  0
LINE
  5
2E77
  8
AM_0
 10
1001.061914522752
 20
265.43462930124861
 30
0.0
 11
990.21468452275155
 21
268.34113430124847
 31
0.0
  0
LINE
  5
2E78
  8
AM_0
 10
1060.321954522751
 20
285.68001930124848
 30
0.0
 11
988.65013952275149
 21
283.1771793012486
 31
0.0
  0
LINE
  5
2E79
  8
ﾁｭｳｼﾝｾﾝ
 10
790.45912987591475
 20
425.67718430124847
 30
0.0
 11
1086.564841876946
 21
425.67718430124847
 31
0.0
  0
LINE
  5
2E7A
  8
AM_0
 10
657.85905615711852
 20
404.67718430124842
 30
0.0
 11
657.85905615711852
 21
449.67718430124842
 31
0.0
  0
LINE
  5
2E7B
  8
AM_0
 10
601.85905615711795
 20
449.67718430124842
 30
0.0
 11
657.85905615711852
 21
449.67718430124842
 31
0.0
  0
LINE
  5
2E7C
  8
AM_0
 10
601.85905615711795
 20
449.67718430124842
 30
0.0
 11
601.85905615711795
 21
446.67718430124847
 31
0.0
  0
LINE
  5
2E7D
  8
AM_0
 10
798.65297952275137
 20
304.00536930124849
 30
0.0
 11
796.15012952275163
 21
375.67721430124863
 31
0.0
  0
LINE
  5
2E7E
  8
AM_0
 10
876.23833452275176
 20
265.4346093012486
 30
0.0
 11
887.08552952275136
 21
268.34111930124863
 31
0.0
  0
LINE
  5
2E7F
  8
AM_0
 10
816.9783195227518
 20
285.68001930124848
 30
0.0
 11
888.6501695227513
 21
283.17720930124852
 31
0.0
  0
CIRCLE
  5
2E80
  8
AM_0
 10
818.44197452275125
 20
305.46904930124862
 30
0.0
 40
9.5
  0
LINE
  5
2E81
  8
ﾁｭｳｼﾝｾﾝ1
 10
807.92113391536407
 20
294.94815253344882
 30
0.0
 11
830.10932121762619
 21
317.1363366209992
 31
0.0
  0
ARC
  5
2E82
  8
ﾁｭｳｼﾝｾﾝ1
 10
938.65016952274846
 20
425.67718430124592
 30
0.0
 40
170.00000499999581
 50
218.54277431075701
 51
231.01461
  0
ARC
  5
2E83
  8
AM_0
 10
817.6414095227517
 20
304.66845430124852
 30
0.0
 40
19.000000499999999
 50
182.0000000000004
 51
268.0000000000029
  0
LINE
  5
2E84
  8
AM_0
 10
863.99086452275162
 20
272.50567430124852
 30
0.0
 11
860.87153952275196
 21
284.14721430124871
 31
0.0
  0
ARC
  5
2E85
  8
AM_0
 10
873.65016952275153
 20
275.09386930124862
 30
0.0
 40
10.0
 50
195.0000099999981
 51
285.00000000000148
  0
ARC
  5
2E86
  8
AM_0
 10
938.65016952275175
 20
387.67718430124847
 30
0.0
 40
130.0
 50
246.6310400000028
 51
293.36895999999689
  0
LINE
  5
2E87
  8
AM_0
 10
888.6501695227513
 20
283.1771793012486
 30
0.0
 11
938.65016952275175
 21
283.1771793012486
 31
0.0
  0
LINE
  5
2E88
  8
AM_0
 10
988.65016952275175
 20
283.1771793012486
 30
0.0
 11
938.65016952275175
 21
283.1771793012486
 31
0.0
  0
ARC
  5
2E89
  8
AM_0
 10
938.65016952275175
 20
425.67718430124847
 30
0.0
 40
61.999994999999998
 50
142.1149900000004
 51
180.00001000000091
  0
LINE
  5
2E8A
  8
AM_0
 10
796.15012952275163
 20
375.67718430124847
 30
0.0
 11
796.15012952275163
 21
425.67718430124847
 31
0.0
  0
LINE
  5
2E8B
  8
AM_0
 10
876.6501345227515
 20
425.67718430124847
 30
0.0
 11
876.6501345227515
 21
405.67718430124847
 31
0.0
  0
LINE
  5
2E8C
  8
AM_0
 10
833.12764452275121
 20
397.67718430124847
 30
0.0
 11
868.65016952275164
 21
397.67718430124847
 31
0.0
  0
ARC
  5
2E8D
  8
AM_0
 10
833.12764452275121
 20
402.67718430124842
 30
0.0
 40
5.0
 50
192.29603999999881
 51
270.0
  0
ARC
  5
2E8E
  8
AM_0
 10
868.65016952275164
 20
405.67718430124847
 30
0.0
 40
8.0
 50
270.0
 51
0.0
  0
LINE
  5
2E8F
  8
AM_0
 10
796.15012952275163
 20
475.67718430124847
 30
0.0
 11
796.15012952275163
 21
425.67718430124847
 31
0.0
  0
CIRCLE
  5
2E90
  8
AM_0
 10
938.65016952275175
 20
425.67718430124847
 30
0.0
 40
46.999997
  0
ARC
  5
2E91
  8
AM_0
 10
938.65016952275175
 20
425.67718430124847
 30
0.0
 40
20.9999985
 50
106.6015499999988
 51
73.398451999997818
  0
LINE
  5
2E92
  8
AM_0
 10
932.65013952275126
 20
441.67718430124842
 30
0.0
 11
944.65013952275115
 21
441.67718430124842
 31
0.0
  0
CIRCLE
  5
2E93
  8
AM_5
 10
938.65016952275175
 20
425.67718430124847
 30
0.0
 40
5.0
  0
CIRCLE
  5
2E94
  8
AM_0
 10
938.65016952275175
 20
425.67718430124847
 30
0.0
 40
3.5000000500000001
  0
LINE
  5
2E95
  8
AM_0
 10
932.65013952275126
 20
449.67718430124842
 30
0.0
 11
944.65013952275115
 21
449.67718430124842
 31
0.0
  0
LINE
  5
2E96
  8
AM_0
 10
932.65013952275126
 20
449.67718430124842
 30
0.0
 11
932.65013952275126
 21
441.67718430124842
 31
0.0
  0
ARC
  5
2E97
  8
AM_0
 10
884.73360452275165
 20
465.45159930124879
 30
0.0
 40
5.0
 50
323.58368000000172
 51
45.00000100000149
  0
ARC
  5
2E98
  8
AM_0
 10
898.87572452275163
 20
479.59374930124858
 30
0.0
 40
5.0
 50
225.0
 51
306.41631999999822
  0
LINE
  5
2E99
  8
AM_0
 10
944.65013952275115
 20
449.67718430124842
 30
0.0
 11
944.65013952275115
 21
441.67718430124842
 31
0.0
  0
ARC
  5
2E9A
  8
AM_0
 10
978.42455452275158
 20
479.59374930124858
 30
0.0
 40
5.0
 50
233.58368000000161
 51
315.0
  0
ARC
  5
2E9B
  8
AM_0
 10
992.56670452275205
 20
465.45159930124879
 30
0.0
 40
5.0
 50
135.0
 51
216.41631999999831
  0
LINE
  5
2E9C
  8
AM_0
 10
1078.64729952275
 20
304.00536930124849
 30
0.0
 11
1081.150139522751
 21
375.67718430124847
 31
0.0
  0
LINE
  5
2E9D
  8
AM_0
 10
1013.309379522751
 20
272.50567430124852
 30
0.0
 11
1016.428704522752
 21
284.14721430124871
 31
0.0
  0
ARC
  5
2E9E
  8
AM_0
 10
1003.650169522751
 20
275.09386930124862
 30
0.0
 40
10.0
 50
254.99999999999821
 51
344.99999999999909
  0
CIRCLE
  5
2E9F
  8
AM_0
 10
1058.858284522752
 20
305.46904930124862
 30
0.0
 40
9.5
  0
ARC
  5
2EA0
  8
AM_0
 10
1059.65888452275
 20
304.66845430124852
 30
0.0
 40
19.000000499999999
 50
271.99999999999687
 51
357.9999999999992
  0
LINE
  5
2EA1
  8
AM_0
 10
1000.650139522751
 20
425.67718430124847
 30
0.0
 11
1000.650139522751
 21
405.67718430124847
 31
0.0
  0
LINE
  5
2EA2
  8
AM_0
 10
1081.150139522751
 20
375.67718430124847
 30
0.0
 11
1081.150139522751
 21
425.67718430124847
 31
0.0
  0
ARC
  5
2EA3
  8
AM_0
 10
1044.1726295227511
 20
402.67718430124842
 30
0.0
 40
5.0
 50
270.0
 51
347.70395000000082
  0
LINE
  5
2EA4
  8
AM_0
 10
1044.1726295227511
 20
397.67718430124847
 30
0.0
 11
1008.65016952275
 21
397.67718430124847
 31
0.0
  0
ARC
  5
2EA5
  8
AM_0
 10
1008.65016952275
 20
405.67718430124847
 30
0.0
 40
8.0
 50
179.9999899999988
 51
270.0
  0
LINE
  5
2EA6
  8
AM_0
 10
1081.150139522751
 20
475.67718430124847
 30
0.0
 11
1081.150139522751
 21
425.67718430124847
 31
0.0
  0
ARC
  5
2EA7
  8
AM_0
 10
938.65016952275175
 20
387.67718430124847
 30
0.0
 40
122.0
 50
60.143060000003558
 51
86.162371999997163
  0
LINE
  5
2EA8
  8
AM_0
 10
1060.321969522751
 20
565.67435930124873
 30
0.0
 11
988.65016952275175
 21
568.17720930124835
 31
0.0
  0
LINE
  5
2EA9
  8
AM_0
 10
816.9783195227518
 20
565.6744093012486
 30
0.0
 11
888.6501695227513
 21
568.17720930124835
 31
0.0
  0
CIRCLE
  5
2EAA
  8
AM_0
 10
818.44197452275125
 20
545.88535930124874
 30
0.0
 40
9.5
  0
ARC
  5
2EAB
  8
AM_0
 10
817.6414095227517
 20
546.68595930124843
 30
0.0
 40
19.000000499999999
 50
91.999998000000545
 51
177.9999999999994
  0
ARC
  5
2EAC
  8
AM_0
 10
855.53959952275181
 20
494.64556930124837
 30
0.0
 40
5.0
 50
45.00000100000149
 51
140.31278000000091
  0
ARC
  5
2EAD
  8
AM_0
 10
869.6817545227517
 20
508.78771930124873
 30
0.0
 40
5.0
 50
129.6872200000015
 51
225.0
  0
ARC
  5
2EAE
  8
AM_0
 10
930.15013952275115
 20
514.39240930124845
 30
0.0
 40
5.0
 50
273.83763000000209
 51
0.0
  0
ARC
  5
2EAF
  8
AM_0
 10
930.15013952275115
 20
533.34210930124857
 30
0.0
 40
5.0
 50
0.0
 51
94.514061000000083
  0
LINE
  5
2EB0
  8
AM_0
 10
935.15013952275126
 20
533.34210930124857
 30
0.0
 11
935.15013952275126
 21
514.39240930124845
 31
0.0
  0
ARC
  5
2EB1
  8
AM_0
 10
938.65016952275175
 20
387.67718430124921
 30
0.0
 40
122.0
 50
93.837626000003567
 51
119.8569400000037
  0
LINE
  5
2EB2
  8
AM_0
 10
942.15013952275115
 20
533.34210930124857
 30
0.0
 11
942.15013952275115
 21
514.39240930124845
 31
0.0
  0
ARC
  5
2EB3
  8
AM_0
 10
947.15013952275115
 20
514.39240930124845
 30
0.0
 40
5.0
 50
179.9999899999988
 51
266.16236000000072
  0
ARC
  5
2EB4
  8
AM_0
 10
947.15013952275115
 20
533.34210930124857
 30
0.0
 40
5.0
 50
85.485944000000941
 51
180.00001000000091
  0
LINE
  5
2EB5
  8
AM_0
 10
888.6501695227513
 20
568.17715930124882
 30
0.0
 11
938.65016952275175
 21
568.17715930124882
 31
0.0
  0
LINE
  5
2EB6
  8
AM_0
 10
988.65016952275175
 20
568.17715930124882
 30
0.0
 11
938.65016952275175
 21
568.17715930124882
 31
0.0
  0
ARC
  5
2EB7
  8
ﾁｭｳｼﾝｾﾝ1
 10
938.65016952274175
 20
425.67718430123801
 30
0.0
 40
170.00000500001411
 50
38.991545983639909
 51
51.014604000000709
  0
CIRCLE
  5
2EB8
  8
AM_0
 10
1058.858284522752
 20
545.88535930124874
 30
0.0
 40
9.5
  0
LINE
  5
2EB9
  8
ﾁｭｳｼﾝｾﾝ1
 10
1070.122084777177
 20
557.14913992897698
 30
0.0
 11
1046.8168213294739
 21
533.84385442576433
 31
0.0
  0
ARC
  5
2EBA
  8
AM_0
 10
1059.65888452275
 20
546.68595930124843
 30
0.0
 40
19.000000499999999
 50
2.0000000000004712
 51
88.000000000002899
  0
ARC
  5
2EBB
  8
AM_0
 10
1021.76067452275
 20
494.64556930124837
 30
0.0
 40
5.0
 50
39.687223999999532
 51
135.0
  0
ARC
  5
2EBC
  8
AM_0
 10
1007.6185545227499
 20
508.78771930124873
 30
0.0
 40
5.0
 50
315.0
 51
50.312775000000542
  0
LINE
  5
2EBD
  8
AM_0
 10
391.20761815711791
 20
348.13115430124861
 30
0.0
 11
402.66705815711782
 21
348.13115430124861
 31
0.0
  0
LINE
  5
2EBE
  8
AM_0
 10
391.20761815711791
 20
427.08049930124861
 30
0.0
 11
402.66705815711782
 21
427.08049930124861
 31
0.0
  0
LINE
  5
2EBF
  8
AM_0
 10
326.35898615711818
 20
717.32796147307693
 30
0.0
 11
326.35898615711818
 21
917.32796147307704
 31
0.0
  0
LINE
  5
2EC0
  8
AM_0
 10
336.3589861571183
 20
916.32796147307681
 30
0.0
 11
336.3589861571183
 21
718.32796147307693
 31
0.0
  0
LINE
  5
2EC1
  8
AM_0
 10
370.35898615711818
 20
755.48320647307708
 30
0.0
 11
370.35898615711818
 21
878.80437347307679
 31
0.0
  0
LINE
  5
2EC2
  8
AM_0
 10
389.3589861571183
 20
890.82796147307715
 30
0.0
 11
389.3589861571183
 21
743.82796147307693
 31
0.0
  0
LINE
  5
2EC3
  8
AM_0
 10
387.53329715711823
 20
748.42332547307694
 30
0.0
 11
370.35898615711818
 21
749.92588247307697
 31
0.0
  0
ARC
  5
2EC4
  8
AM_0
 10
335.3589861571183
 20
718.32796147307693
 30
0.0
 40
1.0
 50
270.0
 51
0.0
  0
LINE
  5
2EC5
  8
AM_0
 10
326.35898615711818
 20
717.32796147307693
 30
0.0
 11
335.3589861571183
 21
717.32796147307693
 31
0.0
  0
LINE
  5
2EC6
  8
AM_0
 10
370.35898615711818
 20
749.92588247307697
 30
0.0
 11
339.0975181571182
 21
747.1908584730769
 31
0.0
  0
ARC
  5
2EC7
  8
AM_0
 10
339.35898615711818
 20
744.20227447307695
 30
0.0
 40
3.0
 50
94.99999999999973
 51
180.0
  0
LINE
  5
2EC8
  8
AM_0
 10
389.3589861571183
 20
743.82796147307693
 30
0.0
 11
404.3589861571183
 21
743.82796147307693
 31
0.0
  0
LINE
  5
2EC9
  8
AM_0
 10
391.20754815711831
 20
755.67796147307695
 30
0.0
 11
402.66698815711828
 21
755.67796147307695
 31
0.0
  0
ARC
  5
2ECA
  8
AM_0
 10
387.3589861571183
 20
746.43093547307694
 30
0.0
 40
2.0
 50
0.0
 51
85.000000000000256
  0
LINE
  5
2ECB
  8
AM_0
 10
387.53329715711823
 20
886.23259847307713
 30
0.0
 11
370.35898615711818
 21
884.73004047307666
 31
0.0
  0
LINE
  5
2ECC
  8
AM_0
 10
370.35898615711818
 20
884.73004047307666
 30
0.0
 11
339.0975181571182
 21
887.46506447307695
 31
0.0
  0
ARC
  5
2ECD
  8
AM_0
 10
339.35898615711818
 20
890.4536484730769
 30
0.0
 40
3.0
 50
180.0
 51
265.00000000000028
  0
LINE
  5
2ECE
  8
AM_0
 10
391.20754815711831
 20
777.78193147307695
 30
0.0
 11
402.66698815711828
 21
777.78193147307695
 31
0.0
  0
LINE
  5
2ECF
  8
AM_0
 10
391.20754815711831
 20
856.73127647307695
 30
0.0
 11
402.66698815711828
 21
856.73127647307695
 31
0.0
  0
LINE
  5
2ED0
  8
AM_0
 10
389.3589861571183
 20
890.82796147307715
 30
0.0
 11
404.3589861571183
 21
890.82796147307715
 31
0.0
  0
LINE
  5
2ED1
  8
AM_0
 10
391.20754815711831
 20
878.97796147307724
 30
0.0
 11
402.66698815711828
 21
878.97796147307724
 31
0.0
  0
ARC
  5
2ED2
  8
AM_0
 10
387.3589861571183
 20
888.22498747307714
 30
0.0
 40
2.0
 50
274.99999999999972
 51
0.0
  0
ARC
  5
2ED3
  8
AM_0
 10
335.3589861571183
 20
916.32796147307681
 30
0.0
 40
1.0
 50
0.0
 51
90.0
  0
LINE
  5
2ED4
  8
AM_0
 10
326.35898615711818
 20
917.32796147307704
 30
0.0
 11
335.3589861571183
 21
917.32796147307704
 31
0.0
  0
ARC
  5
2ED5
  8
ﾁｭｳｼﾝｾﾝ1
 10
938.65016952276233
 20
425.67718430123801
 30
0.0
 40
170.00000500001411
 50
128.9853959999987
 51
141.00845401635951
  0
LINE
  5
2ED6
  8
ﾁｭｳｼﾝｾﾝ1
 10
807.17825426832735
 20
557.14913992897777
 30
0.0
 11
830.4835177160295
 21
533.84385442576513
 31
0.0
  0
ARC
  5
2ED7
  8
ﾁｭｳｼﾝｾﾝ1
 10
938.65016952275539
 20
425.67718430124592
 30
0.0
 40
170.00000499999581
 50
308.9853899999996
 51
321.45722568924231
  0
LINE
  5
2ED8
  8
ﾁｭｳｼﾝｾﾝ1
 10
1069.379205130138
 20
294.94815253344802
 30
0.0
 11
1047.1910178278761
 21
317.13633662099841
 31
0.0
  0
TEXT
  5
30C6
  8
AM_0
 10
813.86330715250449
 20
846.75913521886298
 30
0.0
 40
15.0
  1
VX15-060AF~VX15-100AF
  0
ENDSEC
  0
EOF
