  0
SECTION
  2
HEADER
  9
$ACADVER
  1
AC1009
  9
$INSBASE
 10
0.0
 20
0.0
 30
0.0
  9
$EXTMIN
 10
278.11420804252162
 20
218.15320715388819
 30
-0.0000000000112498
  9
$EXTMAX
 10
1269.518740926891
 20
1071.1137610340579
 30
0.0000000000002956
  9
$LIMMIN
 10
0.0
 20
0.0
  9
$LIMMAX
 10
1422.5
 20
925.0
  9
$ORTHOMODE
 70
     0
  9
$REGENMODE
 70
     1
  9
$FILLMODE
 70
     1
  9
$QTEXTMODE
 70
     0
  9
$MIRRTEXT
 70
     1
  9
$DRAGMODE
 70
     2
  9
$LTSCALE
 40
5.0
  9
$OSMODE
 70
   551
  9
$ATTMODE
 70
     1
  9
$TEXTSIZE
 40
2.5
  9
$TRACEWID
 40
1.0
  9
$TEXTSTYLE
  7
STANDARD
  9
$CLAYER
  8
AM_0
  9
$CELTYPE
  6
BYLAYER
  9
$CECOLOR
 62
   256
  9
$DIMSCALE
 40
1.0
  9
$DIMASZ
 40
2.5
  9
$DIMEXO
 40
1.0
  9
$DIMDLI
 40
8.0
  9
$DIMRND
 40
0.0
  9
$DIMDLE
 40
0.0
  9
$DIMEXE
 40
0.6
  9
$DIMTP
 40
0.1
  9
$DIMTM
 40
0.1
  9
$DIMTXT
 40
2.5
  9
$DIMCEN
 40
0.0
  9
$DIMTSZ
 40
0.0
  9
$DIMTOL
 70
     0
  9
$DIMLIM
 70
     0
  9
$DIMTIH
 70
     0
  9
$DIMTOH
 70
     0
  9
$DIMSE1
 70
     0
  9
$DIMSE2
 70
     0
  9
$DIMTAD
 70
     1
  9
$DIMZIN
 70
     8
  9
$DIMBLK
  1

  9
$DIMASO
 70
     1
  9
$DIMSHO
 70
     1
  9
$DIMPOST
  1

  9
$DIMAPOST
  1
"
  9
$DIMALT
 70
     0
  9
$DIMALTD
 70
     2
  9
$DIMALTF
 40
0.0393701
  9
$DIMLFAC
 40
1.0
  9
$DIMTOFL
 70
     1
  9
$DIMTVP
 40
0.0
  9
$DIMTIX
 70
     0
  9
$DIMSOXD
 70
     0
  9
$DIMSAH
 70
     0
  9
$DIMBLK1
  1

  9
$DIMBLK2
  1

  9
$DIMSTYLE
  2
AM_ISO
  9
$DIMCLRD
 70
   256
  9
$DIMCLRE
 70
   256
  9
$DIMCLRT
 70
     4
  9
$DIMTFAC
 40
0.71
  9
$DIMGAP
 40
0.8
  9
$LUNITS
 70
     2
  9
$LUPREC
 70
     2
  9
$SKETCHINC
 40
1.0
  9
$FILLETRAD
 40
25.0
  9
$AUNITS
 70
     0
  9
$AUPREC
 70
     0
  9
$MENU
  1
.
  9
$ELEVATION
 40
0.0
  9
$PELEVATION
 40
0.0
  9
$THICKNESS
 40
0.0
  9
$LIMCHECK
 70
     0
  9
$BLIPMODE
 70
     0
  9
$CHAMFERA
 40
10.0
  9
$CHAMFERB
 40
5.0
  9
$SKPOLY
 70
     0
  9
$TDCREATE
 40
2452066.5873554982
  9
$TDUPDATE
 40
2458541.5473756939
  9
$TDINDWG
 40
0.1881168866
  9
$TDUSRTIMER
 40
0.1881168634
  9
$USRTIMER
 70
     1
  9
$ANGBASE
 50
0.0
  9
$ANGDIR
 70
     0
  9
$PDMODE
 70
     0
  9
$PDSIZE
 40
0.0
  9
$PLINEWID
 40
0.0
  9
$COORDS
 70
     1
  9
$SPLFRAME
 70
     0
  9
$SPLINETYPE
 70
     6
  9
$SPLINESEGS
 70
     8
  9
$ATTDIA
 70
     1
  9
$ATTREQ
 70
     1
  9
$HANDLING
 70
     1
  9
$HANDSEED
  5
3048
  9
$SURFTAB1
 70
     6
  9
$SURFTAB2
 70
     6
  9
$SURFTYPE
 70
     6
  9
$SURFU
 70
     6
  9
$SURFV
 70
     6
  9
$UCSNAME
  2

  9
$UCSORG
 10
0.0
 20
0.0
 30
0.0
  9
$UCSXDIR
 10
1.0
 20
0.0
 30
0.0
  9
$UCSYDIR
 10
0.0
 20
1.0
 30
0.0
  9
$PUCSNAME
  2

  9
$PUCSORG
 10
0.0
 20
0.0
 30
0.0
  9
$PUCSXDIR
 10
1.0
 20
0.0
 30
0.0
  9
$PUCSYDIR
 10
0.0
 20
1.0
 30
0.0
  9
$USERI1
 70
     0
  9
$USERI2
 70
     0
  9
$USERI3
 70
     0
  9
$USERI4
 70
     0
  9
$USERI5
 70
     0
  9
$USERR1
 40
0.0
  9
$USERR2
 40
0.0
  9
$USERR3
 40
0.0
  9
$USERR4
 40
0.0
  9
$USERR5
 40
0.0
  9
$WORLDVIEW
 70
     1
  9
$SHADEDGE
 70
     3
  9
$SHADEDIF
 70
    70
  9
$TILEMODE
 70
     1
  9
$MAXACTVP
 70
    64
  9
$PLIMCHECK
 70
     0
  9
$PEXTMIN
 10
1.0000000000000000E+020
 20
1.0000000000000000E+020
 30
1.0000000000000000E+020
  9
$PEXTMAX
 10
-1.0000000000000000E+020
 20
-1.0000000000000000E+020
 30
-1.0000000000000000E+020
  9
$PLIMMIN
 10
0.0
 20
0.0
  9
$PLIMMAX
 10
420.0
 20
297.0
  9
$UNITMODE
 70
     0
  9
$VISRETAIN
 70
     1
  9
$PLINEGEN
 70
     0
  9
$PSLTSCALE
 70
     1
  0
ENDSEC
  0
SECTION
  2
TABLES
  0
TABLE
  2
VPORT
 70
     1
  0
VPORT
  2
*ACTIVE
 70
     0
 10
0.0
 20
0.0
 11
1.0
 21
1.0
 12
773.8164744847063
 22
644.63348409397327
 13
0.0
 23
0.0
 14
12.5
 24
12.5
 15
50.0
 25
50.0
 16
0.0
 26
0.0
 36
1.0
 17
0.0
 27
0.0
 37
0.0
 40
858.8161183232836
 41
1.7571592210767459
 42
50.0
 43
0.0
 44
0.0
 50
0.0
 51
0.0
 71
     0
 72
   100
 73
     1
 74
     3
 75
     0
 76
     0
 77
     0
 78
     0
  0
ENDTAB
  0
TABLE
  2
LTYPE
 70
    26
  0
LTYPE
  2
CONTINUOUS
 70
     0
  3
Solid line
 72
    65
 73
     0
 40
0.0
  0
LTYPE
  2
AM_ISO02W050
 70
     0
  3
__ __ __ __ __ __ __ __ __ __ __ __ __ __ __
 72
    65
 73
     2
 40
7.5
 49
6.0
 49
-1.5
  0
LTYPE
  2
AM_ISO08W050
 70
     0
  3
____ . ____ . ____ . ____ . ____ . ____ . ____
 72
    65
 73
     4
 40
18.0
 49
12.0
 49
-1.5
 49
3.0
 49
-1.5
  0
LTYPE
  2
AM_ISO09W050
 70
     0
  3
_____ . . _____ . . _____ . . ____ .. ____
 72
    65
 73
     6
 40
22.5
 49
12.0
 49
-1.5
 49
3.0
 49
-1.5
 49
3.0
 49
-1.5
  0
LTYPE
  2
AMCONSTR
 70
     0
  3
_______________________
 72
    65
 73
     2
 40
9999.0
 49
9999.0
 49
0.0
  0
LTYPE
  2
AM_ISO08W050X2
 70
     0
  3
__ . __ . __ . __ . __ . __
 72
    65
 73
     4
 40
9.0
 49
6.0
 49
-0.75
 49
1.5
 49
-0.75
  0
LTYPE
  2
AM_ISO02W050X2
 70
     0
  3
 _ _ _ _ _ _ _ _ _ _ _ _
 72
    65
 73
     2
 40
3.75
 49
3.0
 49
-0.75
  0
LTYPE
  2
AMZIGZAG
 70
     0
  3
/\/-/\/-/\/-/\/-/\/-/\/
 72
    65
 73
     2
 40
11.000099999999991
 49
0.0001
 49
-11.0
  0
LTYPE
  2
ACISOWELD
 70
     0
  3
_ _ _ _ _
 72
    65
 73
     2
 40
2.0
 49
2.0
 49
-1.0
  0
LTYPE
  2
ACISOTGB
 70
     0
  3
__ . . __ . .
 72
    65
 73
     6
 40
9.0
 49
4.0
 49
-1.0
 49
1.0
 49
-1.0
 49
1.0
 49
-1.0
  0
LTYPE
  2
ACISOTGL
 70
     0
  3
_ _ _ _ _
 72
    65
 73
     2
 40
3.0
 49
2.0
 49
-1.0
  0
LTYPE
  2
CENTER
 70
     0
  3
__ . __
 72
    65
 73
     4
 40
7.0
 49
4.0
 49
-1.0
 49
1.0
 49
-1.0
  0
LTYPE
  2
PHANTOM2
 70
     0
  3
Phantom (.5x) ___ _ _ ___ _ _ ___ _ _ ___ _ _
 72
    65
 73
     6
 40
31.75
 49
15.875
 49
-3.174999999999998
 49
3.174999999999998
 49
-3.174999999999998
 49
3.174999999999998
 49
-3.174999999999998
  0
LTYPE
  2
ACANSTGBM
 70
     0
  3
__ . . __ . .
 72
    65
 73
     6
 40
9.0
 49
4.0
 49
-1.0
 49
1.0
 49
-1.0
 49
1.0
 49
-1.0
  0
LTYPE
  2
ACANSTGLM
 70
     0
  3
_ _ _ _ _
 72
    65
 73
     2
 40
3.0
 49
2.0
 49
-1.0
  0
LTYPE
  2
GEN7
 70
     0
  3
____ . ____ . ____ . ____ . ____ . ____ . ____
 72
    65
 73
     4
 40
14.25
 49
9.75
 49
-1.5
 49
1.5
 49
-1.5
  0
LTYPE
  2
GEN7A
 70
     0
  3
__ . __ . __
 72
    65
 73
     4
 40
7.375
 49
4.75
 49
-0.875
 49
0.875
 49
-0.875
  0
LTYPE
  2
ACJISTGB
 70
     0
  3
__ . . __ . .
 72
    65
 73
     6
 40
9.0
 49
4.0
 49
-1.0
 49
1.0
 49
-1.0
 49
1.0
 49
-1.0
  0
LTYPE
  2
ACJISTGL
 70
     0
  3
_ _ _ _ _
 72
    65
 73
     2
 40
3.0
 49
2.0
 49
-1.0
  0
LTYPE
  2
HIDDEN
 70
     0
  3
Hidden __ __ __ __ __ __ __ __ __ __ __ __ __ _
 72
    65
 73
     2
 40
0.375
 49
0.25
 49
-0.125
  0
LTYPE
  2
CENTER2
 70
     0
  3
Center (.5x) ___ _ ___ _ ___ _ ___ _ ___ _ ___
 72
    65
 73
     4
 40
1.125
 49
0.75
 49
-0.125
 49
0.125
 49
-0.125
  0
LTYPE
  2
HIDDEN2
 70
     0
  3
Hidden (.5x) _ _ _ _ _ _ _ _ _ _ _ _ _ _ _ _ _
 72
    65
 73
     2
 40
0.1875
 49
0.125
 49
-0.0625
  0
LTYPE
  2
AMZIGZAG2
 70
     0
  3
/\/-/\/-/\/-/\/-/\/-/\/
 72
    65
 73
     2
 40
0.4401
 49
0.0001
 49
-0.4400000000000002
  0
LTYPE
  2
ACANSTGB
 70
     0
  3
__ . . __ . .
 72
    65
 73
     6
 40
0.35433070866
 49
0.15748031496
 49
-0.03937007874
 49
0.03937007874
 49
-0.03937007874
 49
0.03937007874
 49
-0.03937007874
  0
LTYPE
  2
ACANSTGL
 70
     0
  3
_ _ _ _ _
 72
    65
 73
     2
 40
0.11811023622
 49
0.07874015748
 49
-0.03937007874
  0
ENDTAB
  0
TABLE
  2
LAYER
 70
     6
  0
LAYER
  2
0
 70
     0
 62
     7
  6
CONTINUOUS
  0
LAYER
  2
AM_0
 70
     0
 62
     7
  6
CONTINUOUS
  0
LAYER
  2
AM_5
 70
     0
 62
     2
  6
CONTINUOUS
  0
LAYER
  2
DEFPOINTS
 70
     0
 62
     7
  6
CONTINUOUS
  0
LAYER
  2
ﾁｭｳｼﾝｾﾝ
 70
     0
 62
     1
  6
GEN7
  0
LAYER
  2
ﾁｭｳｼﾝｾﾝ1
 70
     0
 62
     1
  6
GEN7A
  0
ENDTAB
  0
TABLE
  2
STYLE
 70
     9
  0
STYLE
  2
STANDARD
 70
     0
 40
0.0
 41
0.8299999999999999
 50
0.0
 71
     0
 42
2.5
  3
txt.shx
  4
bigfont.shx
  0
STYLE
  2
ANNOTATIVE
 70
     0
 40
0.0
 41
1.0
 50
0.0
 71
     0
 42
0.2
  3
txt
  4

  0
STYLE
  2

 70
     1
 40
0.0
 41
1.0
 50
0.0
 71
     0
 42
2.5
  3
ltypeshp.shx
  4

  0
STYLE
  2
ACISOTS
 70
     0
 40
1.0
 41
1.0
 50
0.0
 71
     0
 42
2.5
  3
isocp.shx
  4
extfont.shx
  0
STYLE
  2
ACISOGDT
 70
     0
 40
0.0
 41
1.0
 50
0.0
 71
     0
 42
2.5
  3
amgdt.shx
  4

  0
STYLE
  2
ACANSTS
 70
     0
 40
1.0
 41
1.0
 50
0.0
 71
     0
 42
2.5
  3
romans.shx
  4
bigfont.shx
  0
STYLE
  2
ACANSGDT
 70
     0
 40
0.0
 41
1.0
 50
0.0
 71
     0
 42
2.5
  3
amgdt.shx
  4

  0
STYLE
  2
ACJISTS
 70
     0
 40
1.0
 41
1.0
 50
0.0
 71
     0
 42
2.5
  3
isocp.shx
  4
bigfont.shx
  0
STYLE
  2
ACJISGDT
 70
     0
 40
0.0
 41
1.0
 50
0.0
 71
     0
 42
2.5
  3
amgdt.shx
  4

  0
ENDTAB
  0
TABLE
  2
VIEW
 70
     6
  0
VIEW
  2
AM_VIEW1
 70
     0
 40
462.5
 10
416.07965009208078
 20
693.75
 41
832.15930018416213
 11
0.0
 21
0.0
 31
1.0
 12
0.0
 22
0.0
 32
0.0
 42
50.0
 43
0.0
 44
0.0
 50
0.0
 71
     0
  0
VIEW
  2
AM_VIEW2
 70
     0
 40
462.5
 10
1006.420349907918
 20
693.75
 41
832.15930018416213
 11
0.0
 21
0.0
 31
1.0
 12
0.0
 22
0.0
 32
0.0
 42
50.0
 43
0.0
 44
0.0
 50
0.0
 71
     0
  0
VIEW
  2
AM_VIEW3
 70
     0
 40
462.5
 10
416.07965009208078
 20
231.25
 41
832.15930018416213
 11
0.0
 21
0.0
 31
1.0
 12
0.0
 22
0.0
 32
0.0
 42
50.0
 43
0.0
 44
0.0
 50
0.0
 71
     0
  0
VIEW
  2
AM_VIEW4
 70
     0
 40
462.5
 10
1006.420349907918
 20
231.25
 41
832.15930018416213
 11
0.0
 21
0.0
 31
1.0
 12
0.0
 22
0.0
 32
0.0
 42
50.0
 43
0.0
 44
0.0
 50
0.0
 71
     0
  0
VIEW
  2
AM_VIEW5
 70
     0
 40
462.5
 10
711.24999999999966
 20
462.5
 41
832.15930018416179
 11
0.0
 21
0.0
 31
1.0
 12
0.0
 22
0.0
 32
0.0
 42
50.0
 43
0.0
 44
0.0
 50
0.0
 71
     0
  0
VIEW
  2
AM_VIEW6
 70
     0
 40
924.99075000000005
 10
711.24999999999966
 20
462.5
 41
1664.3019571823199
 11
0.0
 21
0.0
 31
1.0
 12
0.0
 22
0.0
 32
0.0
 42
50.0
 43
0.0
 44
0.0
 50
0.0
 71
     0
  0
ENDTAB
  0
TABLE
  2
UCS
 70
     0
  0
ENDTAB
  0
TABLE
  2
APPID
 70
    95
  0
APPID
  2
ACAD
 70
     0
  0
APPID
  2
ACADANNOTATIVE
 70
     0
  0
APPID
  2
MCAD_NO_VIS
 70
     0
  0
APPID
  2
ACAD_TEMP_GRAPHIC
 70
     0
  0
APPID
  2
ACATTRIBSERVICES
 70
     0
  0
APPID
  2
GENIUS_GENREC_14
 70
     0
  0
APPID
  2
GENIUS_GENOBJ-N-REC_13
 70
     0
  0
APPID
  2
GENIUS_GENODEF_13
 70
     0
  0
APPID
  2
GENIUS_GENOLIS_13
 70
     0
  0
APPID
  2
GENIUS_GENOBJ-N-TIT_13
 70
     0
  0
APPID
  2
GENIUS_GENOENT_13
 70
     0
  0
APPID
  2
GENIUS_GENTITLE_13
 70
     0
  0
APPID
  2
GENIUS_GENOREF_13
 70
     0
  0
APPID
  2
GENIUS_GENSCREG_15
 70
     0
  0
APPID
  2
GENIUS_GENOBJ-N-SDF_13
 70
     0
  0
APPID
  2
GENIUS_GENFIL_13
 70
     0
  0
APPID
  2
GENIUS_GENOBJ-N-CHA_13
 70
     0
  0
APPID
  2
GENIUS_GENDTOL_13
 70
     0
  0
APPID
  2
GENIUS_GENOBJ-N-FIL_13
 70
     0
  0
APPID
  2
AD_DRAW
 70
     0
  0
APPID
  2
DESIGNERASSEMBLIES
 70
     0
  0
APPID
  2
ASURF_PCURVE_APPNAME
 70
     0
  0
APPID
  2
GENIUS_GE3SECT_13
 70
     0
  0
APPID
  2
GENIUS_GENCFG_13
 70
     0
  0
APPID
  2
GENIUS_GE3CFG0_13
 70
     0
  0
APPID
  2
GENIUS_GENCFG0_13
 70
     0
  0
APPID
  2
GENIUS_GENCFG1_13
 70
     0
  0
APPID
  2
GENIUS_GENCFG2_13
 70
     0
  0
APPID
  2
GENIUS_GENCFG3_13
 70
     0
  0
APPID
  2
GENIUS_GENCFG4_13
 70
     0
  0
APPID
  2
GENIUS_GEVCFG0_13
 70
     0
  0
APPID
  2
GENIUS_GENHINW_13
 70
     0
  0
APPID
  2
GENIUS_FIRSTVISTXT_14
 70
     0
  0
APPID
  2
GENIUS_GENOBJ-N-LEADER_13
 70
     0
  0
APPID
  2
GEV_VCCNULL_SWITCH_OFF
 70
     0
  0
APPID
  2
GENIUS_GEFCFG0_13
 70
     0
  0
APPID
  2
GENIUS_GENZVEED_13
 70
     0
  0
APPID
  2
GENIUS_GENSCREG_13
 70
     0
  0
APPID
  2
GENIUS_DUMCFG0_13
 70
     0
  0
APPID
  2
GEVID936201362
 70
     0
  0
APPID
  2
GEVDC
 70
     0
  0
APPID
  2
GEVCON
 70
     0
  0
APPID
  2
VCC
 70
     0
  0
APPID
  2
GEVPT
 70
     0
  0
APPID
  2
GEVIT
 70
     0
  0
APPID
  2
GENBH
 70
     0
  0
APPID
  2
GEVMK
 70
     0
  0
APPID
  2
GENIUS_GENBH_13
 70
     0
  0
APPID
  2
GENIUS_GENOBJ-NBEHI-BHF_13
 70
     0
  0
APPID
  2
GENIUS_GENOBJ-NBEHI-BHB_13
 70
     0
  0
APPID
  2
GENIUS_GENOBJ-F-DESC_13
 70
     0
  0
APPID
  2
GENIUS_GEFDESC_14
 70
     0
  0
APPID
  2
GENIUS_GENOBJ-F-PART_13
 70
     0
  0
APPID
  2
GENIUS_GEFSTDP_13
 70
     0
  0
APPID
  2
GENIUS_GEFPARTINS_13
 70
     0
  0
APPID
  2
GENIUS_GENTRA_14
 70
     0
  0
APPID
  2
GENIUS_GENINF13_13
 70
     0
  0
APPID
  2
GENIUS_GENOBJ-N-INFOPT_13
 70
     0
  0
APPID
  2
GENIUS_GENOBJ-N-RSSYM_13
 70
     0
  0
APPID
  2
GENIUS_GENSYMENT_13
 70
     0
  0
APPID
  2
GENIUS_GENSCSYM_13
 70
     0
  0
APPID
  2
GENIUS_GEFINFNAM_13
 70
     0
  0
APPID
  2
GENIUS_GENOBJ-N-CEN_13
 70
     0
  0
APPID
  2
GENIUS_GENOBJ-N-CRS_13
 70
     0
  0
APPID
  2
GENIUS_GENOBJ-N-CRC_13
 70
     0
  0
APPID
  2
GENIUS_GENCRC_14
 70
     0
  0
APPID
  2
GEVID942827039
 70
     0
  0
APPID
  2
GEVID942827040
 70
     0
  0
APPID
  2
GEVID942827041
 70
     0
  0
APPID
  2
GENIUS_GENOBJ-F-SCPASSM_13
 70
     0
  0
APPID
  2
GENIUS_GENDIMSH_14
 70
     0
  0
APPID
  2
GEVID942827042
 70
     0
  0
APPID
  2
GEVID946020473
 70
     0
  0
APPID
  2
GEVID946020474
 70
     0
  0
APPID
  2
GEVID946020475
 70
     0
  0
APPID
  2
GENIUS_GENOBJ-N-HTC_13
 70
     0
  0
APPID
  2
GENIUS_GENHATCH_13
 70
     0
  0
APPID
  2
GEVID948854295
 70
     0
  0
APPID
  2
GEVID939402019
 70
     0
  0
APPID
  2
GEVID952919491
 70
     0
  0
APPID
  2
GEVID952919492
 70
     0
  0
APPID
  2
GENIUS_GEFWELD_13
 70
     0
  0
APPID
  2
GENIUS_GENOBJ-F-WELS_13
 70
     0
  0
APPID
  2
GEVID952919493
 70
     0
  0
APPID
  2
GENIUS_GENOBJ-N-RSBK_13
 70
     0
  0
APPID
  2
GENIUS_GENOBJ-N-LIB_13
 70
     0
  0
APPID
  2
GENIUS_GENSCALE_13
 70
     0
  0
APPID
  2
GEVID986376691
 70
     0
  0
APPID
  2
DCO15
 70
     0
  0
APPID
  2
ACAD_DSTYLE_DIMBREAK
 70
     0
  0
APPID
  2
ACAD_DSTYLE_DIMJAG
 70
     0
  0
APPID
  2
ACAD_NAV_VCDISPLAY
 70
     0
  0
APPID
  2
ACADANNOPO
 70
     0
  0
APPID
  2
ACAD_EXEMPT_FROM_CAD_STANDARDS
 70
     0
  0
APPID
  2
ACAD_MLEADERVER
 70
     0
  0
ENDTAB
  0
TABLE
  2
DIMSTYLE
 70
    22
  0
DIMSTYLE
  2
STANDARD
 70
     0
  3

  4

  5

  6

  7

 40
1.0
 41
0.18
 42
0.0625
 43
0.38
 44
0.18
 45
0.0
 46
0.0
 47
0.0
 48
0.0
140
0.18
141
0.09
142
0.0
143
25.399999999999999
144
1.0
145
0.0
146
1.0
147
0.09
 71
     0
 72
     0
 73
     1
 74
     1
 75
     0
 76
     0
 77
     0
 78
     0
170
     0
171
     2
172
     0
173
     0
174
     0
175
     0
176
     0
177
     0
178
     0
  0
DIMSTYLE
  2
ANNOTATIVE
 70
     0
  3

  4

  5

  6

  7

 40
1.0
 41
0.18
 42
0.0625
 43
0.38
 44
0.18
 45
0.0
 46
0.0
 47
0.0
 48
0.0
140
0.18
141
0.09
142
0.0
143
25.399999999999999
144
1.0
145
0.0
146
1.0
147
0.09
 71
     0
 72
     0
 73
     1
 74
     1
 75
     0
 76
     0
 77
     0
 78
     0
170
     0
171
     2
172
     0
173
     0
174
     0
175
     0
176
     0
177
     0
178
     0
  0
DIMSTYLE
  2
AM_ISO
 70
     0
  3

  4
"
  5

  6

  7

 40
1.0
 41
2.5
 42
1.0
 43
8.0
 44
0.6
 45
0.0
 46
0.0
 47
0.1
 48
0.1
140
2.5
141
0.0
142
0.0
143
0.0393701
144
1.0
145
0.0
146
0.71
147
0.8
 71
     0
 72
     0
 73
     0
 74
     0
 75
     0
 76
     0
 77
     1
 78
     8
170
     0
171
     2
172
     1
173
     0
174
     0
175
     0
176
   256
177
   256
178
     4
  0
DIMSTYLE
  2
AM_ISO$3
 70
     0
  3

  4
"
  5

  6

  7

 40
1.0
 41
2.5
 42
1.0
 43
8.0
 44
0.6
 45
0.0
 46
0.0
 47
0.1
 48
0.1
140
2.5
141
0.0
142
0.0
143
0.0393701
144
1.0
145
0.0
146
0.71
147
0.8
 71
     0
 72
     0
 73
     0
 74
     1
 75
     0
 76
     0
 77
     1
 78
     8
170
     0
171
     2
172
     0
173
     0
174
     0
175
     0
176
   256
177
   256
178
     4
  0
DIMSTYLE
  2
AM_ISO$4
 70
     0
  3

  4
"
  5

  6

  7

 40
1.0
 41
2.5
 42
1.0
 43
8.0
 44
0.6
 45
0.0
 46
0.0
 47
0.1
 48
0.1
140
2.5
141
0.0
142
0.0
143
0.0393701
144
1.0
145
0.0
146
0.71
147
0.8
 71
     0
 72
     0
 73
     0
 74
     1
 75
     0
 76
     0
 77
     1
 78
     8
170
     0
171
     2
172
     0
173
     0
174
     0
175
     0
176
   256
177
   256
178
     4
  0
DIMSTYLE
  2
AM_ISO$6
 70
     0
  3

  4
"
  5

  6

  7

 40
1.0
 41
2.5
 42
1.0
 43
8.0
 44
0.6
 45
0.0
 46
0.0
 47
0.1
 48
0.1
140
2.5
141
0.0
142
0.0
143
0.0393701
144
1.0
145
0.0
146
0.71
147
0.8
 71
     0
 72
     0
 73
     0
 74
     0
 75
     0
 76
     0
 77
     0
 78
     8
170
     0
171
     2
172
     1
173
     0
174
     0
175
     0
176
   256
177
   256
178
     4
  0
DIMSTYLE
  2
AM_ISO$7
 70
     0
  3

  4
"
  5

  6

  7

 40
1.0
 41
2.5
 42
1.0
 43
8.0
 44
0.6
 45
0.0
 46
0.0
 47
0.1
 48
0.1
140
2.5
141
0.0
142
0.0
143
0.0393701
144
1.0
145
0.0
146
0.71
147
0.8
 71
     0
 72
     0
 73
     0
 74
     0
 75
     0
 76
     0
 77
     1
 78
     8
170
     0
171
     2
172
     1
173
     0
174
     0
175
     0
176
   256
177
   256
178
     4
  0
DIMSTYLE
  2
AM_ISO$SF
 70
     0
  3

  4
"
  5

  6

  7

 40
1.0
 41
2.5
 42
1.0
 43
10.0
 44
1.0
 45
0.0
 46
0.0
 47
0.1
 48
0.1
140
3.5
141
0.0
142
0.0
143
0.0393701
144
1.0
145
0.0
146
0.71
147
1.5
 71
     0
 72
     0
 73
     0
 74
     0
 75
     1
 76
     1
 77
     1
 78
     8
170
     0
171
     2
172
     1
173
     0
174
     0
175
     0
176
   256
177
   256
178
     2
  0
DIMSTYLE
  2
AM_ISO$SH
 70
     0
  3

  4
"
  5

  6

  7

 40
1.0
 41
2.5
 42
1.0
 43
10.0
 44
1.0
 45
0.0
 46
0.0
 47
0.1
 48
0.1
140
3.5
141
0.0
142
0.0
143
0.0393701
144
2.0
145
0.0
146
0.71
147
1.5
 71
     0
 72
     0
 73
     0
 74
     0
 75
     1
 76
     1
 77
     1
 78
     8
170
     0
171
     2
172
     1
173
     1
174
     0
175
     0
176
   256
177
   256
178
     2
  0
DIMSTYLE
  2
AM_JIS
 70
     0
  3

  4
"
  5

  6

  7

 40
1.0
 41
2.5
 42
1.0
 43
7.0
 44
1.0
 45
0.0
 46
0.0
 47
0.1
 48
0.1000000001
140
2.5
141
0.0
142
0.0
143
0.0393701
144
1.0
145
0.0
146
0.71
147
1.0
 71
     0
 72
     0
 73
     0
 74
     0
 75
     0
 76
     0
 77
     3
 78
     8
170
     0
171
     2
172
     1
173
     0
174
     0
175
     0
176
   256
177
   256
178
     4
  0
DIMSTYLE
  2
AM_JIS$3
 70
     0
  3

  4
"
  5

  6

  7

 40
1.0
 41
2.5
 42
1.0
 43
7.0
 44
1.0
 45
0.0
 46
0.0
 47
0.1
 48
0.1000000001
140
2.5
141
0.0
142
0.0
143
0.0393701
144
1.0
145
0.0
146
0.71
147
1.0
 71
     0
 72
     0
 73
     0
 74
     1
 75
     0
 76
     0
 77
     3
 78
     8
170
     0
171
     2
172
     0
173
     0
174
     0
175
     0
176
   256
177
   256
178
     4
  0
DIMSTYLE
  2
AM_JIS$4
 70
     0
  3

  4
"
  5

  6

  7

 40
1.0
 41
2.5
 42
1.0
 43
7.0
 44
1.0
 45
0.0
 46
0.0
 47
0.1
 48
0.1000000001
140
2.5
141
0.0
142
0.0
143
0.0393701
144
1.0
145
0.0
146
0.71
147
1.0
 71
     0
 72
     0
 73
     0
 74
     0
 75
     0
 76
     0
 77
     3
 78
     8
170
     0
171
     2
172
     0
173
     0
174
     0
175
     0
176
   256
177
   256
178
     4
  0
DIMSTYLE
  2
AM_JIS$6
 70
     0
  3

  4
"
  5

  6

  7

 40
1.0
 41
2.5
 42
1.0
 43
7.0
 44
1.0
 45
0.0
 46
0.0
 47
0.1
 48
0.1000000001
140
2.5
141
0.0
142
0.0
143
0.0393701
144
1.0
145
0.0
146
0.71
147
1.0
 71
     0
 72
     0
 73
     0
 74
     0
 75
     0
 76
     0
 77
     0
 78
     8
170
     0
171
     2
172
     1
173
     0
174
     0
175
     0
176
   256
177
   256
178
     4
  0
DIMSTYLE
  2
AM_JIS$7
 70
     0
  3

  4
"
  5

  6

  7

 40
1.0
 41
2.5
 42
1.0
 43
7.0
 44
1.0
 45
0.0
 46
0.0
 47
0.1
 48
0.1000000001
140
2.5
141
0.0
142
0.0
143
0.0393701
144
1.0
145
0.0
146
0.71
147
1.0
 71
     0
 72
     0
 73
     0
 74
     0
 75
     0
 76
     0
 77
     3
 78
     8
170
     0
171
     2
172
     1
173
     0
174
     0
175
     0
176
   256
177
   256
178
     4
  0
DIMSTYLE
  2
AM_JIS$SF
 70
     0
  3

  4
"
  5

  6

  7

 40
1.0
 41
2.5
 42
1.0
 43
10.0
 44
1.0
 45
0.0
 46
0.0
 47
0.1
 48
0.1
140
3.5
141
0.0
142
0.0
143
0.0393701
144
1.0
145
0.0
146
0.71
147
1.5
 71
     0
 72
     0
 73
     0
 74
     0
 75
     1
 76
     1
 77
     3
 78
     8
170
     0
171
     2
172
     1
173
     0
174
     0
175
     0
176
   256
177
   256
178
     4
  0
DIMSTYLE
  2
AM_JIS$SH
 70
     0
  3

  4
"
  5

  6

  7

 40
1.0
 41
2.5
 42
1.0
 43
10.0
 44
1.0
 45
0.0
 46
0.0
 47
0.1
 48
0.1
140
3.5
141
0.0
142
0.0
143
0.0393701
144
1.0
145
0.0
146
0.71
147
1.5
 71
     0
 72
     0
 73
     0
 74
     0
 75
     1
 76
     0
 77
     3
 78
     8
170
     0
171
     2
172
     1
173
     1
174
     0
175
     0
176
   256
177
   256
178
     4
  0
DIMSTYLE
  2
AM_ANSI
 70
     0
  3

  4
mm
  5

  6

  7

 40
1.0
 41
0.1
 42
0.05
 43
0.5
 44
0.1
 45
0.0
 46
0.0
 47
0.1
 48
0.1
140
0.12
141
0.0
142
0.0
143
25.399999999999999
144
1.0
145
0.0
146
0.71
147
0.06
 71
     0
 72
     0
 73
     1
 74
     1
 75
     0
 76
     0
 77
     0
 78
     7
170
     0
171
     2
172
     0
173
     0
174
     0
175
     0
176
   256
177
   256
178
     2
  0
DIMSTYLE
  2
AM_ANSI$3
 70
     0
  3

  4
mm
  5

  6

  7

 40
1.0
 41
0.1
 42
0.05
 43
0.5
 44
0.1
 45
0.0
 46
0.0
 47
0.1
 48
0.1
140
0.12
141
0.0
142
0.0
143
25.399999999999999
144
1.0
145
0.0
146
0.71
147
0.06
 71
     0
 72
     0
 73
     1
 74
     1
 75
     0
 76
     0
 77
     0
 78
     7
170
     0
171
     2
172
     0
173
     0
174
     0
175
     0
176
   256
177
   256
178
     2
  0
DIMSTYLE
  2
AM_ANSI$4
 70
     0
  3

  4
mm
  5

  6

  7

 40
1.0
 41
0.1
 42
0.05
 43
0.5
 44
0.1
 45
0.0
 46
0.0
 47
0.1
 48
0.1
140
0.12
141
0.0
142
0.0
143
25.399999999999999
144
1.0
145
0.0
146
0.71
147
0.06
 71
     0
 72
     0
 73
     1
 74
     1
 75
     0
 76
     0
 77
     0
 78
     7
170
     0
171
     2
172
     0
173
     0
174
     0
175
     0
176
   256
177
   256
178
     2
  0
DIMSTYLE
  2
AM_ANSI$7
 70
     0
  3

  4
mm
  5

  6

  7

 40
1.0
 41
0.1
 42
0.05
 43
0.5
 44
0.1
 45
0.0
 46
0.0
 47
0.1
 48
0.1
140
0.24
141
0.0
142
0.0
143
25.399999999999999
144
1.0
145
0.0
146
0.71
147
0.06
 71
     0
 72
     0
 73
     1
 74
     1
 75
     0
 76
     0
 77
     0
 78
     7
170
     0
171
     2
172
     0
173
     0
174
     0
175
     0
176
   256
177
   256
178
     2
  0
DIMSTYLE
  2
AM_ANSI$SF
 70
     0
  3

  4
mm
  5

  6

  7

 40
1.0
 41
0.1
 42
0.05
 43
0.5
 44
0.1
 45
0.0
 46
0.0
 47
0.1
 48
0.1
140
0.12
141
0.0
142
0.0
143
25.399999999999999
144
1.0
145
0.0
146
0.71
147
0.06
 71
     0
 72
     0
 73
     1
 74
     1
 75
     1
 76
     1
 77
     0
 78
     7
170
     0
171
     2
172
     0
173
     0
174
     0
175
     0
176
   256
177
   256
178
     2
  0
DIMSTYLE
  2
AM_ANSI$SH
 70
     0
  3

  4
mm
  5

  6

  7

 40
1.0
 41
0.1
 42
0.05
 43
0.5
 44
0.1
 45
0.0
 46
0.0
 47
0.1
 48
0.1
140
0.12
141
0.0
142
0.0
143
25.399999999999999
144
1.0
145
0.0
146
0.71
147
0.06
 71
     0
 72
     0
 73
     1
 74
     1
 75
     1
 76
     1
 77
     0
 78
     7
170
     0
171
     2
172
     0
173
     1
174
     0
175
     0
176
   256
177
   256
178
     2
  0
ENDTAB
  0
ENDSEC
  0
SECTION
  2
BLOCKS
  0
BLOCK
  8
0
  2
$MODEL_SPACE
 70
     0
 10
0.0
 20
0.0
 30
0.0
  3
$MODEL_SPACE
  1

  0
ENDBLK
  5
2EAA
  8
0
  0
BLOCK
 67
     1
  8
0
  2
$PAPER_SPACE
 70
     0
 10
0.0
 20
0.0
 30
0.0
  3
$PAPER_SPACE
  1

  0
ENDBLK
  5
2EA6
 67
     1
  8
0
  0
BLOCK
  8
0
  2
GENAXEH
 70
     0
 10
0.0
 20
0.0
 30
0.0
  3
GENAXEH
  1

  0
LINE
  5
2C70
  8
0
 10
-1.0
 20
0.0
 30
0.0
 11
1.0
 21
0.0
 31
0.0
  0
ENDBLK
  5
2C71
  8
0
  0
BLOCK
  8
0
  2
_OPEN30
 70
     0
 10
0.0
 20
0.0
 30
0.0
  3
_OPEN30
  1

  0
LINE
  5
2C74
  8
0
 62
     0
 10
-1.0
 20
0.26794919
 30
0.0
 11
0.0
 21
0.0
 31
0.0
  0
LINE
  5
2C75
  8
0
 62
     0
 10
0.0
 20
0.0
 30
0.0
 11
-1.0
 21
-0.26794919
 31
0.0
  0
LINE
  5
2C76
  8
0
 62
     0
 10
0.0
 20
0.0
 30
0.0
 11
-1.0
 21
0.0
 31
0.0
  0
ENDBLK
  5
2C77
  8
0
  0
BLOCK
  8
0
  2
_NONE
 70
     0
 10
0.0
 20
0.0
 30
0.0
  3
_NONE
  1

  0
ENDBLK
  5
2C7A
  8
0
  0
BLOCK
  8
0
  2
*U5
 70
     1
 10
0.0
 20
0.0
 30
0.0
  3
*U5
  1

  0
TEXT
  5
2C7D
  8
AM_0
 62
     4
 10
785.90898322281021
 20
315.98269213999032
 30
0.0
 40
12.5
  1
\U+2205
 50
90.0
 41
0.8299999999999999
  0
TEXT
  5
2C7E
  8
AM_0
 62
     4
 10
785.90898322281021
 20
326.35769213999032
 30
0.0
 40
12.5
  1
280
 50
90.0
 41
0.8299999999999999
  0
TEXT
  5
2C7F
  8
AM_0
 62
     4
 10
785.90898322281021
 20
355.75352547332358
 30
0.0
 40
10.0
  1
h7
 50
90.0
 41
0.8299999999999999
  0
ENDBLK
  5
2C80
  8
0
  0
BLOCK
  8
0
  2
*U6
 70
     1
 10
0.0
 20
0.0
 30
0.0
  3
*U6
  1

  0
TEXT
  5
2C83
  8
AM_0
 62
     4
 10
846.89929258783354
 20
411.20093199602093
 30
0.0
 40
12.5
  1
\U+2205
 50
90.0
 41
0.8299999999999999
  0
TEXT
  5
2C84
  8
AM_0
 62
     4
 10
846.89929258783354
 20
421.5759319960211
 30
0.0
 40
12.5
  1
55
 50
90.0
 41
0.8299999999999999
  0
TEXT
  5
2C85
  8
AM_0
 62
     4
 10
846.89929258783354
 20
442.3259319960211
 30
0.0
 40
10.0
  1
h6
 50
90.0
 41
0.8299999999999999
  0
ENDBLK
  5
2C86
  8
0
  0
BLOCK
  8
0
  2
*U7
 70
     1
 10
0.0
 20
0.0
 30
0.0
  3
*U7
  1

  0
TEXT
  5
2C89
  8
AM_0
 62
     4
 10
1052.576465454116
 20
659.13176670044174
 30
0.0
 40
12.5
  1
o
 41
0.8299999999999999
  0
TEXT
  5
2C8A
  8
AM_0
 62
     4
 10
1064.927655930308
 20
659.13176670044174
 30
0.0
 40
12.5
  1
 330
 41
0.8299999999999999
  0
ENDBLK
  5
2C8B
  8
0
  0
BLOCK
  8
0
  2
*U8
 70
     1
 10
0.0
 20
0.0
 30
0.0
  3
*U8
  1

  0
TEXT
  5
2C8E
  8
AM_0
 62
     4
 10
361.06064842358171
 20
365.13843199602098
 30
0.0
 40
12.5
  1
\U+2205
 50
90.0
 41
0.8299999999999999
  0
TEXT
  5
2C8F
  8
AM_0
 62
     4
 10
361.06064842358171
 20
375.51343199602093
 30
0.0
 40
12.5
  1
200
 50
90.0
 41
0.8299999999999999
  0
ENDBLK
  5
2C90
  8
0
  0
BLOCK
  8
0
  2
*U9
 70
     1
 10
0.0
 20
0.0
 30
0.0
  3
*U9
  1

  0
TEXT
  5
2C93
  8
AM_0
 62
     4
 10
393.95210775854002
 20
357.35718199602098
 30
0.0
 40
12.5
  1
\U+2205
 50
90.0
 41
0.8299999999999999
  0
TEXT
  5
2C94
  8
AM_0
 62
     4
 10
393.95210775854002
 20
367.73218199602098
 30
0.0
 40
12.5
  1
130
 50
90.0
 41
0.8299999999999999
  0
TEXT
  5
2C95
  8
AM_0
 62
     4
 10
393.95210775854002
 20
393.66968199602093
 30
0.0
 40
10.0
  1
G7
 50
90.0
 41
0.8299999999999999
  0
ENDBLK
  5
2C96
  8
0
  0
BLOCK
  8
0
  2
*U10
 70
     1
 10
0.0
 20
0.0
 30
0.0
  3
*U10
  1

  0
TEXT
  5
2C99
  8
AM_0
 62
     4
 10
222.90494192249
 20
362.94959329528922
 30
0.0
 40
12.5
  1
\U+2205
 50
90.0
 41
0.8299999999999999
  0
TEXT
  5
2C9A
  8
AM_0
 62
     4
 10
222.90494192249
 20
373.32459329528911
 30
0.0
 40
12.5
  1
200
 50
90.0
 41
0.8299999999999999
  0
ENDBLK
  5
2C9B
  8
0
  0
BLOCK
  8
0
  2
*U11
 70
     1
 10
0.0
 20
0.0
 30
0.0
  3
*U11
  1

  0
TEXT
  5
2C9E
  8
AM_0
 62
     4
 10
255.79640125744831
 20
355.16834329528922
 30
0.0
 40
12.5
  1
\U+2205
 50
90.0
 41
0.8299999999999999
  0
TEXT
  5
2C9F
  8
AM_0
 62
     4
 10
255.79640125744831
 20
365.54334329528922
 30
0.0
 40
12.5
  1
130
 50
90.0
 41
0.8299999999999999
  0
TEXT
  5
2CA0
  8
AM_0
 62
     4
 10
255.79640125744831
 20
391.48084329528922
 30
0.0
 40
10.0
  1
G7
 50
90.0
 41
0.8299999999999999
  0
ENDBLK
  5
2CA1
  8
0
  0
BLOCK
  8
0
  2
*U12
 70
     1
 10
0.0
 20
0.0
 30
0.0
  3
*U12
  1

  0
TEXT
  5
2CA4
  8
AM_0
 62
     4
 10
647.75327672171875
 20
313.79385343925838
 30
0.0
 40
12.5
  1
\U+2205
 50
90.0
 41
0.8299999999999999
  0
TEXT
  5
2CA5
  8
AM_0
 62
     4
 10
647.75327672171875
 20
324.1688534392585
 30
0.0
 40
12.5
  1
280
 50
90.0
 41
0.8299999999999999
  0
TEXT
  5
2CA6
  8
AM_0
 62
     4
 10
647.75327672171875
 20
353.5646867725917
 30
0.0
 40
10.0
  1
h7
 50
90.0
 41
0.8299999999999999
  0
ENDBLK
  5
2CA7
  8
0
  0
BLOCK
  8
0
  2
*U13
 70
     1
 10
0.0
 20
0.0
 30
0.0
  3
*U13
  1

  0
TEXT
  5
2CAA
  8
AM_0
 62
     4
 10
708.74358608674197
 20
409.01209329528911
 30
0.0
 40
12.5
  1
\U+2205
 50
90.0
 41
0.8299999999999999
  0
TEXT
  5
2CAB
  8
AM_0
 62
     4
 10
708.74358608674197
 20
419.38709329528911
 30
0.0
 40
12.5
  1
55
 50
90.0
 41
0.8299999999999999
  0
TEXT
  5
2CAC
  8
AM_0
 62
     4
 10
708.74358608674197
 20
440.13709329528911
 30
0.0
 40
10.0
  1
h6
 50
90.0
 41
0.8299999999999999
  0
ENDBLK
  5
2CAD
  8
0
  0
BLOCK
  8
0
  2
*U14
 70
     1
 10
0.0
 20
0.0
 30
0.0
  3
*U14
  1

  0
TEXT
  5
2CB0
  8
AM_0
 62
     4
 10
914.42075895302594
 20
656.94292799971015
 30
0.0
 40
12.5
  1
o
 41
0.8299999999999999
  0
TEXT
  5
2CB1
  8
AM_0
 62
     4
 10
926.77194942921642
 20
656.94292799971015
 30
0.0
 40
12.5
  1
 330
 41
0.8299999999999999
  0
ENDBLK
  5
2CB2
  8
0
  0
BLOCK
  8
0
  2
_ACMFILLEDHALF
 70
     0
 10
0.0
 20
0.0
 30
0.0
  3
_ACMFILLEDHALF
  1

  0
TRACE
  5
2FB4
  8
AM_0
 62
     0
 10
-0.8
 20
0.0
 30
0.0
 11
-1.0
 21
0.166666666
 31
0.0
 12
0.0
 22
0.0
 32
0.0
 13
0.0
 23
0.0
 33
0.0
  0
LINE
  5
2FB5
  8
AM_0
 62
     0
 10
-1.0
 20
0.0
 30
0.0
 11
-0.8
 21
0.0
 31
0.0
  0
ENDBLK
  5
2FB3
  8
0
  0
ENDSEC
  0
SECTION
  2
ENTITIES
  0
LINE
  5
2CB4
  8
ﾁｭｳｼﾝｾﾝ
 10
278.12449869585299
 20
906.0493705361007
 30
0.0
 11
678.97064469889074
 21
906.0493705361007
 31
0.0
  0
POLYLINE
  5
2CB5
  8
AM_0
 66
     1
 10
0.0
 20
0.0
 30
0.0
  0
VERTEX
  5
2CB6
  8
AM_0
 10
544.90487469889047
 20
992.43762053610055
 30
0.0
 42
0.01720808
  0
VERTEX
  5
2CB7
  8
AM_0
 10
540.48860469889087
 20
935.06243053610046
 30
0.0
 42
0.0088311605
  0
VERTEX
  5
2CB8
  8
AM_0
 10
539.77175469889073
 20
906.0493705361007
 30
0.0
 42
0.025919753
  0
VERTEX
  5
2CB9
  8
AM_0
 10
543.64058469889073
 20
820.08568053610065
 30
0.0
  0
SEQEND
  5
2CBA
  8
AM_0
  0
ARC
  5
2CBB
  8
AM_0
 10
416.0020446988907
 20
906.0493705361007
 30
0.0
 40
12.5
 50
203.5781799999973
 51
336.42183000000068
  0
ARC
  5
2CBC
  8
AM_0
 10
401.0020446988907
 20
892.82061053610062
 30
0.0
 40
5.0
 50
0.0
 51
41.409624000000257
  0
LINE
  5
2CBD
  8
AM_0
 10
587.00198469889074
 20
936.04937053610047
 30
0.0
 11
587.00198469889074
 21
876.04937053610104
 31
0.0
  0
LINE
  5
2CBE
  8
AM_0
 10
669.00198469889074
 20
933.54937053610035
 30
0.0
 11
669.00198469889074
 21
878.5493705361007
 31
0.0
  0
LINE
  5
2CBF
  8
AM_0
 10
557.00204469889047
 20
1065.4526305361001
 30
0.0
 11
557.00204469889047
 21
746.64611053610065
 31
0.0
  0
LINE
  5
2CC0
  8
AM_0
 10
579.00204469889081
 20
1071.0493705361
 30
0.0
 11
579.00204469889081
 21
741.04931053610051
 31
0.0
  0
LINE
  5
2CC1
  8
AM_0
 10
584.00204469889081
 20
1046.0493705361
 30
0.0
 11
584.00204469889081
 21
766.04937053610035
 31
0.0
  0
LINE
  5
2CC2
  8
AM_0
 10
566.00210469889055
 20
1030.3984905361001
 30
0.0
 11
566.00210469889055
 21
781.7002505361005
 31
0.0
  0
LINE
  5
2CC3
  8
AM_0
 10
434.0020446988907
 20
901.04937053610092
 30
0.0
 11
434.0020446988907
 21
773.04937053610047
 31
0.0
  0
LINE
  5
2CC4
  8
AM_0
 10
385.50198469889051
 20
799.59368053610035
 30
0.0
 11
385.50198469889051
 21
1012.5050605361
 31
0.0
  0
LINE
  5
2CC5
  8
AM_0
 10
370.0020446988907
 20
832.54937053610035
 30
0.0
 11
370.0020446988907
 21
979.54937053610092
 31
0.0
  0
LINE
  5
2CC6
  8
AM_0
 10
434.0020446988907
 20
773.04931053610062
 30
0.0
 11
550.15878469889071
 21
768.9930305361006
 31
0.0
  0
LINE
  5
2CC7
  8
AM_0
 10
434.0020446988907
 20
773.04937053610047
 30
0.0
 11
410.82754469889051
 21
773.85863053610035
 31
0.0
  0
LINE
  5
2CC8
  8
AM_0
 10
406.00204469889047
 20
778.85558053610043
 30
0.0
 11
406.00204469889047
 21
892.82061053610062
 31
0.0
  0
ARC
  5
2CC9
  8
AM_0
 10
411.00204469889047
 20
778.85558053610043
 30
0.0
 40
5.0
 50
180.00001000000091
 51
268.00000000000261
  0
LINE
  5
2CCA
  8
AM_0
 10
401.17654469889072
 20
794.21788053610044
 30
0.0
 11
390.3274846988906
 21
794.59673053610061
 31
0.0
  0
ARC
  5
2CCB
  8
AM_0
 10
390.50198469889051
 20
799.59368053610035
 30
0.0
 40
5.0
 50
180.00001000000091
 51
268.00000000000261
  0
ARC
  5
2CCC
  8
AM_0
 10
401.0020446988907
 20
789.22088053610059
 30
0.0
 40
5.0
 50
0.0
 51
88.000000000002785
  0
LINE
  5
2CCD
  8
AM_0
 10
370.00198469889051
 20
832.54931053610062
 30
0.0
 11
380.67654469889078
 21
832.17656053610062
 31
0.0
  0
LINE
  5
2CCE
  8
AM_0
 10
370.0020446988907
 20
866.57464053610033
 30
0.0
 11
385.50198469889051
 21
866.57464053610033
 31
0.0
  0
LINE
  5
2CCF
  8
AM_0
 10
370.0020446988907
 20
844.46941053610055
 30
0.0
 11
385.50198469889051
 21
844.46941053610055
 31
0.0
  0
ARC
  5
2CD0
  8
AM_0
 10
380.50198469889051
 20
827.17962053610063
 30
0.0
 40
5.0
 50
0.0
 51
88.000000000002785
  0
ARC
  5
2CD1
  8
AM_0
 10
562.0020446988907
 20
746.64611053610065
 30
0.0
 40
5.0
 50
179.9999899999988
 51
268.00000999999861
  0
LINE
  5
2CD2
  8
AM_0
 10
561.82760469889047
 20
741.6491005361006
 30
0.0
 11
579.00210469889055
 21
741.04937053610035
 31
0.0
  0
LINE
  5
2CD3
  8
AM_0
 10
584.00204469889081
 20
876.04937053610104
 30
0.0
 11
587.00198469889074
 21
876.04937053610104
 31
0.0
  0
ARC
  5
2CD4
  8
AM_0
 10
518.94045469889045
 20
815.17583053610065
 30
0.0
 40
5.0
 50
90.00000299999769
 51
180.00001000000091
  0
ARC
  5
2CD5
  8
AM_0
 10
542.69527469889078
 20
815.17583053610065
 30
0.0
 40
5.0
 50
53.744453000003212
 51
90.00000299999769
  0
LINE
  5
2CD6
  8
AM_0
 10
516.35159469889072
 20
808.68529053610064
 30
0.0
 11
554.59084469889058
 21
785.54290053610043
 31
0.0
  0
LINE
  5
2CD7
  8
AM_0
 10
518.93118469889055
 20
818.3989205361006
 30
0.0
 11
554.50027469889073
 21
796.8724905361006
 31
0.0
  0
ARC
  5
2CD8
  8
AM_0
 10
518.94045469889045
 20
812.96294053610063
 30
0.0
 40
5.0
 50
179.9999899999988
 51
238.81764999999689
  0
LINE
  5
2CD9
  8
AM_0
 10
513.94045469889045
 20
812.96294053610063
 30
0.0
 11
513.94045469889045
 21
815.17583053610065
 31
0.0
  0
POLYLINE
  5
2CDA
  8
AM_0
 66
     1
 10
0.0
 20
0.0
 30
0.0
  0
VERTEX
  5
2CDB
  8
AM_0
 10
547.08558469889033
 20
790.0850705361006
 30
0.0
 42
0.0020909347
  0
VERTEX
  5
2CDC
  8
AM_0
 10
548.05143469889072
 20
783.04456053610045
 30
0.0
 42
0.0020881749
  0
VERTEX
  5
2CDD
  8
AM_0
 10
549.0760146988905
 20
776.01294053610059
 30
0.0
 42
0.0020849591
  0
VERTEX
  5
2CDE
  8
AM_0
 10
550.15878469889071
 20
768.99309053610045
 30
0.0
  0
SEQEND
  5
2CDF
  8
AM_0
  0
ARC
  5
2CE0
  8
AM_0
 10
552.00204469889059
 20
781.26525053610067
 30
0.0
 40
5.0
 50
0.0
 51
58.817640999998339
  0
ARC
  5
2CE1
  8
AM_0
 10
558.0020446988907
 20
781.7002505361005
 30
0.0
 40
8.0
 50
270.0
 51
0.0
  0
LINE
  5
2CE2
  8
AM_0
 10
553.51980469889088
 20
767.53167053610036
 30
0.0
 11
557.00210469889055
 21
764.04937053610081
 31
0.0
  0
ARC
  5
2CE3
  8
AM_0
 10
549.98428469889075
 20
763.9961405361006
 30
0.0
 40
5.0
 50
45.000001000003799
 51
88.000000000002785
  0
LINE
  5
2CE4
  8
AM_0
 10
579.00204469889081
 20
766.04937053610035
 30
0.0
 11
584.00204469889081
 21
766.04937053610035
 31
0.0
  0
LINE
  5
2CE5
  8
AM_0
 10
545.65218469889055
 20
819.20769053610036
 30
0.0
 11
557.00210469889055
 21
810.88390053610067
 31
0.0
  0
LINE
  5
2CE6
  8
AM_0
 10
518.94045469889045
 20
820.17583053610065
 30
0.0
 11
542.69527469889078
 21
820.17583053610065
 31
0.0
  0
ARC
  5
2CE7
  8
AM_0
 10
558.0020446988907
 20
839.71270053610056
 30
0.0
 40
8.0
 50
270.0
 51
0.0
  0
LINE
  5
2CE8
  8
AM_0
 10
587.00198469889074
 20
878.5493705361007
 30
0.0
 11
669.00198469889074
 21
878.5493705361007
 31
0.0
  0
LINE
  5
2CE9
  8
AM_0
 10
434.0020446988907
 20
1039.0493705361
 30
0.0
 11
550.15878469889071
 21
1043.1056405361001
 31
0.0
  0
ARC
  5
2CEA
  8
AM_0
 10
416.0020446988907
 20
906.0493705361007
 30
0.0
 40
12.5
 50
23.578179999997531
 51
156.42182000000241
  0
LINE
  5
2CEB
  8
AM_0
 10
396.00204469889059
 20
911.04937053610047
 30
0.0
 11
436.00204469889047
 21
911.04937053610047
 31
0.0
  0
LINE
  5
2CEC
  8
AM_0
 10
396.00204469889059
 20
901.04937053610092
 30
0.0
 11
436.00204469889047
 21
901.04937053610092
 31
0.0
  0
LINE
  5
2CED
  8
AM_0
 10
434.00198469889051
 20
1039.0493705361
 30
0.0
 11
410.82754469889051
 21
1038.2400405361
 31
0.0
  0
LINE
  5
2CEE
  8
AM_0
 10
406.00204469889047
 20
919.27813053610066
 30
0.0
 11
406.00204469889047
 21
1033.2430905361
 31
0.0
  0
LINE
  5
2CEF
  8
AM_0
 10
370.0020446988907
 20
945.52404053610053
 30
0.0
 11
385.50198469889051
 21
945.52404053610053
 31
0.0
  0
LINE
  5
2CF0
  8
AM_0
 10
370.0020446988907
 20
967.62938053610048
 30
0.0
 11
385.50198469889051
 21
967.62938053610048
 31
0.0
  0
ARC
  5
2CF1
  8
AM_0
 10
396.00204469889059
 20
906.0493705361007
 30
0.0
 40
5.0
 50
90.00000299999769
 51
270.0
  0
ARC
  5
2CF2
  8
AM_0
 10
416.0020446988907
 20
906.0493705361007
 30
0.0
 40
15.0
 50
138.590370000001
 51
160.52876999999901
  0
ARC
  5
2CF3
  8
AM_0
 10
416.0020446988907
 20
906.0493705361007
 30
0.0
 40
15.0
 50
199.4712300000005
 51
221.4096299999988
  0
ARC
  5
2CF4
  8
AM_0
 10
401.0020446988907
 20
919.27813053610066
 30
0.0
 40
5.0
 50
318.59037000000097
 51
0.0
  0
LINE
  5
2CF5
  8
AM_0
 10
370.00198469889051
 20
979.54937053610092
 30
0.0
 11
380.6764846988907
 21
979.92211053610083
 31
0.0
  0
ARC
  5
2CF6
  8
AM_0
 10
380.50198469889051
 20
984.91906053610069
 30
0.0
 40
5.0
 50
271.9999999999971
 51
0.0
  0
LINE
  5
2CF7
  8
AM_0
 10
401.17648469889048
 20
1017.880850536099
 30
0.0
 11
390.3274846988906
 21
1017.5020005361
 31
0.0
  0
ARC
  5
2CF8
  8
AM_0
 10
390.50198469889051
 20
1012.5050605361
 30
0.0
 40
5.0
 50
91.999998000000545
 51
180.00001000000091
  0
ARC
  5
2CF9
  8
AM_0
 10
401.0020446988907
 20
1022.8778005361
 30
0.0
 40
5.0
 50
271.9999999999971
 51
0.0
  0
ARC
  5
2CFA
  8
AM_0
 10
411.00204469889047
 20
1033.2430905361
 30
0.0
 40
5.0
 50
91.999998000000545
 51
180.00001000000091
  0
LINE
  5
2CFB
  8
AM_0
 10
434.0020446988907
 20
1039.0493705361
 30
0.0
 11
434.0020446988907
 21
911.04937053610047
 31
0.0
  0
ARC
  5
2CFC
  8
AM_0
 10
436.00204469889047
 20
906.0493705361007
 30
0.0
 40
5.0
 50
270.0
 51
90.00000299999769
  0
POLYLINE
  5
2CFD
  8
AM_0
 66
     1
 10
0.0
 20
0.0
 30
0.0
  0
VERTEX
  5
2CFE
  8
AM_0
 10
552.12716469889051
 20
1043.1743705361
 30
0.0
  0
VERTEX
  5
2CFF
  8
AM_0
 10
548.89690469889058
 20
1023.1098605360989
 30
0.0
 42
-1.0
  0
SEQEND
  5
2D00
  8
AM_0
  0
LINE
  5
2D01
  8
AM_0
 10
584.00204469889081
 20
936.04937053610047
 30
0.0
 11
587.00198469889074
 21
936.04937053610047
 31
0.0
  0
ARC
  5
2D02
  8
AM_0
 10
542.69527469889078
 20
996.92290053610066
 30
0.0
 40
5.0
 50
270.0
 51
306.25554999999889
  0
LINE
  5
2D03
  8
AM_0
 10
518.93118469889055
 20
993.69970053610029
 30
0.0
 11
554.50027469889073
 21
1015.226190536099
 31
0.0
  0
LINE
  5
2D04
  8
AM_0
 10
516.35159469889072
 20
1003.4133805361
 30
0.0
 11
554.59084469889058
 21
1026.5558405361
 31
0.0
  0
LINE
  5
2D05
  8
AM_0
 10
518.94045469889045
 20
991.92290053610031
 30
0.0
 11
542.69527469889078
 21
991.92290053610031
 31
0.0
  0
ARC
  5
2D06
  8
AM_0
 10
518.94045469889045
 20
999.1357305361006
 30
0.0
 40
5.0
 50
121.18235999999619
 51
180.00001000000091
  0
ARC
  5
2D07
  8
AM_0
 10
518.94045469889045
 20
996.92290053610066
 30
0.0
 40
5.0
 50
179.9999899999988
 51
270.0
  0
LINE
  5
2D08
  8
AM_0
 10
513.94045469889045
 20
999.1357305361006
 30
0.0
 11
513.94045469889045
 21
996.92290053610066
 31
0.0
  0
ARC
  5
2D09
  8
AM_0
 10
558.0020446988907
 20
972.38598053610065
 30
0.0
 40
8.0
 50
0.0
 51
90.00000299999769
  0
LINE
  5
2D0A
  8
AM_0
 10
545.65218469889055
 20
992.89098053610076
 30
0.0
 11
557.00210469889055
 21
1001.2147105361
 31
0.0
  0
ARC
  5
2D0B
  8
AM_0
 10
558.0020446988907
 20
1030.3984905361001
 30
0.0
 40
8.0
 50
0.0
 51
90.00000299999769
  0
ARC
  5
2D0C
  8
AM_0
 10
552.00204469889059
 20
1030.8334205361
 30
0.0
 40
5.0
 50
301.18235999999632
 51
0.0
  0
LINE
  5
2D0D
  8
AM_0
 10
607.00204469889047
 20
914.04931053610062
 30
0.0
 11
669.00198469889074
 21
914.04931053610062
 31
0.0
  0
LINE
  5
2D0E
  8
AM_0
 10
607.00204469889047
 20
898.04931053610062
 30
0.0
 11
669.00198469889074
 21
898.04931053610062
 31
0.0
  0
LINE
  5
2D0F
  8
AM_0
 10
587.00198469889074
 20
933.54937053610035
 30
0.0
 11
669.00198469889074
 21
933.54937053610035
 31
0.0
  0
ARC
  5
2D10
  8
AM_0
 10
607.00204469889047
 20
906.04931053610062
 30
0.0
 40
8.0000113999999982
 50
90.00000299999769
 51
270.0
  0
LINE
  5
2D11
  8
AM_0
 10
607.00198469889074
 20
914.04931053610062
 30
0.0
 11
607.00198469889074
 21
898.04931053610062
 31
0.0
  0
LINE
  5
2D12
  8
AM_0
 10
561.82760469889047
 20
1070.4496405361001
 30
0.0
 11
579.00210469889055
 21
1071.0493705361
 31
0.0
  0
LINE
  5
2D13
  8
AM_0
 10
553.51986469889073
 20
1044.5670105361
 30
0.0
 11
557.00210469889055
 21
1048.049310536099
 31
0.0
  0
ARC
  5
2D14
  8
AM_0
 10
549.98428469889075
 20
1048.1025905361
 30
0.0
 40
5.0
 50
271.9999999999971
 51
315.0
  0
ARC
  5
2D15
  8
AM_0
 10
562.0020446988907
 20
1065.4526305361001
 30
0.0
 40
5.0
 50
91.999998000000545
 51
180.00001000000091
  0
LINE
  5
2D16
  8
AM_0
 10
579.00204469889081
 20
1046.0493705361
 30
0.0
 11
584.00204469889081
 21
1046.0493705361
 31
0.0
  0
LINE
  5
2D17
  8
AM_0
 10
561.82743469889033
 20
589.64150996195588
 30
0.0
 11
579.00193469889052
 21
590.24120996195575
 31
0.0
  0
LINE
  5
2D18
  8
AM_0
 10
562.00198469889028
 20
260.24122496195582
 30
0.0
 11
579.00198469889028
 21
260.24122496195582
 31
0.0
  0
LINE
  5
2D19
  8
ﾁｭｳｼﾝｾﾝ
 10
419.60197789641711
 20
425.24125996195568
 30
0.0
 11
674.43083469889041
 21
425.24125996195568
 31
0.0
  0
LINE
  5
2D1A
  8
AM_0
 10
434.00198469889051
 20
547.24120996195586
 30
0.0
 11
434.00198469889051
 21
232.2412399619559
 31
0.0
  0
LINE
  5
2D1B
  8
AM_0
 10
557.00198469889051
 20
584.64450996195581
 30
0.0
 11
557.00198469889051
 21
390.97785996195603
 31
0.0
  0
LINE
  5
2D1C
  8
AM_0
 10
566.0019846988904
 20
549.59035996195587
 30
0.0
 11
566.0019846988904
 21
300.89210496195591
 31
0.0
  0
LINE
  5
2D1D
  8
AM_0
 10
556.3285846988905
 20
382.75312996195572
 30
0.0
 11
544.42478469889045
 21
511.11479496195591
 31
0.0
  0
LINE
  5
2D1E
  8
AM_0
 10
406.00198469889051
 20
544.34255996195611
 30
0.0
 11
406.00198469889051
 21
235.15040496195579
 31
0.0
  0
LINE
  5
2D1F
  8
AM_0
 10
385.50198469889051
 20
484.90702996195591
 30
0.0
 11
385.50198469889051
 21
276.34699996195582
 31
0.0
  0
LINE
  5
2D20
  8
AM_0
 10
292.0020346988905
 20
280.24125996195568
 30
0.0
 11
292.0020346988905
 21
480.24125996195568
 31
0.0
  0
LINE
  5
2D21
  8
AM_0
 10
302.00203469889038
 20
479.2412599619559
 30
0.0
 11
302.00203469889038
 21
281.24125996195568
 31
0.0
  0
LINE
  5
2D22
  8
AM_0
 10
353.1763456988906
 20
449.14589696195588
 30
0.0
 11
336.0020346988905
 21
447.64333896195581
 31
0.0
  0
LINE
  5
2D23
  8
AM_0
 10
353.1763456988906
 20
311.33662396195581
 30
0.0
 11
336.0020346988905
 21
312.83918096195589
 31
0.0
  0
LINE
  5
2D24
  8
ﾁｭｳｼﾝｾﾝ
 10
278.12449869585299
 20
380.24125996195568
 30
0.0
 11
443.7661346988906
 21
380.24125996195568
 31
0.0
  0
LINE
  5
2D25
  8
AM_0
 10
292.0020346988905
 20
280.24125996195568
 30
0.0
 11
301.0020346988905
 21
280.24125996195568
 31
0.0
  0
LINE
  5
2D26
  8
AM_0
 10
336.0020346988905
 20
312.83918096195589
 30
0.0
 11
304.74056669889029
 21
310.10415696195582
 31
0.0
  0
ARC
  5
2D27
  8
AM_0
 10
301.0020346988905
 20
281.24125996195568
 30
0.0
 40
1.0
 50
270.0
 51
0.0
  0
ARC
  5
2D28
  8
AM_0
 10
305.0020346988905
 20
307.11557296195582
 30
0.0
 40
3.0
 50
94.99999999999973
 51
180.0
  0
LINE
  5
2D29
  8
AM_0
 10
336.0020346988905
 20
318.39650496195571
 30
0.0
 11
336.0020346988905
 21
441.71767196195572
 31
0.0
  0
LINE
  5
2D2A
  8
AM_0
 10
336.0020346988905
 20
447.64333896195581
 30
0.0
 11
304.74056669889029
 21
450.37836296195582
 31
0.0
  0
ARC
  5
2D2B
  8
AM_0
 10
305.0020346988905
 20
453.36694696195582
 30
0.0
 40
3.0
 50
180.0
 51
265.00000000000028
  0
LINE
  5
2D2C
  8
AM_0
 10
557.00198469889051
 20
332.9673299619559
 30
0.0
 11
557.00198469889051
 21
265.24122496195582
 31
0.0
  0
LINE
  5
2D2D
  8
AM_0
 10
370.00203469889078
 20
306.74122496195582
 30
0.0
 11
370.00203469889078
 21
453.74122996195592
 31
0.0
  0
LINE
  5
2D2E
  8
AM_0
 10
355.00203469889061
 20
453.74125996195568
 30
0.0
 11
355.00203469889061
 21
306.74125996195568
 31
0.0
  0
LINE
  5
2D2F
  8
AM_0
 10
434.00198469889051
 20
232.24122496195591
 30
0.0
 11
515.84533469889072
 21
230.09808496195581
 31
0.0
  0
ARC
  5
2D30
  8
AM_0
 10
408.00198469889028
 20
235.15040496195579
 30
0.0
 40
2.0000000500000001
 50
179.9999899999988
 51
268.00000999999861
  0
LINE
  5
2D31
  8
AM_0
 10
407.9321846988903
 20
233.15160996195581
 30
0.0
 11
434.00193469889052
 21
232.24122496195591
 31
0.0
  0
LINE
  5
2D32
  8
AM_0
 10
404.95393469889052
 20
247.8274849619558
 30
0.0
 11
387.59798469889051
 21
270.22102496195572
 31
0.0
  0
ARC
  5
2D33
  8
AM_0
 10
401.00198469889051
 20
244.76455496195581
 30
0.0
 40
5.0
 50
0.0
 51
37.777243999998532
  0
ARC
  5
2D34
  8
AM_0
 10
395.50198469889051
 20
276.34699996195582
 30
0.0
 40
10.0
 50
179.9999899999988
 51
217.7772300000029
  0
LINE
  5
2D35
  8
AM_0
 10
370.0019846988904
 20
306.74122496195582
 30
0.0
 11
380.6764846988907
 21
306.36845496195588
 31
0.0
  0
LINE
  5
2D36
  8
AM_0
 10
355.00203469889061
 20
306.74125996195568
 30
0.0
 11
370.0020346988905
 21
306.74125996195568
 31
0.0
  0
ARC
  5
2D37
  8
AM_0
 10
353.0020346988905
 20
309.34423396195581
 30
0.0
 40
2.0
 50
0.0
 51
85.000000000000256
  0
ARC
  5
2D38
  8
AM_0
 10
380.50198469889051
 20
301.37150496195591
 30
0.0
 40
5.0
 50
0.0
 51
88.000000000002899
  0
LINE
  5
2D39
  8
AM_0
 10
521.1070846988905
 20
231.43441496195581
 30
0.0
 11
571.00198469889051
 21
260.24123996195578
 31
0.0
  0
ARC
  5
2D3A
  8
AM_0
 10
516.10713469889038
 20
240.09466496195591
 30
0.0
 40
10.0
 50
268.4999999999971
 51
300.00000000000051
  0
LINE
  5
2D3B
  8
AM_0
 10
479.00198469889028
 20
305.48713496195597
 30
0.0
 11
557.00198469889051
 21
305.48713496195597
 31
0.0
  0
LINE
  5
2D3C
  8
AM_0
 10
479.00198469889028
 20
280.84229996195592
 30
0.0
 11
557.00198469889051
 21
280.84229996195592
 31
0.0
  0
LINE
  5
2D3D
  8
AM_0
 10
474.0019846988904
 20
300.48713496195597
 30
0.0
 11
474.0019846988904
 21
285.84229996195592
 31
0.0
  0
ARC
  5
2D3E
  8
AM_0
 10
479.00198469889028
 20
285.84229996195592
 30
0.0
 40
5.0
 50
179.9999899999988
 51
270.0
  0
ARC
  5
2D3F
  8
AM_0
 10
479.00198469889028
 20
300.48713496195597
 30
0.0
 40
5.0
 50
90.00000299999769
 51
180.00001000000091
  0
ARC
  5
2D40
  8
AM_0
 10
562.00198469889028
 20
265.24122496195582
 30
0.0
 40
5.0
 50
179.9999899999988
 51
270.0
  0
ARC
  5
2D41
  8
AM_0
 10
558.00198469889028
 20
300.89210496195591
 30
0.0
 40
8.0
 50
270.0
 51
0.0
  0
LINE
  5
2D42
  8
AM_0
 10
406.00198469889051
 20
433.70762996195589
 30
0.0
 11
551.60333469889054
 21
433.70762996195589
 31
0.0
  0
LINE
  5
2D43
  8
AM_0
 10
406.00198469889051
 20
331.91203496195578
 30
0.0
 11
557.00198469889051
 21
331.91203496195578
 31
0.0
  0
LINE
  5
2D44
  8
AM_0
 10
370.00203469889078
 20
318.66258496195582
 30
0.0
 11
385.50198469889051
 21
318.66258496195582
 31
0.0
  0
LINE
  5
2D45
  8
AM_0
 10
370.00203469889078
 20
340.76655496195582
 30
0.0
 11
385.50198469889051
 21
340.76655496195582
 31
0.0
  0
LINE
  5
2D46
  8
AM_0
 10
356.85059669889063
 20
318.59125996195581
 30
0.0
 11
368.31003669889049
 21
318.59125996195581
 31
0.0
  0
LINE
  5
2D47
  8
AM_0
 10
370.00203469889078
 20
419.71592996195591
 30
0.0
 11
385.50198469889051
 21
419.71592996195591
 31
0.0
  0
LINE
  5
2D48
  8
AM_0
 10
370.00193469889052
 20
453.74122996195592
 30
0.0
 11
380.6764346988906
 21
454.11399996195581
 31
0.0
  0
LINE
  5
2D49
  8
AM_0
 10
370.00203469889078
 20
441.81986996195587
 30
0.0
 11
385.50198469889051
 21
441.81986996195587
 31
0.0
  0
LINE
  5
2D4A
  8
AM_0
 10
356.85059669889063
 20
441.89125996195588
 30
0.0
 11
368.31003669889049
 21
441.89125996195588
 31
0.0
  0
LINE
  5
2D4B
  8
AM_0
 10
355.00203469889061
 20
453.74125996195568
 30
0.0
 11
370.0020346988905
 21
453.74125996195568
 31
0.0
  0
ARC
  5
2D4C
  8
AM_0
 10
353.0020346988905
 20
451.13828596195589
 30
0.0
 40
2.0
 50
274.99999999999972
 51
0.0
  0
ARC
  5
2D4D
  8
AM_0
 10
380.50198469889051
 20
459.11094996195573
 30
0.0
 40
5.0
 50
271.99999999999687
 51
0.0
  0
ARC
  5
2D4E
  8
AM_0
 10
558.00198469889028
 20
340.90458996195582
 30
0.0
 40
8.0
 50
270.0
 51
0.0
  0
ARC
  5
2D4F
  8
AM_0
 10
564.29443469889054
 20
383.4918699619559
 30
0.0
 40
8.0
 50
185.2982400000015
 51
270.0
  0
LINE
  5
2D50
  8
AM_0
 10
292.0020346988905
 20
480.24125996195568
 30
0.0
 11
301.0020346988905
 21
480.24125996195568
 31
0.0
  0
ARC
  5
2D51
  8
AM_0
 10
301.0020346988905
 20
479.2412599619559
 30
0.0
 40
1.0
 50
0.0
 51
90.0
  0
LINE
  5
2D52
  8
AM_0
 10
434.00198469889051
 20
547.24120996195586
 30
0.0
 11
535.78343469889046
 21
549.90645996195587
 31
0.0
  0
LINE
  5
2D53
  8
AM_0
 10
401.00198469889051
 20
545.24120996195586
 30
0.0
 11
401.00198469889051
 21
515.17395996195592
 31
0.0
  0
LINE
  5
2D54
  8
AM_0
 10
386.8990846988907
 20
490.00505496195581
 30
0.0
 11
400.3034346988905
 21
512.62490996195606
 31
0.0
  0
ARC
  5
2D55
  8
AM_0
 10
395.50198469889051
 20
484.90702996195591
 30
0.0
 40
10.0
 50
149.3493299999983
 51
180.00001000000091
  0
ARC
  5
2D56
  8
AM_0
 10
396.00198469889051
 20
515.17395996195592
 30
0.0
 40
5.0
 50
329.3493299999983
 51
0.0
  0
LINE
  5
2D57
  8
AM_0
 10
400.3034346988905
 20
512.62490996195606
 30
0.0
 11
405.3034346988905
 21
521.06240996195595
 31
0.0
  0
ARC
  5
2D58
  8
AM_0
 10
401.00198469889051
 20
523.61145996195592
 30
0.0
 40
5.0
 50
329.3493299999983
 51
0.0
  0
ARC
  5
2D59
  8
AM_0
 10
408.00198469889028
 20
544.34255996195611
 30
0.0
 40
2.0000000500000001
 50
91.999998000000545
 51
180.00001000000091
  0
ARC
  5
2D5A
  8
AM_0
 10
406.71843469889052
 20
555.38130996195605
 30
0.0
 40
1.0
 50
101.213289999998
 51
164.99999000000179
  0
LINE
  5
2D5B
  8
AM_0
 10
406.20793469889048
 20
556.24120996195586
 30
0.0
 11
425.79598469889049
 21
556.24120996195586
 31
0.0
  0
ARC
  5
2D5C
  8
AM_0
 10
416.0019846988904
 20
573.24120996195575
 30
0.0
 40
25.000000499999999
 50
306.46672000000012
 51
233.53329000000139
  0
CIRCLE
  5
2D5D
  8
AM_0
 10
416.0019846988904
 20
573.24120996195575
 30
0.0
 40
15.0
  0
LINE
  5
2D5E
  8
AM_0
 10
403.00198469889051
 20
547.24120996195586
 30
0.0
 11
434.00198469889051
 21
547.24120996195586
 31
0.0
  0
LINE
  5
2D5F
  8
AM_0
 10
403.50193469889052
 20
547.24120996195586
 30
0.0
 11
405.75243469889051
 21
555.64015996195599
 31
0.0
  0
ARC
  5
2D60
  8
AM_0
 10
397.57693469889051
 20
548.31100996195585
 30
0.0
 40
6.0
 50
349.72994999999878
 51
53.533291000002919
  0
ARC
  5
2D61
  8
AM_0
 10
403.00198469889051
 20
545.24120996195586
 30
0.0
 40
2.0000000500000001
 50
90.00000299999769
 51
180.00001000000091
  0
LINE
  5
2D62
  8
AM_0
 10
428.50193469889052
 20
547.24120996195586
 30
0.0
 11
426.25143469889019
 21
555.64015996195599
 31
0.0
  0
ARC
  5
2D63
  8
AM_0
 10
434.42698469889081
 20
548.31100996195585
 30
0.0
 40
6.0
 50
126.46669999999671
 51
190.27005999999909
  0
LINE
  5
2D64
  8
AM_0
 10
407.93223469889051
 20
546.34130996195586
 30
0.0
 11
433.7019346988904
 21
547.24120996195586
 31
0.0
  0
LINE
  5
2D65
  8
AM_0
 10
416.0019846988904
 20
558.24120996195586
 30
0.0
 11
425.48008469889038
 21
556.36225996195606
 31
0.0
  0
LINE
  5
2D66
  8
AM_0
 10
406.52388469889007
 20
556.36220996195607
 30
0.0
 11
416.00193469889052
 21
558.24115996195587
 31
0.0
  0
ARC
  5
2D67
  8
AM_0
 10
425.28563469889019
 20
555.38130996195605
 30
0.0
 40
1.0
 50
15.000000000000741
 51
78.786710000001847
  0
LINE
  5
2D68
  8
AM_0
 10
516.35153469889053
 20
522.60525996195565
 30
0.0
 11
554.5907846988905
 21
545.74765996195595
 31
0.0
  0
LINE
  5
2D69
  8
AM_0
 10
518.93108469889034
 20
512.89165996195595
 30
0.0
 11
554.50018469889028
 21
534.41810996195591
 31
0.0
  0
ARC
  5
2D6A
  8
AM_0
 10
518.94038469889051
 20
516.11475996195588
 30
0.0
 40
5.0
 50
179.9999899999988
 51
270.0
  0
LINE
  5
2D6B
  8
AM_0
 10
513.94038469889051
 20
518.32765996195587
 30
0.0
 11
513.94038469889051
 21
516.11475996195588
 31
0.0
  0
ARC
  5
2D6C
  8
AM_0
 10
518.94038469889051
 20
518.32765996195587
 30
0.0
 40
5.0
 50
121.182359999998
 51
180.00001000000091
  0
ARC
  5
2D6D
  8
AM_0
 10
558.00198469889028
 20
491.57786996195603
 30
0.0
 40
8.0
 50
0.0
 51
90.00000299999769
  0
ARC
  5
2D6E
  8
AM_0
 10
542.69523469889054
 20
516.11475996195588
 30
0.0
 40
5.0
 50
270.0
 51
306.25555000000082
  0
LINE
  5
2D6F
  8
AM_0
 10
518.94038469889051
 20
511.11476496195598
 30
0.0
 11
542.69523469889054
 21
511.11476496195598
 31
0.0
  0
LINE
  5
2D70
  8
AM_0
 10
545.65213469889045
 20
512.08275996195596
 30
0.0
 11
557.00198469889051
 21
520.40655996195608
 31
0.0
  0
LINE
  5
2D71
  8
AM_0
 10
542.59268469889048
 20
552.83200996195592
 30
0.0
 11
557.00193469889052
 21
567.24120996195597
 31
0.0
  0
LINE
  5
2D72
  8
AM_0
 10
541.79983469889055
 20
539.42060996195585
 30
0.0
 11
540.72893469889016
 21
550.96820996195595
 31
0.0
  0
ARC
  5
2D73
  8
AM_0
 10
535.52163469889035
 20
559.90300996195595
 30
0.0
 40
10.0
 50
271.50000000000261
 51
315.0
  0
ARC
  5
2D74
  8
AM_0
 10
558.00198469889028
 20
549.59035996195587
 30
0.0
 40
8.0
 50
0.0
 51
90.00000299999769
  0
ARC
  5
2D75
  8
AM_0
 10
552.00198469889051
 20
550.02535996195593
 30
0.0
 40
5.0
 50
301.18235999999791
 51
0.0
  0
ARC
  5
2D76
  8
AM_0
 10
562.00198469889028
 20
584.64450996195581
 30
0.0
 40
5.0
 50
91.999998000000545
 51
180.00001000000091
  0
LINE
  5
2D77
  8
AM_0
 10
1165.657528924598
 20
370.24125996195568
 30
0.0
 11
1165.657528924598
 21
480.24125996195568
 31
0.0
  0
LINE
  5
2D78
  8
AM_0
 10
835.65757892459874
 20
370.24125996195568
 30
0.0
 11
835.65757892459874
 21
480.24125996195568
 31
0.0
  0
LINE
  5
2D79
  8
ﾁｭｳｼﾝｾﾝ
 10
1000.657543924597
 20
218.21606496195571
 30
0.0
 11
1000.657543924597
 21
604.69390996195602
 31
0.0
  0
CIRCLE
  5
2D7A
  8
AM_0
 10
1000.657543924597
 20
425.24125996195568
 30
0.0
 40
140.0
  0
ARC
  5
2D7B
  8
AM_0
 10
1000.657543924597
 20
425.24125996195568
 30
0.0
 40
60.0
 50
270.0
 51
90.00000299999769
  0
ARC
  5
2D7C
  8
AM_0
 10
1000.657543924597
 20
425.24125996195568
 30
0.0
 40
60.0
 50
90.00000299999769
 51
270.0
  0
CIRCLE
  5
2D7D
  8
AM_0
 10
1000.657543924597
 20
425.24125996195568
 30
0.0
 40
132.0
  0
LINE
  5
2D7E
  8
AM_0
 10
579.00198469889028
 20
590.24120996195575
 30
0.0
 11
579.00198469889028
 21
260.24122496195582
 31
0.0
  0
LINE
  5
2D7F
  8
AM_0
 10
584.00198469889051
 20
565.24120996195575
 30
0.0
 11
584.00198469889051
 21
285.2412549619558
 31
0.0
  0
ARC
  5
2D80
  8
AM_0
 10
1000.657543924597
 20
425.24125996195568
 30
0.0
 40
75.0
 50
142.9032099999981
 51
180.00001000000091
  0
ARC
  5
2D81
  8
AM_0
 10
1000.657543924597
 20
425.24125996195568
 30
0.0
 40
75.0
 50
0.0
 51
37.096792999999472
  0
LINE
  5
2D82
  8
AM_0
 10
1127.263243924599
 20
410.24125996195568
 30
0.0
 11
1080.657543924598
 21
410.24125996195568
 31
0.0
  0
LINE
  5
2D83
  8
AM_0
 10
1055.6575739245991
 20
260.24122496195582
 30
0.0
 11
1142.196378924599
 21
264.77653496195592
 31
0.0
  0
LINE
  5
2D84
  8
AM_0
 10
1069.857798924598
 20
231.73969996195581
 30
0.0
 11
1092.632673924599
 21
247.68682996195591
 31
0.0
  0
LINE
  5
2D85
  8
ﾁｭｳｼﾝｾﾝ
 10
824.67582892459859
 20
425.24125996195568
 30
0.0
 11
1178.084118924598
 21
425.24125996195568
 31
0.0
  0
ARC
  5
2D86
  8
AM_0
 10
860.1654289245987
 20
284.74909996195578
 30
0.0
 40
20.000000499999999
 50
183.00000999999961
 51
267.0000000000008
  0
LINE
  5
2D87
  8
ﾁｭｳｼﾝｾﾝ1
 10
875.55983115427875
 20
300.14348100999598
 30
0.0
 11
851.54721951087811
 21
276.13082597982782
 31
0.0
  0
ARC
  5
2D88
  8
ﾁｭｳｼﾝｾﾝ1
 10
1000.657543924597
 20
425.24125996195568
 30
0.0
 40
195.0000049999999
 50
218.16532000000149
 51
232.1288600000004
  0
CIRCLE
  5
2D89
  8
AM_0
 10
862.77172892459873
 20
287.35542496195598
 30
0.0
 40
9.5
  0
LINE
  5
2D8A
  8
AM_0
 10
835.65752892459932
 20
370.24125996195568
 30
0.0
 11
840.19282892459853
 21
283.70240996195582
 31
0.0
  0
LINE
  5
2D8B
  8
AM_0
 10
579.00198469889028
 20
285.2412549619558
 30
0.0
 11
584.00198469889051
 21
285.2412549619558
 31
0.0
  0
LINE
  5
2D8C
  8
AM_0
 10
587.00198469889028
 20
397.74125996195568
 30
0.0
 11
669.00198469889051
 21
397.74125996195568
 31
0.0
  0
LINE
  5
2D8D
  8
AM_0
 10
587.00198469889028
 20
452.74125996195568
 30
0.0
 11
669.00198469889051
 21
452.74125996195568
 31
0.0
  0
LINE
  5
2D8E
  8
AM_0
 10
607.00198469889051
 20
456.74122996195592
 30
0.0
 11
669.00198469889051
 21
456.74122996195592
 31
0.0
  0
LINE
  5
2D8F
  8
AM_0
 10
587.00198469889028
 20
455.24125996195568
 30
0.0
 11
587.00198469889028
 21
395.24125996195568
 31
0.0
  0
LINE
  5
2D90
  8
AM_0
 10
584.00198469889051
 20
395.24125996195568
 30
0.0
 11
587.00198469889028
 21
395.24125996195568
 31
0.0
  0
LINE
  5
2D91
  8
AM_0
 10
584.00198469889051
 20
455.24125996195568
 30
0.0
 11
587.00198469889028
 21
455.24125996195568
 31
0.0
  0
LINE
  5
2D92
  8
AM_0
 10
607.00198469889051
 20
456.74122996195592
 30
0.0
 11
607.00198469889051
 21
452.74125996195568
 31
0.0
  0
LINE
  5
2D93
  8
AM_0
 10
669.00198469889051
 20
456.74122996195592
 30
0.0
 11
669.00198469889051
 21
397.74125996195568
 31
0.0
  0
LINE
  5
2D94
  8
AM_0
 10
945.65754392459871
 20
260.24122496195582
 30
0.0
 11
1055.657543924598
 21
260.24122496195582
 31
0.0
  0
LINE
  5
2D95
  8
AM_0
 10
938.810528924599
 20
229.4212349619558
 30
0.0
 11
1062.504558924599
 21
229.4212349619558
 31
0.0
  0
LINE
  5
2D96
  8
AM_0
 10
931.45728392459841
 20
231.7396849619559
 30
0.0
 11
908.68244392459872
 21
247.6868149619558
 31
0.0
  0
ARC
  5
2D97
  8
AM_0
 10
938.810528924599
 20
242.2412399619557
 30
0.0
 40
12.82
 50
235.0000000000025
 51
270.0
  0
LINE
  5
2D98
  8
AM_0
 10
945.65757392459875
 20
260.24122496195582
 30
0.0
 11
859.11872892459905
 21
264.77653496195592
 31
0.0
  0
ARC
  5
2D99
  8
AM_0
 10
967.65751392459833
 20
331.91203496195578
 30
0.0
 40
102.81999499999991
 50
222.01518000000081
 51
235.0000000000025
  0
ARC
  5
2D9A
  8
AM_0
 10
1062.504558924599
 20
242.2412399619557
 30
0.0
 40
12.82
 50
270.0
 51
304.99999999999739
  0
LINE
  5
2D9B
  8
ﾁｭｳｼﾝｾﾝ
 10
925.6575439245986
 20
380.24125996195568
 30
0.0
 11
1075.657543924598
 21
380.24125996195568
 31
0.0
  0
LINE
  5
2D9C
  8
AM_0
 10
874.0518589245986
 20
410.24125996195568
 30
0.0
 11
920.65754392459871
 21
410.24125996195568
 31
0.0
  0
ARC
  5
2D9D
  8
AM_0
 10
874.0518589245986
 20
415.24125996195568
 30
0.0
 40
5.0
 50
184.5161599999995
 51
270.0
  0
LINE
  5
2D9E
  8
AM_0
 10
925.6575439245986
 20
425.24125996195568
 30
0.0
 11
925.6575439245986
 21
415.24125996195568
 31
0.0
  0
ARC
  5
2D9F
  8
AM_0
 10
920.65754392459871
 20
415.24125996195568
 30
0.0
 40
5.0
 50
270.0
 51
0.0
  0
ARC
  5
2DA0
  8
AM_0
 10
1000.657543924597
 20
425.24125996195568
 30
0.0
 40
27.500000499999999
 50
106.9123899999975
 51
73.087596999998908
  0
CIRCLE
  5
2DA1
  8
AM_5
 10
1000.657543924597
 20
425.24125996195568
 30
0.0
 40
6.0
  0
CIRCLE
  5
2DA2
  8
AM_0
 10
1000.657543924597
 20
425.24125996195568
 30
0.0
 40
4.500000049999997
  0
LINE
  5
2DA3
  8
AM_0
 10
992.65751392459833
 20
446.74122996195592
 30
0.0
 11
1008.657543924597
 21
446.74122996195592
 31
0.0
  0
LINE
  5
2DA4
  8
AM_0
 10
992.65751392459833
 20
456.74122996195592
 30
0.0
 11
1008.657543924597
 21
456.74122996195592
 31
0.0
  0
LINE
  5
2DA5
  8
AM_0
 10
992.65751392459833
 20
446.74122996195592
 30
0.0
 11
992.65751392459833
 21
456.74122996195592
 31
0.0
  0
POINT
  5
2DA6
  8
AM_0
 10
1000.657543924597
 20
425.24125996195568
 30
0.0
  0
POINT
  5
2DA7
  8
AM_0
 10
1000.657543924597
 20
425.24125996195568
 30
0.0
  0
LINE
  5
2DA8
  8
AM_0
 10
1008.657543924597
 20
446.74122996195592
 30
0.0
 11
1008.657543924597
 21
456.74122996195592
 31
0.0
  0
LINE
  5
2DA9
  8
AM_0
 10
1075.657543924598
 20
425.24125996195568
 30
0.0
 11
1075.657543924598
 21
415.24125996195568
 31
0.0
  0
ARC
  5
2DAA
  8
AM_0
 10
1080.657543924598
 20
415.24125996195568
 30
0.0
 40
5.0
 50
179.9999899999988
 51
270.0
  0
LINE
  5
2DAB
  8
AM_0
 10
1165.6575439245969
 20
370.24122496195588
 30
0.0
 11
1161.1222389245991
 21
283.70243996195597
 31
0.0
  0
CIRCLE
  5
2DAC
  8
AM_0
 10
1138.543378924599
 20
287.35542496195598
 30
0.0
 40
9.5
  0
ARC
  5
2DAD
  8
AM_0
 10
1033.657543924598
 20
331.91203496195578
 30
0.0
 40
102.81999499999991
 50
304.99999999999739
 51
317.9848199999991
  0
ARC
  5
2DAE
  8
AM_0
 10
1141.149658924599
 20
284.74909996195578
 30
0.0
 40
20.000000499999999
 50
272.99999999999909
 51
357.00000000000108
  0
ARC
  5
2DAF
  8
AM_0
 10
1127.263243924599
 20
415.24125996195568
 30
0.0
 40
5.0
 50
270.0
 51
355.48384999999831
  0
LINE
  5
2DB0
  8
AM_0
 10
1055.6575739245991
 20
590.24120996195575
 30
0.0
 11
1142.196363924598
 21
585.70590996195597
 31
0.0
  0
LINE
  5
2DB1
  8
AM_0
 10
1060.931438924596
 20
477.029834961956
 30
0.0
 11
1094.365278924598
 21
510.46366996195582
 31
0.0
  0
LINE
  5
2DB2
  8
AM_0
 10
1052.4461789245979
 20
485.51509496195592
 30
0.0
 11
1085.8800189245981
 21
518.94890996195568
 31
0.0
  0
CIRCLE
  5
2DB3
  8
AM_0
 10
862.77172892459873
 20
563.12700996195599
 30
0.0
 40
9.5
  0
ARC
  5
2DB4
  8
AM_0
 10
860.1654289245987
 20
565.73335996195601
 30
0.0
 40
20.000000499999999
 50
92.999999000001679
 51
176.99999000000011
  0
LINE
  5
2DB5
  8
AM_0
 10
579.00198469889028
 20
565.24120996195575
 30
0.0
 11
584.00198469889051
 21
565.24120996195575
 31
0.0
  0
LINE
  5
2DB6
  8
AM_0
 10
835.65757892459874
 20
480.24122996195592
 30
0.0
 11
840.19282892459853
 21
566.78005996195589
 31
0.0
  0
ARC
  5
2DB7
  8
AM_0
 10
1000.657543924597
 20
425.24125996195568
 30
0.0
 40
75.0
 50
52.903206000003003
 51
127.0967900000017
  0
LINE
  5
2DB8
  8
AM_0
 10
945.65754392459871
 20
590.24120996195575
 30
0.0
 11
1055.657543924598
 21
590.24120996195575
 31
0.0
  0
ARC
  5
2DB9
  8
AM_0
 10
918.97065392459854
 20
522.48450996195584
 30
0.0
 40
5.0
 50
130.03114999999761
 51
225.0
  0
LINE
  5
2DBA
  8
AM_0
 10
940.38370892459875
 20
477.02980496195568
 30
0.0
 11
906.94980892459841
 21
510.46366996195582
 31
0.0
  0
ARC
  5
2DBB
  8
AM_0
 10
903.4142839245992
 20
506.92814996195602
 30
0.0
 40
5.0
 50
45.00000100000149
 51
139.96884999999969
  0
LINE
  5
2DBC
  8
AM_0
 10
948.86896892459868
 20
485.51506496195589
 30
0.0
 11
915.43509892459872
 21
518.94890996195568
 31
0.0
  0
ARC
  5
2DBD
  8
AM_0
 10
936.84812392459833
 20
473.49430996195599
 30
0.0
 40
5.0
 50
322.9032099999983
 51
45.00000100000149
  0
ARC
  5
2DBE
  8
AM_0
 10
952.404458924599
 20
489.05064496195592
 30
0.0
 40
5.0
 50
225.0
 51
307.0967900000017
  0
LINE
  5
2DBF
  8
AM_0
 10
945.65751392459822
 20
590.24120996195575
 30
0.0
 11
859.11867892459884
 21
585.70590996195597
 31
0.0
  0
ARC
  5
2DC0
  8
AM_0
 10
1048.910623924598
 20
489.05064496195592
 30
0.0
 40
5.0
 50
232.90320999999821
 51
315.0
  0
ARC
  5
2DC1
  8
AM_0
 10
1064.4669639245981
 20
473.49430996195599
 30
0.0
 40
5.0
 50
135.0
 51
217.09680000000159
  0
ARC
  5
2DC2
  8
AM_0
 10
1000.657543924597
 20
593.2411599619561
 30
0.0
 40
5.0
 50
359.999989999999
 51
179.9999899999988
  0
LINE
  5
2DC3
  8
AM_0
 10
995.65754392459871
 20
593.2411599619561
 30
0.0
 11
995.65754392459871
 21
590.24120996195575
 31
0.0
  0
LINE
  5
2DC4
  8
AM_0
 10
1005.657543924597
 20
593.2411599619561
 30
0.0
 11
1005.657543924597
 21
590.24120996195575
 31
0.0
  0
LINE
  5
2DC5
  8
AM_0
 10
1165.6575439245969
 20
480.24122996195592
 30
0.0
 11
1161.1222389245991
 21
566.78005996195589
 31
0.0
  0
ARC
  5
2DC6
  8
AM_0
 10
1097.900798924597
 20
506.92814996195602
 30
0.0
 40
5.0
 50
40.031148000000073
 51
135.0
  0
ARC
  5
2DC7
  8
AM_0
 10
1082.3444639245979
 20
522.48450996195584
 30
0.0
 40
5.0
 50
315.0
 51
49.96885100000106
  0
LINE
  5
2DC8
  8
ﾁｭｳｼﾝｾﾝ1
 10
1125.9029886552771
 20
550.48664830416362
 30
0.0
 11
1150.618949286144
 21
575.20264240507242
 31
0.0
  0
ARC
  5
2DC9
  8
ﾁｭｳｼﾝｾﾝ1
 10
1000.657543924597
 20
425.24125996195568
 30
0.0
 40
195.0000049999999
 50
39.367218999999267
 51
50.896189000000447
  0
CIRCLE
  5
2DCA
  8
AM_0
 10
1138.543378924599
 20
563.12700996195599
 30
0.0
 40
9.5
  0
ARC
  5
2DCB
  8
AM_0
 10
1141.149658924599
 20
565.73335996195601
 30
0.0
 40
20.000000499999999
 50
3.0000000999988461
 51
86.99999899999699
  0
LINE
  5
2DCC
  8
AM_0
 10
356.85059669889063
 20
340.69522996195582
 30
0.0
 11
368.31003669889049
 21
340.69522996195582
 31
0.0
  0
LINE
  5
2DCD
  8
AM_0
 10
356.85059669889063
 20
419.64460496195591
 30
0.0
 11
368.31003669889049
 21
419.64460496195591
 31
0.0
  0
LINE
  5
2DCE
  8
AM_0
 10
355.0020446988903
 20
979.54940303610044
 30
0.0
 11
355.0020446988903
 21
832.54940303610044
 31
0.0
  0
LINE
  5
2DCF
  8
AM_0
 10
336.00204469889047
 20
844.20464803610048
 30
0.0
 11
336.00204469889047
 21
967.52581503610043
 31
0.0
  0
LINE
  5
2DD0
  8
AM_0
 10
302.0020446988903
 20
1005.049403036099
 30
0.0
 11
302.0020446988903
 21
807.04940303610044
 31
0.0
  0
LINE
  5
2DD1
  8
AM_0
 10
292.0020446988903
 20
806.04940303610044
 30
0.0
 11
292.0020446988903
 21
1006.0494030361
 31
0.0
  0
LINE
  5
2DD2
  8
AM_0
 10
292.0020446988903
 20
806.04940303610044
 30
0.0
 11
301.0020446988903
 21
806.04940303610044
 31
0.0
  0
ARC
  5
2DD3
  8
AM_0
 10
301.0020446988903
 20
807.04940303610044
 30
0.0
 40
1.0
 50
270.0
 51
0.0
  0
LINE
  5
2DD4
  8
AM_0
 10
336.00204469889047
 20
838.6473240361006
 30
0.0
 11
304.74057669889032
 21
835.91230003610031
 31
0.0
  0
ARC
  5
2DD5
  8
AM_0
 10
305.0020446988903
 20
832.92371603610047
 30
0.0
 40
3.0
 50
94.99999999999973
 51
180.0
  0
LINE
  5
2DD6
  8
AM_0
 10
353.1763556988904
 20
837.14476703610035
 30
0.0
 11
336.00204469889047
 21
838.6473240361006
 31
0.0
  0
LINE
  5
2DD7
  8
AM_0
 10
356.8506066988906
 20
844.39940303610035
 30
0.0
 11
368.3100466988904
 21
844.39940303610035
 31
0.0
  0
LINE
  5
2DD8
  8
AM_0
 10
355.0020446988903
 20
832.54940303610044
 30
0.0
 11
370.0020446988903
 21
832.54940303610044
 31
0.0
  0
ARC
  5
2DD9
  8
AM_0
 10
353.0020446988903
 20
835.15237703610046
 30
0.0
 40
2.0
 50
0.0
 51
85.000000000000256
  0
LINE
  5
2DDA
  8
AM_0
 10
356.8506066988906
 20
866.50337303610024
 30
0.0
 11
368.3100466988904
 21
866.50337303610024
 31
0.0
  0
ARC
  5
2DDB
  8
AM_0
 10
305.0020446988903
 20
979.1750900361003
 30
0.0
 40
3.0
 50
180.0
 51
265.00000000000028
  0
LINE
  5
2DDC
  8
AM_0
 10
336.00204469889047
 20
973.45148203610029
 30
0.0
 11
304.74057669889032
 21
976.18650603610047
 31
0.0
  0
LINE
  5
2DDD
  8
AM_0
 10
353.1763556988904
 20
974.95404003610065
 30
0.0
 11
336.00204469889047
 21
973.45148203610029
 31
0.0
  0
LINE
  5
2DDE
  8
AM_0
 10
356.8506066988906
 20
945.45274803610062
 30
0.0
 11
368.3100466988904
 21
945.45274803610062
 31
0.0
  0
LINE
  5
2DDF
  8
AM_0
 10
356.8506066988906
 20
967.69940303610065
 30
0.0
 11
368.3100466988904
 21
967.69940303610065
 31
0.0
  0
ARC
  5
2DE0
  8
AM_0
 10
353.0020446988903
 20
976.94642903610065
 30
0.0
 40
2.0
 50
274.99999999999972
 51
0.0
  0
LINE
  5
2DE1
  8
AM_0
 10
292.0020446988903
 20
1006.0494030361
 30
0.0
 11
301.0020446988903
 21
1006.0494030361
 31
0.0
  0
ARC
  5
2DE2
  8
AM_0
 10
301.0020446988903
 20
1005.049403036099
 30
0.0
 40
1.0
 50
0.0
 51
90.0
  0
LINE
  5
2DE3
  8
AM_0
 10
355.0020446988903
 20
979.54940303610044
 30
0.0
 11
370.0020446988903
 21
979.54940303610044
 31
0.0
  0
ARC
  5
2DE4
  8
ﾁｭｳｼﾝｾﾝ1
 10
1000.6575439245991
 20
425.24125996195568
 30
0.0
 40
195.0000049999999
 50
129.1038109999989
 51
140.63278099999999
  0
LINE
  5
2DE5
  8
ﾁｭｳｼﾝｾﾝ1
 10
875.41209919392224
 20
550.48664830416499
 30
0.0
 11
850.69613856305546
 21
575.20264240507402
 31
0.0
  0
ARC
  5
2DE6
  8
ﾁｭｳｼﾝｾﾝ1
 10
1000.6575439245991
 20
425.24125996195568
 30
0.0
 40
195.0000049999999
 50
307.87113999999877
 51
321.83467999999772
  0
LINE
  5
2DE7
  8
ﾁｭｳｼﾝｾﾝ1
 10
1125.755256694918
 20
300.1434810099945
 30
0.0
 11
1149.7678683383181
 21
276.13082597982623
 31
0.0
  0
TEXT
  5
2FD9
  8
AM_0
 10
872.85174890699307
 20
930.48263703739781
 30
0.0
 40
20.0
  1
VX15-120AF~VX15-200AF
  0
ENDSEC
  0
EOF
