  0
SECTION
  2
HEADER
  9
$ACADVER
  1
AC1009
  9
$INSBASE
 10
0.0
 20
0.0
 30
0.0
  9
$EXTMIN
 10
249.13719537451061
 20
208.5759424419584
 30
-0.0000000000112498
  9
$EXTMAX
 10
1323.023112632244
 20
1075.6857095943069
 30
0.0000000000002956
  9
$LIMMIN
 10
0.0
 20
0.0
  9
$LIMMAX
 10
1422.5
 20
925.0
  9
$ORTHOMODE
 70
     0
  9
$REGENMODE
 70
     1
  9
$FILLMODE
 70
     1
  9
$QTEXTMODE
 70
     0
  9
$MIRRTEXT
 70
     1
  9
$DRAGMODE
 70
     2
  9
$LTSCALE
 40
5.0
  9
$OSMODE
 70
   551
  9
$ATTMODE
 70
     1
  9
$TEXTSIZE
 40
2.5
  9
$TRACEWID
 40
1.0
  9
$TEXTSTYLE
  7
STANDARD
  9
$CLAYER
  8
AM_0
  9
$CELTYPE
  6
BYLAYER
  9
$CECOLOR
 62
   256
  9
$DIMSCALE
 40
1.0
  9
$DIMASZ
 40
2.5
  9
$DIMEXO
 40
1.0
  9
$DIMDLI
 40
8.0
  9
$DIMRND
 40
0.0
  9
$DIMDLE
 40
0.0
  9
$DIMEXE
 40
0.6
  9
$DIMTP
 40
0.1
  9
$DIMTM
 40
0.1
  9
$DIMTXT
 40
2.5
  9
$DIMCEN
 40
0.0
  9
$DIMTSZ
 40
0.0
  9
$DIMTOL
 70
     0
  9
$DIMLIM
 70
     0
  9
$DIMTIH
 70
     0
  9
$DIMTOH
 70
     0
  9
$DIMSE1
 70
     0
  9
$DIMSE2
 70
     0
  9
$DIMTAD
 70
     1
  9
$DIMZIN
 70
     8
  9
$DIMBLK
  1

  9
$DIMASO
 70
     1
  9
$DIMSHO
 70
     1
  9
$DIMPOST
  1

  9
$DIMAPOST
  1
"
  9
$DIMALT
 70
     0
  9
$DIMALTD
 70
     2
  9
$DIMALTF
 40
0.0393701
  9
$DIMLFAC
 40
1.0
  9
$DIMTOFL
 70
     1
  9
$DIMTVP
 40
0.0
  9
$DIMTIX
 70
     0
  9
$DIMSOXD
 70
     0
  9
$DIMSAH
 70
     0
  9
$DIMBLK1
  1

  9
$DIMBLK2
  1

  9
$DIMSTYLE
  2
AM_ISO
  9
$DIMCLRD
 70
   256
  9
$DIMCLRE
 70
   256
  9
$DIMCLRT
 70
     4
  9
$DIMTFAC
 40
0.71
  9
$DIMGAP
 40
0.8
  9
$LUNITS
 70
     2
  9
$LUPREC
 70
     2
  9
$SKETCHINC
 40
1.0
  9
$FILLETRAD
 40
25.0
  9
$AUNITS
 70
     0
  9
$AUPREC
 70
     0
  9
$MENU
  1
.
  9
$ELEVATION
 40
0.0
  9
$PELEVATION
 40
0.0
  9
$THICKNESS
 40
0.0
  9
$LIMCHECK
 70
     0
  9
$BLIPMODE
 70
     0
  9
$CHAMFERA
 40
10.0
  9
$CHAMFERB
 40
5.0
  9
$SKPOLY
 70
     0
  9
$TDCREATE
 40
2452066.5973927551
  9
$TDUPDATE
 40
2458541.5477604172
  9
$TDINDWG
 40
0.2275235764
  9
$TDUSRTIMER
 40
0.2275233796
  9
$USRTIMER
 70
     1
  9
$ANGBASE
 50
0.0
  9
$ANGDIR
 70
     0
  9
$PDMODE
 70
     0
  9
$PDSIZE
 40
0.0
  9
$PLINEWID
 40
0.0
  9
$COORDS
 70
     1
  9
$SPLFRAME
 70
     0
  9
$SPLINETYPE
 70
     6
  9
$SPLINESEGS
 70
     8
  9
$ATTDIA
 70
     1
  9
$ATTREQ
 70
     1
  9
$HANDLING
 70
     1
  9
$HANDSEED
  5
3236
  9
$SURFTAB1
 70
     6
  9
$SURFTAB2
 70
     6
  9
$SURFTYPE
 70
     6
  9
$SURFU
 70
     6
  9
$SURFV
 70
     6
  9
$UCSNAME
  2

  9
$UCSORG
 10
0.0
 20
0.0
 30
0.0
  9
$UCSXDIR
 10
1.0
 20
0.0
 30
0.0
  9
$UCSYDIR
 10
0.0
 20
1.0
 30
0.0
  9
$PUCSNAME
  2

  9
$PUCSORG
 10
0.0
 20
0.0
 30
0.0
  9
$PUCSXDIR
 10
1.0
 20
0.0
 30
0.0
  9
$PUCSYDIR
 10
0.0
 20
1.0
 30
0.0
  9
$USERI1
 70
     0
  9
$USERI2
 70
     0
  9
$USERI3
 70
     0
  9
$USERI4
 70
     0
  9
$USERI5
 70
     0
  9
$USERR1
 40
0.0
  9
$USERR2
 40
0.0
  9
$USERR3
 40
0.0
  9
$USERR4
 40
0.0
  9
$USERR5
 40
0.0
  9
$WORLDVIEW
 70
     1
  9
$SHADEDGE
 70
     3
  9
$SHADEDIF
 70
    70
  9
$TILEMODE
 70
     1
  9
$MAXACTVP
 70
    64
  9
$PLIMCHECK
 70
     0
  9
$PEXTMIN
 10
1.0000000000000000E+020
 20
1.0000000000000000E+020
 30
1.0000000000000000E+020
  9
$PEXTMAX
 10
-1.0000000000000000E+020
 20
-1.0000000000000000E+020
 30
-1.0000000000000000E+020
  9
$PLIMMIN
 10
0.0
 20
0.0
  9
$PLIMMAX
 10
420.0
 20
297.0
  9
$UNITMODE
 70
     0
  9
$VISRETAIN
 70
     1
  9
$PLINEGEN
 70
     0
  9
$PSLTSCALE
 70
     1
  0
ENDSEC
  0
SECTION
  2
TABLES
  0
TABLE
  2
VPORT
 70
     1
  0
VPORT
  2
*ACTIVE
 70
     0
 10
0.0
 20
0.0
 11
1.0
 21
1.0
 12
786.08015400337706
 22
642.13082601813255
 13
0.0
 23
0.0
 14
12.5
 24
12.5
 15
50.0
 25
50.0
 16
0.0
 26
0.0
 36
1.0
 17
0.0
 27
0.0
 37
0.0
 40
873.06246578268485
 41
1.7571592210767459
 42
50.0
 43
0.0
 44
0.0
 50
0.0
 51
0.0
 71
     0
 72
   100
 73
     1
 74
     3
 75
     0
 76
     0
 77
     0
 78
     0
  0
ENDTAB
  0
TABLE
  2
LTYPE
 70
    26
  0
LTYPE
  2
CONTINUOUS
 70
     0
  3
Solid line
 72
    65
 73
     0
 40
0.0
  0
LTYPE
  2
AM_ISO02W050
 70
     0
  3
__ __ __ __ __ __ __ __ __ __ __ __ __ __ __
 72
    65
 73
     2
 40
7.5
 49
6.0
 49
-1.5
  0
LTYPE
  2
AM_ISO08W050
 70
     0
  3
____ . ____ . ____ . ____ . ____ . ____ . ____
 72
    65
 73
     4
 40
18.0
 49
12.0
 49
-1.5
 49
3.0
 49
-1.5
  0
LTYPE
  2
AM_ISO09W050
 70
     0
  3
_____ . . _____ . . _____ . . ____ .. ____
 72
    65
 73
     6
 40
22.5
 49
12.0
 49
-1.5
 49
3.0
 49
-1.5
 49
3.0
 49
-1.5
  0
LTYPE
  2
AMCONSTR
 70
     0
  3
_______________________
 72
    65
 73
     2
 40
9999.0
 49
9999.0
 49
0.0
  0
LTYPE
  2
AM_ISO08W050X2
 70
     0
  3
__ . __ . __ . __ . __ . __
 72
    65
 73
     4
 40
9.0
 49
6.0
 49
-0.75
 49
1.5
 49
-0.75
  0
LTYPE
  2
AM_ISO02W050X2
 70
     0
  3
 _ _ _ _ _ _ _ _ _ _ _ _
 72
    65
 73
     2
 40
3.75
 49
3.0
 49
-0.75
  0
LTYPE
  2
AMZIGZAG
 70
     0
  3
/\/-/\/-/\/-/\/-/\/-/\/
 72
    65
 73
     2
 40
11.000099999999991
 49
0.0001
 49
-11.0
  0
LTYPE
  2
ACISOWELD
 70
     0
  3
_ _ _ _ _
 72
    65
 73
     2
 40
2.0
 49
2.0
 49
-1.0
  0
LTYPE
  2
ACISOTGB
 70
     0
  3
__ . . __ . .
 72
    65
 73
     6
 40
9.0
 49
4.0
 49
-1.0
 49
1.0
 49
-1.0
 49
1.0
 49
-1.0
  0
LTYPE
  2
ACISOTGL
 70
     0
  3
_ _ _ _ _
 72
    65
 73
     2
 40
3.0
 49
2.0
 49
-1.0
  0
LTYPE
  2
CENTER
 70
     0
  3
__ . __
 72
    65
 73
     4
 40
7.0
 49
4.0
 49
-1.0
 49
1.0
 49
-1.0
  0
LTYPE
  2
PHANTOM2
 70
     0
  3
Phantom (.5x) ___ _ _ ___ _ _ ___ _ _ ___ _ _
 72
    65
 73
     6
 40
31.75
 49
15.875
 49
-3.174999999999998
 49
3.174999999999998
 49
-3.174999999999998
 49
3.174999999999998
 49
-3.174999999999998
  0
LTYPE
  2
ACANSTGBM
 70
     0
  3
__ . . __ . .
 72
    65
 73
     6
 40
9.0
 49
4.0
 49
-1.0
 49
1.0
 49
-1.0
 49
1.0
 49
-1.0
  0
LTYPE
  2
ACANSTGLM
 70
     0
  3
_ _ _ _ _
 72
    65
 73
     2
 40
3.0
 49
2.0
 49
-1.0
  0
LTYPE
  2
GEN7
 70
     0
  3
____ . ____ . ____ . ____ . ____ . ____ . ____
 72
    65
 73
     4
 40
14.25
 49
9.75
 49
-1.5
 49
1.5
 49
-1.5
  0
LTYPE
  2
GEN7A
 70
     0
  3
__ . __ . __
 72
    65
 73
     4
 40
7.375
 49
4.75
 49
-0.875
 49
0.875
 49
-0.875
  0
LTYPE
  2
ACJISTGB
 70
     0
  3
__ . . __ . .
 72
    65
 73
     6
 40
9.0
 49
4.0
 49
-1.0
 49
1.0
 49
-1.0
 49
1.0
 49
-1.0
  0
LTYPE
  2
ACJISTGL
 70
     0
  3
_ _ _ _ _
 72
    65
 73
     2
 40
3.0
 49
2.0
 49
-1.0
  0
LTYPE
  2
HIDDEN
 70
     0
  3
Hidden __ __ __ __ __ __ __ __ __ __ __ __ __ _
 72
    65
 73
     2
 40
0.375
 49
0.25
 49
-0.125
  0
LTYPE
  2
CENTER2
 70
     0
  3
Center (.5x) ___ _ ___ _ ___ _ ___ _ ___ _ ___
 72
    65
 73
     4
 40
1.125
 49
0.75
 49
-0.125
 49
0.125
 49
-0.125
  0
LTYPE
  2
HIDDEN2
 70
     0
  3
Hidden (.5x) _ _ _ _ _ _ _ _ _ _ _ _ _ _ _ _ _
 72
    65
 73
     2
 40
0.1875
 49
0.125
 49
-0.0625
  0
LTYPE
  2
AMZIGZAG2
 70
     0
  3
/\/-/\/-/\/-/\/-/\/-/\/
 72
    65
 73
     2
 40
0.4401
 49
0.0001
 49
-0.4400000000000002
  0
LTYPE
  2
ACANSTGB
 70
     0
  3
__ . . __ . .
 72
    65
 73
     6
 40
0.35433070866
 49
0.15748031496
 49
-0.03937007874
 49
0.03937007874
 49
-0.03937007874
 49
0.03937007874
 49
-0.03937007874
  0
LTYPE
  2
ACANSTGL
 70
     0
  3
_ _ _ _ _
 72
    65
 73
     2
 40
0.11811023622
 49
0.07874015748
 49
-0.03937007874
  0
ENDTAB
  0
TABLE
  2
LAYER
 70
     9
  0
LAYER
  2
0
 70
     0
 62
     7
  6
CONTINUOUS
  0
LAYER
  2
AM_0
 70
     0
 62
     7
  6
CONTINUOUS
  0
LAYER
  2
AM_5
 70
     0
 62
     2
  6
CONTINUOUS
  0
LAYER
  2
DEFPOINTS
 70
     0
 62
     7
  6
CONTINUOUS
  0
LAYER
  2
ﾁｭｳｼﾝｾﾝ
 70
     0
 62
     1
  6
GEN7
  0
LAYER
  2
ﾁｭｳｼﾝｾﾝ1
 70
     0
 62
     1
  6
GEN7A
  0
LAYER
  2
GEV_FROZEN
 70
     1
 62
     7
  6
CONTINUOUS
  0
LAYER
  2
BHII
 70
     0
 62
     7
  6
CONTINUOUS
  0
LAYER
  2
CENN
 70
     0
 62
     7
  6
CONTINUOUS
  0
ENDTAB
  0
TABLE
  2
STYLE
 70
     9
  0
STYLE
  2
STANDARD
 70
     0
 40
0.0
 41
0.8299999999999999
 50
0.0
 71
     0
 42
2.5
  3
txt.shx
  4
bigfont.shx
  0
STYLE
  2
ANNOTATIVE
 70
     0
 40
0.0
 41
1.0
 50
0.0
 71
     0
 42
0.2
  3
txt
  4

  0
STYLE
  2

 70
     1
 40
0.0
 41
1.0
 50
0.0
 71
     0
 42
2.5
  3
ltypeshp.shx
  4

  0
STYLE
  2
ACISOTS
 70
     0
 40
1.0
 41
1.0
 50
0.0
 71
     0
 42
2.5
  3
isocp.shx
  4
extfont.shx
  0
STYLE
  2
ACISOGDT
 70
     0
 40
0.0
 41
1.0
 50
0.0
 71
     0
 42
2.5
  3
amgdt.shx
  4

  0
STYLE
  2
ACANSTS
 70
     0
 40
1.0
 41
1.0
 50
0.0
 71
     0
 42
2.5
  3
romans.shx
  4
bigfont.shx
  0
STYLE
  2
ACANSGDT
 70
     0
 40
0.0
 41
1.0
 50
0.0
 71
     0
 42
2.5
  3
amgdt.shx
  4

  0
STYLE
  2
ACJISTS
 70
     0
 40
1.0
 41
1.0
 50
0.0
 71
     0
 42
2.5
  3
isocp.shx
  4
bigfont.shx
  0
STYLE
  2
ACJISGDT
 70
     0
 40
0.0
 41
1.0
 50
0.0
 71
     0
 42
2.5
  3
amgdt.shx
  4

  0
ENDTAB
  0
TABLE
  2
VIEW
 70
     6
  0
VIEW
  2
AM_VIEW1
 70
     0
 40
462.5
 10
416.07965009208078
 20
693.75
 41
832.15930018416213
 11
0.0
 21
0.0
 31
1.0
 12
0.0
 22
0.0
 32
0.0
 42
50.0
 43
0.0
 44
0.0
 50
0.0
 71
     0
  0
VIEW
  2
AM_VIEW2
 70
     0
 40
462.5
 10
1006.420349907918
 20
693.75
 41
832.15930018416213
 11
0.0
 21
0.0
 31
1.0
 12
0.0
 22
0.0
 32
0.0
 42
50.0
 43
0.0
 44
0.0
 50
0.0
 71
     0
  0
VIEW
  2
AM_VIEW3
 70
     0
 40
462.5
 10
416.07965009208078
 20
231.25
 41
832.15930018416213
 11
0.0
 21
0.0
 31
1.0
 12
0.0
 22
0.0
 32
0.0
 42
50.0
 43
0.0
 44
0.0
 50
0.0
 71
     0
  0
VIEW
  2
AM_VIEW4
 70
     0
 40
462.5
 10
1006.420349907918
 20
231.25
 41
832.15930018416213
 11
0.0
 21
0.0
 31
1.0
 12
0.0
 22
0.0
 32
0.0
 42
50.0
 43
0.0
 44
0.0
 50
0.0
 71
     0
  0
VIEW
  2
AM_VIEW5
 70
     0
 40
462.5
 10
711.24999999999966
 20
462.5
 41
832.15930018416179
 11
0.0
 21
0.0
 31
1.0
 12
0.0
 22
0.0
 32
0.0
 42
50.0
 43
0.0
 44
0.0
 50
0.0
 71
     0
  0
VIEW
  2
AM_VIEW6
 70
     0
 40
924.99075000000005
 10
711.24999999999966
 20
462.5
 41
1664.3019571823199
 11
0.0
 21
0.0
 31
1.0
 12
0.0
 22
0.0
 32
0.0
 42
50.0
 43
0.0
 44
0.0
 50
0.0
 71
     0
  0
ENDTAB
  0
TABLE
  2
UCS
 70
     0
  0
ENDTAB
  0
TABLE
  2
APPID
 70
    95
  0
APPID
  2
ACAD
 70
     0
  0
APPID
  2
ACADANNOTATIVE
 70
     0
  0
APPID
  2
MCAD_NO_VIS
 70
     0
  0
APPID
  2
ACAD_TEMP_GRAPHIC
 70
     0
  0
APPID
  2
ACATTRIBSERVICES
 70
     0
  0
APPID
  2
GENIUS_GENREC_14
 70
     0
  0
APPID
  2
GENIUS_GENOBJ-N-REC_13
 70
     0
  0
APPID
  2
GENIUS_GENODEF_13
 70
     0
  0
APPID
  2
GENIUS_GENOLIS_13
 70
     0
  0
APPID
  2
GENIUS_GENOBJ-N-TIT_13
 70
     0
  0
APPID
  2
GENIUS_GENOENT_13
 70
     0
  0
APPID
  2
GENIUS_GENTITLE_13
 70
     0
  0
APPID
  2
GENIUS_GENOREF_13
 70
     0
  0
APPID
  2
GENIUS_GENSCREG_15
 70
     0
  0
APPID
  2
GENIUS_GENOBJ-N-SDF_13
 70
     0
  0
APPID
  2
GENIUS_GENFIL_13
 70
     0
  0
APPID
  2
GENIUS_GENOBJ-N-CHA_13
 70
     0
  0
APPID
  2
GENIUS_GENDTOL_13
 70
     0
  0
APPID
  2
GENIUS_GENOBJ-N-FIL_13
 70
     0
  0
APPID
  2
AD_DRAW
 70
     0
  0
APPID
  2
DESIGNERASSEMBLIES
 70
     0
  0
APPID
  2
ASURF_PCURVE_APPNAME
 70
     0
  0
APPID
  2
GENIUS_GE3SECT_13
 70
     0
  0
APPID
  2
GENIUS_GENCFG_13
 70
     0
  0
APPID
  2
GENIUS_GE3CFG0_13
 70
     0
  0
APPID
  2
GENIUS_GENCFG0_13
 70
     0
  0
APPID
  2
GENIUS_GENCFG1_13
 70
     0
  0
APPID
  2
GENIUS_GENCFG2_13
 70
     0
  0
APPID
  2
GENIUS_GENCFG3_13
 70
     0
  0
APPID
  2
GENIUS_GENCFG4_13
 70
     0
  0
APPID
  2
GENIUS_GEVCFG0_13
 70
     0
  0
APPID
  2
GENIUS_GENHINW_13
 70
     0
  0
APPID
  2
GENIUS_FIRSTVISTXT_14
 70
     0
  0
APPID
  2
GENIUS_GENOBJ-N-LEADER_13
 70
     0
  0
APPID
  2
GEV_VCCNULL_SWITCH_OFF
 70
     0
  0
APPID
  2
GENIUS_GEFCFG0_13
 70
     0
  0
APPID
  2
GENIUS_GENZVEED_13
 70
     0
  0
APPID
  2
GENIUS_GENSCREG_13
 70
     0
  0
APPID
  2
GENIUS_DUMCFG0_13
 70
     0
  0
APPID
  2
GEVID936201362
 70
     0
  0
APPID
  2
GEVDC
 70
     0
  0
APPID
  2
GEVCON
 70
     0
  0
APPID
  2
VCC
 70
     0
  0
APPID
  2
GEVPT
 70
     0
  0
APPID
  2
GEVIT
 70
     0
  0
APPID
  2
GENBH
 70
     0
  0
APPID
  2
GEVMK
 70
     0
  0
APPID
  2
GENIUS_GENBH_13
 70
     0
  0
APPID
  2
GENIUS_GENOBJ-NBEHI-BHF_13
 70
     0
  0
APPID
  2
GENIUS_GENOBJ-NBEHI-BHB_13
 70
     0
  0
APPID
  2
GENIUS_GENOBJ-F-DESC_13
 70
     0
  0
APPID
  2
GENIUS_GEFDESC_14
 70
     0
  0
APPID
  2
GENIUS_GENOBJ-F-PART_13
 70
     0
  0
APPID
  2
GENIUS_GEFSTDP_13
 70
     0
  0
APPID
  2
GENIUS_GEFPARTINS_13
 70
     0
  0
APPID
  2
GENIUS_GENTRA_14
 70
     0
  0
APPID
  2
GENIUS_GENINF13_13
 70
     0
  0
APPID
  2
GENIUS_GENOBJ-N-INFOPT_13
 70
     0
  0
APPID
  2
GENIUS_GENOBJ-N-RSSYM_13
 70
     0
  0
APPID
  2
GENIUS_GENSYMENT_13
 70
     0
  0
APPID
  2
GENIUS_GENSCSYM_13
 70
     0
  0
APPID
  2
GENIUS_GEFINFNAM_13
 70
     0
  0
APPID
  2
GENIUS_GENOBJ-N-CEN_13
 70
     0
  0
APPID
  2
GENIUS_GENOBJ-N-CRS_13
 70
     0
  0
APPID
  2
GENIUS_GENOBJ-N-CRC_13
 70
     0
  0
APPID
  2
GENIUS_GENCRC_14
 70
     0
  0
APPID
  2
GEVID942827039
 70
     0
  0
APPID
  2
GEVID942827040
 70
     0
  0
APPID
  2
GEVID942827041
 70
     0
  0
APPID
  2
GENIUS_GENOBJ-F-SCPASSM_13
 70
     0
  0
APPID
  2
GENIUS_GENDIMSH_14
 70
     0
  0
APPID
  2
GEVID942827042
 70
     0
  0
APPID
  2
GEVID946020473
 70
     0
  0
APPID
  2
GEVID946020474
 70
     0
  0
APPID
  2
GEVID946020475
 70
     0
  0
APPID
  2
GENIUS_GENOBJ-N-HTC_13
 70
     0
  0
APPID
  2
GENIUS_GENHATCH_13
 70
     0
  0
APPID
  2
GEVID948854295
 70
     0
  0
APPID
  2
GEVID939402019
 70
     0
  0
APPID
  2
GEVID952919491
 70
     0
  0
APPID
  2
GEVID952919492
 70
     0
  0
APPID
  2
GENIUS_GEFWELD_13
 70
     0
  0
APPID
  2
GENIUS_GENOBJ-F-WELS_13
 70
     0
  0
APPID
  2
GEVID952919493
 70
     0
  0
APPID
  2
GENIUS_GENOBJ-N-RSBK_13
 70
     0
  0
APPID
  2
GENIUS_GENOBJ-N-LIB_13
 70
     0
  0
APPID
  2
GENIUS_GENSCALE_13
 70
     0
  0
APPID
  2
GEVID986376691
 70
     0
  0
APPID
  2
DCO15
 70
     0
  0
APPID
  2
ACAD_DSTYLE_DIMBREAK
 70
     0
  0
APPID
  2
ACAD_DSTYLE_DIMJAG
 70
     0
  0
APPID
  2
ACAD_NAV_VCDISPLAY
 70
     0
  0
APPID
  2
ACADANNOPO
 70
     0
  0
APPID
  2
ACAD_EXEMPT_FROM_CAD_STANDARDS
 70
     0
  0
APPID
  2
ACAD_MLEADERVER
 70
     0
  0
ENDTAB
  0
TABLE
  2
DIMSTYLE
 70
    22
  0
DIMSTYLE
  2
STANDARD
 70
     0
  3

  4

  5

  6

  7

 40
1.0
 41
0.18
 42
0.0625
 43
0.38
 44
0.18
 45
0.0
 46
0.0
 47
0.0
 48
0.0
140
0.18
141
0.09
142
0.0
143
25.399999999999999
144
1.0
145
0.0
146
1.0
147
0.09
 71
     0
 72
     0
 73
     1
 74
     1
 75
     0
 76
     0
 77
     0
 78
     0
170
     0
171
     2
172
     0
173
     0
174
     0
175
     0
176
     0
177
     0
178
     0
  0
DIMSTYLE
  2
ANNOTATIVE
 70
     0
  3

  4

  5

  6

  7

 40
1.0
 41
0.18
 42
0.0625
 43
0.38
 44
0.18
 45
0.0
 46
0.0
 47
0.0
 48
0.0
140
0.18
141
0.09
142
0.0
143
25.399999999999999
144
1.0
145
0.0
146
1.0
147
0.09
 71
     0
 72
     0
 73
     1
 74
     1
 75
     0
 76
     0
 77
     0
 78
     0
170
     0
171
     2
172
     0
173
     0
174
     0
175
     0
176
     0
177
     0
178
     0
  0
DIMSTYLE
  2
AM_ISO
 70
     0
  3

  4
"
  5

  6

  7

 40
1.0
 41
2.5
 42
1.0
 43
8.0
 44
0.6
 45
0.0
 46
0.0
 47
0.1
 48
0.1
140
2.5
141
0.0
142
0.0
143
0.0393701
144
1.0
145
0.0
146
0.71
147
0.8
 71
     0
 72
     0
 73
     0
 74
     0
 75
     0
 76
     0
 77
     1
 78
     8
170
     0
171
     2
172
     1
173
     0
174
     0
175
     0
176
   256
177
   256
178
     4
  0
DIMSTYLE
  2
AM_ISO$3
 70
     0
  3

  4
"
  5

  6

  7

 40
1.0
 41
2.5
 42
1.0
 43
8.0
 44
0.6
 45
0.0
 46
0.0
 47
0.1
 48
0.1
140
2.5
141
0.0
142
0.0
143
0.0393701
144
1.0
145
0.0
146
0.71
147
0.8
 71
     0
 72
     0
 73
     0
 74
     1
 75
     0
 76
     0
 77
     1
 78
     8
170
     0
171
     2
172
     0
173
     0
174
     0
175
     0
176
   256
177
   256
178
     4
  0
DIMSTYLE
  2
AM_ISO$4
 70
     0
  3

  4
"
  5

  6

  7

 40
1.0
 41
2.5
 42
1.0
 43
8.0
 44
0.6
 45
0.0
 46
0.0
 47
0.1
 48
0.1
140
2.5
141
0.0
142
0.0
143
0.0393701
144
1.0
145
0.0
146
0.71
147
0.8
 71
     0
 72
     0
 73
     0
 74
     1
 75
     0
 76
     0
 77
     1
 78
     8
170
     0
171
     2
172
     0
173
     0
174
     0
175
     0
176
   256
177
   256
178
     4
  0
DIMSTYLE
  2
AM_ISO$6
 70
     0
  3

  4
"
  5

  6

  7

 40
1.0
 41
2.5
 42
1.0
 43
8.0
 44
0.6
 45
0.0
 46
0.0
 47
0.1
 48
0.1
140
2.5
141
0.0
142
0.0
143
0.0393701
144
1.0
145
0.0
146
0.71
147
0.8
 71
     0
 72
     0
 73
     0
 74
     0
 75
     0
 76
     0
 77
     0
 78
     8
170
     0
171
     2
172
     1
173
     0
174
     0
175
     0
176
   256
177
   256
178
     4
  0
DIMSTYLE
  2
AM_ISO$7
 70
     0
  3

  4
"
  5

  6

  7

 40
1.0
 41
2.5
 42
1.0
 43
8.0
 44
0.6
 45
0.0
 46
0.0
 47
0.1
 48
0.1
140
2.5
141
0.0
142
0.0
143
0.0393701
144
1.0
145
0.0
146
0.71
147
0.8
 71
     0
 72
     0
 73
     0
 74
     0
 75
     0
 76
     0
 77
     1
 78
     8
170
     0
171
     2
172
     1
173
     0
174
     0
175
     0
176
   256
177
   256
178
     4
  0
DIMSTYLE
  2
AM_ISO$SF
 70
     0
  3

  4
"
  5

  6

  7

 40
1.0
 41
2.5
 42
1.0
 43
10.0
 44
1.0
 45
0.0
 46
0.0
 47
0.1
 48
0.1
140
3.5
141
0.0
142
0.0
143
0.0393701
144
1.0
145
0.0
146
0.71
147
1.5
 71
     0
 72
     0
 73
     0
 74
     0
 75
     1
 76
     1
 77
     1
 78
     8
170
     0
171
     2
172
     1
173
     0
174
     0
175
     0
176
   256
177
   256
178
     2
  0
DIMSTYLE
  2
AM_ISO$SH
 70
     0
  3

  4
"
  5

  6

  7

 40
1.0
 41
2.5
 42
1.0
 43
10.0
 44
1.0
 45
0.0
 46
0.0
 47
0.1
 48
0.1
140
3.5
141
0.0
142
0.0
143
0.0393701
144
2.0
145
0.0
146
0.71
147
1.5
 71
     0
 72
     0
 73
     0
 74
     0
 75
     1
 76
     1
 77
     1
 78
     8
170
     0
171
     2
172
     1
173
     1
174
     0
175
     0
176
   256
177
   256
178
     2
  0
DIMSTYLE
  2
AM_JIS
 70
     0
  3

  4
"
  5

  6

  7

 40
1.0
 41
2.5
 42
1.0
 43
7.0
 44
1.0
 45
0.0
 46
0.0
 47
0.1
 48
0.1000000001
140
2.5
141
0.0
142
0.0
143
0.0393701
144
1.0
145
0.0
146
0.71
147
1.0
 71
     0
 72
     0
 73
     0
 74
     0
 75
     0
 76
     0
 77
     3
 78
     8
170
     0
171
     2
172
     1
173
     0
174
     0
175
     0
176
   256
177
   256
178
     4
  0
DIMSTYLE
  2
AM_JIS$3
 70
     0
  3

  4
"
  5

  6

  7

 40
1.0
 41
2.5
 42
1.0
 43
7.0
 44
1.0
 45
0.0
 46
0.0
 47
0.1
 48
0.1000000001
140
2.5
141
0.0
142
0.0
143
0.0393701
144
1.0
145
0.0
146
0.71
147
1.0
 71
     0
 72
     0
 73
     0
 74
     1
 75
     0
 76
     0
 77
     3
 78
     8
170
     0
171
     2
172
     0
173
     0
174
     0
175
     0
176
   256
177
   256
178
     4
  0
DIMSTYLE
  2
AM_JIS$4
 70
     0
  3

  4
"
  5

  6

  7

 40
1.0
 41
2.5
 42
1.0
 43
7.0
 44
1.0
 45
0.0
 46
0.0
 47
0.1
 48
0.1000000001
140
2.5
141
0.0
142
0.0
143
0.0393701
144
1.0
145
0.0
146
0.71
147
1.0
 71
     0
 72
     0
 73
     0
 74
     0
 75
     0
 76
     0
 77
     3
 78
     8
170
     0
171
     2
172
     0
173
     0
174
     0
175
     0
176
   256
177
   256
178
     4
  0
DIMSTYLE
  2
AM_JIS$6
 70
     0
  3

  4
"
  5

  6

  7

 40
1.0
 41
2.5
 42
1.0
 43
7.0
 44
1.0
 45
0.0
 46
0.0
 47
0.1
 48
0.1000000001
140
2.5
141
0.0
142
0.0
143
0.0393701
144
1.0
145
0.0
146
0.71
147
1.0
 71
     0
 72
     0
 73
     0
 74
     0
 75
     0
 76
     0
 77
     0
 78
     8
170
     0
171
     2
172
     1
173
     0
174
     0
175
     0
176
   256
177
   256
178
     4
  0
DIMSTYLE
  2
AM_JIS$7
 70
     0
  3

  4
"
  5

  6

  7

 40
1.0
 41
2.5
 42
1.0
 43
7.0
 44
1.0
 45
0.0
 46
0.0
 47
0.1
 48
0.1000000001
140
2.5
141
0.0
142
0.0
143
0.0393701
144
1.0
145
0.0
146
0.71
147
1.0
 71
     0
 72
     0
 73
     0
 74
     0
 75
     0
 76
     0
 77
     3
 78
     8
170
     0
171
     2
172
     1
173
     0
174
     0
175
     0
176
   256
177
   256
178
     4
  0
DIMSTYLE
  2
AM_JIS$SF
 70
     0
  3

  4
"
  5

  6

  7

 40
1.0
 41
2.5
 42
1.0
 43
10.0
 44
1.0
 45
0.0
 46
0.0
 47
0.1
 48
0.1
140
3.5
141
0.0
142
0.0
143
0.0393701
144
1.0
145
0.0
146
0.71
147
1.5
 71
     0
 72
     0
 73
     0
 74
     0
 75
     1
 76
     1
 77
     3
 78
     8
170
     0
171
     2
172
     1
173
     0
174
     0
175
     0
176
   256
177
   256
178
     4
  0
DIMSTYLE
  2
AM_JIS$SH
 70
     0
  3

  4
"
  5

  6

  7

 40
1.0
 41
2.5
 42
1.0
 43
10.0
 44
1.0
 45
0.0
 46
0.0
 47
0.1
 48
0.1
140
3.5
141
0.0
142
0.0
143
0.0393701
144
1.0
145
0.0
146
0.71
147
1.5
 71
     0
 72
     0
 73
     0
 74
     0
 75
     1
 76
     0
 77
     3
 78
     8
170
     0
171
     2
172
     1
173
     1
174
     0
175
     0
176
   256
177
   256
178
     4
  0
DIMSTYLE
  2
AM_ANSI
 70
     0
  3

  4
mm
  5

  6

  7

 40
1.0
 41
0.1
 42
0.05
 43
0.5
 44
0.1
 45
0.0
 46
0.0
 47
0.1
 48
0.1
140
0.12
141
0.0
142
0.0
143
25.399999999999999
144
1.0
145
0.0
146
0.71
147
0.06
 71
     0
 72
     0
 73
     1
 74
     1
 75
     0
 76
     0
 77
     0
 78
     7
170
     0
171
     2
172
     0
173
     0
174
     0
175
     0
176
   256
177
   256
178
     2
  0
DIMSTYLE
  2
AM_ANSI$3
 70
     0
  3

  4
mm
  5

  6

  7

 40
1.0
 41
0.1
 42
0.05
 43
0.5
 44
0.1
 45
0.0
 46
0.0
 47
0.1
 48
0.1
140
0.12
141
0.0
142
0.0
143
25.399999999999999
144
1.0
145
0.0
146
0.71
147
0.06
 71
     0
 72
     0
 73
     1
 74
     1
 75
     0
 76
     0
 77
     0
 78
     7
170
     0
171
     2
172
     0
173
     0
174
     0
175
     0
176
   256
177
   256
178
     2
  0
DIMSTYLE
  2
AM_ANSI$4
 70
     0
  3

  4
mm
  5

  6

  7

 40
1.0
 41
0.1
 42
0.05
 43
0.5
 44
0.1
 45
0.0
 46
0.0
 47
0.1
 48
0.1
140
0.12
141
0.0
142
0.0
143
25.399999999999999
144
1.0
145
0.0
146
0.71
147
0.06
 71
     0
 72
     0
 73
     1
 74
     1
 75
     0
 76
     0
 77
     0
 78
     7
170
     0
171
     2
172
     0
173
     0
174
     0
175
     0
176
   256
177
   256
178
     2
  0
DIMSTYLE
  2
AM_ANSI$7
 70
     0
  3

  4
mm
  5

  6

  7

 40
1.0
 41
0.1
 42
0.05
 43
0.5
 44
0.1
 45
0.0
 46
0.0
 47
0.1
 48
0.1
140
0.24
141
0.0
142
0.0
143
25.399999999999999
144
1.0
145
0.0
146
0.71
147
0.06
 71
     0
 72
     0
 73
     1
 74
     1
 75
     0
 76
     0
 77
     0
 78
     7
170
     0
171
     2
172
     0
173
     0
174
     0
175
     0
176
   256
177
   256
178
     2
  0
DIMSTYLE
  2
AM_ANSI$SF
 70
     0
  3

  4
mm
  5

  6

  7

 40
1.0
 41
0.1
 42
0.05
 43
0.5
 44
0.1
 45
0.0
 46
0.0
 47
0.1
 48
0.1
140
0.12
141
0.0
142
0.0
143
25.399999999999999
144
1.0
145
0.0
146
0.71
147
0.06
 71
     0
 72
     0
 73
     1
 74
     1
 75
     1
 76
     1
 77
     0
 78
     7
170
     0
171
     2
172
     0
173
     0
174
     0
175
     0
176
   256
177
   256
178
     2
  0
DIMSTYLE
  2
AM_ANSI$SH
 70
     0
  3

  4
mm
  5

  6

  7

 40
1.0
 41
0.1
 42
0.05
 43
0.5
 44
0.1
 45
0.0
 46
0.0
 47
0.1
 48
0.1
140
0.12
141
0.0
142
0.0
143
25.399999999999999
144
1.0
145
0.0
146
0.71
147
0.06
 71
     0
 72
     0
 73
     1
 74
     1
 75
     1
 76
     1
 77
     0
 78
     7
170
     0
171
     2
172
     0
173
     1
174
     0
175
     0
176
   256
177
   256
178
     2
  0
ENDTAB
  0
ENDSEC
  0
SECTION
  2
BLOCKS
  0
BLOCK
  8
0
  2
$MODEL_SPACE
 70
     0
 10
0.0
 20
0.0
 30
0.0
  3
$MODEL_SPACE
  1

  0
ENDBLK
  5
307F
  8
0
  0
BLOCK
 67
     1
  8
0
  2
$PAPER_SPACE
 70
     0
 10
0.0
 20
0.0
 30
0.0
  3
$PAPER_SPACE
  1

  0
ENDBLK
  5
307B
 67
     1
  8
0
  0
BLOCK
  8
0
  2
GENAXEH
 70
     0
 10
0.0
 20
0.0
 30
0.0
  3
GENAXEH
  1

  0
LINE
  5
2D8B
  8
0
 10
-1.0
 20
0.0
 30
0.0
 11
1.0
 21
0.0
 31
0.0
  0
ENDBLK
  5
2D8C
  8
0
  0
BLOCK
  8
0
  2
_OPEN30
 70
     0
 10
0.0
 20
0.0
 30
0.0
  3
_OPEN30
  1

  0
LINE
  5
2D8F
  8
0
 62
     0
 10
-1.0
 20
0.26794919
 30
0.0
 11
0.0
 21
0.0
 31
0.0
  0
LINE
  5
2D90
  8
0
 62
     0
 10
0.0
 20
0.0
 30
0.0
 11
-1.0
 21
-0.26794919
 31
0.0
  0
LINE
  5
2D91
  8
0
 62
     0
 10
0.0
 20
0.0
 30
0.0
 11
-1.0
 21
0.0
 31
0.0
  0
ENDBLK
  5
2D92
  8
0
  0
BLOCK
  8
0
  2
*U4
 70
     1
 10
0.0
 20
0.0
 30
0.0
  3
*U4
  1
*U
  0
LINE
  5
2D95
  8
BHII
 10
0.0
 20
7.6999999999999984
 30
0.0
 11
0.0000000000000021
 21
-0.3279404685324049
 31
0.0
  0
LINE
  5
2D96
  8
BHII
 10
2.0
 20
7.6999999999999984
 30
0.0
 11
2.0000000000000022
 21
0.3999999999999986
 31
0.0
  0
LINE
  5
2D97
  8
BHII
 10
0.0
 20
-7.6999999999999984
 30
0.0
 11
2.0
 21
-7.6999999999999984
 31
0.0
  0
LINE
  5
2D98
  8
BHII
 10
2.0
 20
-0.3999999999999999
 30
0.0
 11
0.0000000000000001
 21
-1.127940468532403
 31
0.0
  0
LINE
  5
2D99
  8
BHII
 10
2.0000000000000022
 20
0.3999999999999986
 30
0.0
 11
0.0000000000000021
 21
-0.3279404685324049
 31
0.0
  0
LINE
  5
2D9A
  8
BHII
 10
2.0
 20
-0.3999999999999999
 30
0.0
 11
2.0
 21
-7.6999999999999984
 31
0.0
  0
LINE
  5
2D9B
  8
BHII
 10
0.0000000000000001
 20
-1.127940468532403
 30
0.0
 11
0.0
 21
-7.6999999999999984
 31
0.0
  0
LINE
  5
2D9C
  8
CENN
 10
-2.999999999999996
 20
0.0
 30
0.0
 11
5.0
 21
0.0
 31
0.0
  0
LINE
  5
2D9D
  8
BHII
 10
2.0
 20
7.6999999999999984
 30
0.0
 11
0.0
 21
7.6999999999999984
 31
0.0
  0
ENDBLK
  5
2D9E
  8
0
  0
BLOCK
  8
0
  2
*U5
 70
     1
 10
0.0
 20
0.0
 30
0.0
  3
*U5
  1
*U
  0
LINE
  5
2DA1
  8
BHII
 10
0.0
 20
7.6999999999999984
 30
0.0
 11
0.0000000000000021
 21
-0.3279404685324049
 31
0.0
  0
LINE
  5
2DA2
  8
BHII
 10
2.0
 20
7.6999999999999984
 30
0.0
 11
2.0000000000000022
 21
0.3999999999999986
 31
0.0
  0
LINE
  5
2DA3
  8
BHII
 10
0.0
 20
-7.6999999999999984
 30
0.0
 11
2.0
 21
-7.6999999999999984
 31
0.0
  0
LINE
  5
2DA4
  8
BHII
 10
2.0
 20
-0.3999999999999999
 30
0.0
 11
0.0000000000000001
 21
-1.127940468532403
 31
0.0
  0
LINE
  5
2DA5
  8
BHII
 10
2.0000000000000022
 20
0.3999999999999986
 30
0.0
 11
0.0000000000000021
 21
-0.3279404685324049
 31
0.0
  0
LINE
  5
2DA6
  8
BHII
 10
2.0
 20
-0.3999999999999999
 30
0.0
 11
2.0
 21
-7.6999999999999984
 31
0.0
  0
LINE
  5
2DA7
  8
BHII
 10
0.0000000000000001
 20
-1.127940468532403
 30
0.0
 11
0.0
 21
-7.6999999999999984
 31
0.0
  0
LINE
  5
2DA8
  8
CENN
 10
-2.999999999999996
 20
0.0
 30
0.0
 11
5.0
 21
0.0
 31
0.0
  0
LINE
  5
2DA9
  8
BHII
 10
2.0
 20
7.6999999999999984
 30
0.0
 11
0.0
 21
7.6999999999999984
 31
0.0
  0
ENDBLK
  5
2DAA
  8
0
  0
BLOCK
  8
0
  2
*U6
 70
     1
 10
0.0
 20
0.0
 30
0.0
  3
*U6
  1
*U
  0
LINE
  5
2DAD
  8
BHII
 10
0.0
 20
7.6999999999999984
 30
0.0
 11
0.0000000000000021
 21
-0.3279404685324049
 31
0.0
  0
LINE
  5
2DAE
  8
BHII
 10
2.0
 20
7.6999999999999984
 30
0.0
 11
2.0000000000000022
 21
0.3999999999999986
 31
0.0
  0
LINE
  5
2DAF
  8
BHII
 10
0.0
 20
-7.6999999999999984
 30
0.0
 11
2.0
 21
-7.6999999999999984
 31
0.0
  0
LINE
  5
2DB0
  8
BHII
 10
2.0
 20
-0.3999999999999999
 30
0.0
 11
0.0000000000000001
 21
-1.127940468532403
 31
0.0
  0
LINE
  5
2DB1
  8
BHII
 10
2.0000000000000022
 20
0.3999999999999986
 30
0.0
 11
0.0000000000000021
 21
-0.3279404685324049
 31
0.0
  0
LINE
  5
2DB2
  8
BHII
 10
2.0
 20
-0.3999999999999999
 30
0.0
 11
2.0
 21
-7.6999999999999984
 31
0.0
  0
LINE
  5
2DB3
  8
BHII
 10
0.0000000000000001
 20
-1.127940468532403
 30
0.0
 11
0.0
 21
-7.6999999999999984
 31
0.0
  0
LINE
  5
2DB4
  8
CENN
 10
-2.999999999999996
 20
0.0
 30
0.0
 11
5.0
 21
0.0
 31
0.0
  0
LINE
  5
2DB5
  8
BHII
 10
2.0
 20
7.6999999999999984
 30
0.0
 11
0.0
 21
7.6999999999999984
 31
0.0
  0
ENDBLK
  5
2DB6
  8
0
  0
BLOCK
  8
0
  2
*U7
 70
     1
 10
0.0
 20
0.0
 30
0.0
  3
*U7
  1
*U
  0
LINE
  5
2DB9
  8
BHII
 10
0.0
 20
7.6999999999999984
 30
0.0
 11
0.0000000000000021
 21
-0.3279404685324049
 31
0.0
  0
LINE
  5
2DBA
  8
BHII
 10
2.0
 20
7.6999999999999984
 30
0.0
 11
2.0000000000000022
 21
0.3999999999999986
 31
0.0
  0
LINE
  5
2DBB
  8
BHII
 10
0.0
 20
-7.6999999999999984
 30
0.0
 11
2.0
 21
-7.6999999999999984
 31
0.0
  0
LINE
  5
2DBC
  8
BHII
 10
2.0
 20
-0.3999999999999999
 30
0.0
 11
0.0000000000000001
 21
-1.127940468532403
 31
0.0
  0
LINE
  5
2DBD
  8
BHII
 10
2.0000000000000022
 20
0.3999999999999986
 30
0.0
 11
0.0000000000000021
 21
-0.3279404685324049
 31
0.0
  0
LINE
  5
2DBE
  8
BHII
 10
2.0
 20
-0.3999999999999999
 30
0.0
 11
2.0
 21
-7.6999999999999984
 31
0.0
  0
LINE
  5
2DBF
  8
BHII
 10
0.0000000000000001
 20
-1.127940468532403
 30
0.0
 11
0.0
 21
-7.6999999999999984
 31
0.0
  0
LINE
  5
2DC0
  8
CENN
 10
-2.999999999999996
 20
0.0
 30
0.0
 11
5.0
 21
0.0
 31
0.0
  0
LINE
  5
2DC1
  8
BHII
 10
2.0
 20
7.6999999999999984
 30
0.0
 11
0.0
 21
7.6999999999999984
 31
0.0
  0
ENDBLK
  5
2DC2
  8
0
  0
BLOCK
  8
0
  2
_NONE
 70
     0
 10
0.0
 20
0.0
 30
0.0
  3
_NONE
  1

  0
ENDBLK
  5
2DC5
  8
0
  0
BLOCK
  8
0
  2
*U9
 70
     1
 10
0.0
 20
0.0
 30
0.0
  3
*U9
  1
*U
  0
LINE
  5
2DC8
  8
BHII
 10
0.0
 20
7.6999999999999984
 30
0.0
 11
0.0000000000000021
 21
-0.3279404685324049
 31
0.0
  0
LINE
  5
2DC9
  8
BHII
 10
2.0
 20
7.6999999999999984
 30
0.0
 11
2.0000000000000022
 21
0.3999999999999986
 31
0.0
  0
LINE
  5
2DCA
  8
BHII
 10
0.0
 20
-7.6999999999999984
 30
0.0
 11
2.0
 21
-7.6999999999999984
 31
0.0
  0
LINE
  5
2DCB
  8
BHII
 10
2.0
 20
-0.3999999999999999
 30
0.0
 11
0.0000000000000001
 21
-1.127940468532403
 31
0.0
  0
LINE
  5
2DCC
  8
BHII
 10
2.0000000000000022
 20
0.3999999999999986
 30
0.0
 11
0.0000000000000021
 21
-0.3279404685324049
 31
0.0
  0
LINE
  5
2DCD
  8
BHII
 10
2.0
 20
-0.3999999999999999
 30
0.0
 11
2.0
 21
-7.6999999999999984
 31
0.0
  0
LINE
  5
2DCE
  8
BHII
 10
0.0000000000000001
 20
-1.127940468532403
 30
0.0
 11
0.0
 21
-7.6999999999999984
 31
0.0
  0
LINE
  5
2DCF
  8
CENN
 10
-2.999999999999996
 20
0.0
 30
0.0
 11
5.0
 21
0.0
 31
0.0
  0
LINE
  5
2DD0
  8
BHII
 10
2.0
 20
7.6999999999999984
 30
0.0
 11
0.0
 21
7.6999999999999984
 31
0.0
  0
ENDBLK
  5
2DD1
  8
0
  0
BLOCK
  8
0
  2
*U10
 70
     1
 10
0.0
 20
0.0
 30
0.0
  3
*U10
  1
*U
  0
LINE
  5
2DD4
  8
BHII
 10
0.0
 20
7.6999999999999984
 30
0.0
 11
0.0000000000000021
 21
-0.3279404685324049
 31
0.0
  0
LINE
  5
2DD5
  8
BHII
 10
2.0
 20
7.6999999999999984
 30
0.0
 11
2.0000000000000022
 21
0.3999999999999986
 31
0.0
  0
LINE
  5
2DD6
  8
BHII
 10
0.0
 20
-7.6999999999999984
 30
0.0
 11
2.0
 21
-7.6999999999999984
 31
0.0
  0
LINE
  5
2DD7
  8
BHII
 10
2.0
 20
-0.3999999999999999
 30
0.0
 11
0.0000000000000001
 21
-1.127940468532403
 31
0.0
  0
LINE
  5
2DD8
  8
BHII
 10
2.0000000000000022
 20
0.3999999999999986
 30
0.0
 11
0.0000000000000021
 21
-0.3279404685324049
 31
0.0
  0
LINE
  5
2DD9
  8
BHII
 10
2.0
 20
-0.3999999999999999
 30
0.0
 11
2.0
 21
-7.6999999999999984
 31
0.0
  0
LINE
  5
2DDA
  8
BHII
 10
0.0000000000000001
 20
-1.127940468532403
 30
0.0
 11
0.0
 21
-7.6999999999999984
 31
0.0
  0
LINE
  5
2DDB
  8
CENN
 10
-2.999999999999996
 20
0.0
 30
0.0
 11
5.0
 21
0.0
 31
0.0
  0
LINE
  5
2DDC
  8
BHII
 10
2.0
 20
7.6999999999999984
 30
0.0
 11
0.0
 21
7.6999999999999984
 31
0.0
  0
ENDBLK
  5
2DDD
  8
0
  0
BLOCK
  8
0
  2
*U11
 70
     1
 10
0.0
 20
0.0
 30
0.0
  3
*U11
  1
*U
  0
LINE
  5
2DE0
  8
BHII
 10
0.0
 20
7.6999999999999984
 30
0.0
 11
0.0000000000000021
 21
-0.3279404685324049
 31
0.0
  0
LINE
  5
2DE1
  8
BHII
 10
2.0
 20
7.6999999999999984
 30
0.0
 11
2.0000000000000022
 21
0.3999999999999986
 31
0.0
  0
LINE
  5
2DE2
  8
BHII
 10
0.0
 20
-7.6999999999999984
 30
0.0
 11
2.0
 21
-7.6999999999999984
 31
0.0
  0
LINE
  5
2DE3
  8
BHII
 10
2.0
 20
-0.3999999999999999
 30
0.0
 11
0.0000000000000001
 21
-1.127940468532403
 31
0.0
  0
LINE
  5
2DE4
  8
BHII
 10
2.0000000000000022
 20
0.3999999999999986
 30
0.0
 11
0.0000000000000021
 21
-0.3279404685324049
 31
0.0
  0
LINE
  5
2DE5
  8
BHII
 10
2.0
 20
-0.3999999999999999
 30
0.0
 11
2.0
 21
-7.6999999999999984
 31
0.0
  0
LINE
  5
2DE6
  8
BHII
 10
0.0000000000000001
 20
-1.127940468532403
 30
0.0
 11
0.0
 21
-7.6999999999999984
 31
0.0
  0
LINE
  5
2DE7
  8
CENN
 10
-2.999999999999996
 20
0.0
 30
0.0
 11
5.0
 21
0.0
 31
0.0
  0
LINE
  5
2DE8
  8
BHII
 10
2.0
 20
7.6999999999999984
 30
0.0
 11
0.0
 21
7.6999999999999984
 31
0.0
  0
ENDBLK
  5
2DE9
  8
0
  0
BLOCK
  8
0
  2
*U12
 70
     1
 10
0.0
 20
0.0
 30
0.0
  3
*U12
  1
*U
  0
LINE
  5
2DEC
  8
BHII
 10
0.0
 20
7.6999999999999984
 30
0.0
 11
0.0000000000000021
 21
-0.3279404685324049
 31
0.0
  0
LINE
  5
2DED
  8
BHII
 10
2.0
 20
7.6999999999999984
 30
0.0
 11
2.0000000000000022
 21
0.3999999999999986
 31
0.0
  0
LINE
  5
2DEE
  8
BHII
 10
0.0
 20
-7.6999999999999984
 30
0.0
 11
2.0
 21
-7.6999999999999984
 31
0.0
  0
LINE
  5
2DEF
  8
BHII
 10
2.0
 20
-0.3999999999999999
 30
0.0
 11
0.0000000000000001
 21
-1.127940468532403
 31
0.0
  0
LINE
  5
2DF0
  8
BHII
 10
2.0000000000000022
 20
0.3999999999999986
 30
0.0
 11
0.0000000000000021
 21
-0.3279404685324049
 31
0.0
  0
LINE
  5
2DF1
  8
BHII
 10
2.0
 20
-0.3999999999999999
 30
0.0
 11
2.0
 21
-7.6999999999999984
 31
0.0
  0
LINE
  5
2DF2
  8
BHII
 10
0.0000000000000001
 20
-1.127940468532403
 30
0.0
 11
0.0
 21
-7.6999999999999984
 31
0.0
  0
LINE
  5
2DF3
  8
CENN
 10
-2.999999999999996
 20
0.0
 30
0.0
 11
5.0
 21
0.0
 31
0.0
  0
LINE
  5
2DF4
  8
BHII
 10
2.0
 20
7.6999999999999984
 30
0.0
 11
0.0
 21
7.6999999999999984
 31
0.0
  0
ENDBLK
  5
2DF5
  8
0
  0
BLOCK
  8
0
  2
*U13
 70
     1
 10
0.0
 20
0.0
 30
0.0
  3
*U13
  1

  0
TEXT
  5
2DF8
  8
AM_0
 62
     4
 10
322.29610383842191
 20
329.28524904960341
 30
0.0
 40
12.5
  1
\U+2205
 50
90.0
 41
0.8299999999999999
  0
TEXT
  5
2DF9
  8
AM_0
 62
     4
 10
322.29610383842191
 20
339.66024904960341
 30
0.0
 40
12.5
  1
200
 50
90.0
 41
0.8299999999999999
  0
ENDBLK
  5
2DFA
  8
0
  0
BLOCK
  8
0
  2
*U14
 70
     1
 10
0.0
 20
0.0
 30
0.0
  3
*U14
  1

  0
TEXT
  5
2DFD
  8
AM_0
 62
     4
 10
350.86976578716752
 20
321.50399904960341
 30
0.0
 40
12.5
  1
\U+2205
 50
90.0
 41
0.8299999999999999
  0
TEXT
  5
2DFE
  8
AM_0
 62
     4
 10
350.86976578716752
 20
331.87899904960341
 30
0.0
 40
12.5
  1
130
 50
90.0
 41
0.8299999999999999
  0
TEXT
  5
2DFF
  8
AM_0
 62
     4
 10
350.86976578716752
 20
357.81649904960329
 30
0.0
 40
10.0
  1
G7
 50
90.0
 41
0.8299999999999999
  0
ENDBLK
  5
2E00
  8
0
  0
BLOCK
  8
0
  2
*U15
 70
     1
 10
0.0
 20
0.0
 30
0.0
  3
*U15
  1

  0
TEXT
  5
2E03
  8
AM_0
 62
     4
 10
902.13610380308182
 20
417.84775154960352
 30
0.0
 40
12.5
  1
\U+2205
 50
90.0
 41
0.8299999999999999
  0
TEXT
  5
2E04
  8
AM_0
 62
     4
 10
902.13610380308182
 20
428.22275154960329
 30
0.0
 40
12.5
  1
55
 50
90.0
 41
0.8299999999999999
  0
TEXT
  5
2E05
  8
AM_0
 62
     4
 10
902.13610380308182
 20
448.97275154960352
 30
0.0
 40
10.0
  1
h6
 50
90.0
 41
0.8299999999999999
  0
ENDBLK
  5
2E06
  8
0
  0
BLOCK
  8
0
  2
*U16
 70
     1
 10
0.0
 20
0.0
 30
0.0
  3
*U16
  1

  0
TEXT
  5
2E09
  8
AM_0
 62
     4
 10
839.27939517291713
 20
318.00176660046992
 30
0.0
 40
12.5
  1
\U+2205
 50
90.0
 41
0.8299999999999999
  0
TEXT
  5
2E0A
  8
AM_0
 62
     4
 10
839.27939517291713
 20
328.37676660046992
 30
0.0
 40
12.5
  1
280
 50
90.0
 41
0.8299999999999999
  0
TEXT
  5
2E0B
  8
AM_0
 62
     4
 10
839.27939517291713
 20
357.77259993380312
 30
0.0
 40
10.0
  1
h7
 50
90.0
 41
0.8299999999999999
  0
ENDBLK
  5
2E0C
  8
0
  0
BLOCK
  8
0
  2
*U17
 70
     1
 10
0.0
 20
0.0
 30
0.0
  3
*U17
  1

  0
TEXT
  5
2E0F
  8
AM_0
 62
     4
 10
1098.945354722784
 20
667.63932184110445
 30
0.0
 40
12.5
  1
o
 41
0.8299999999999999
  0
TEXT
  5
2E10
  8
AM_0
 62
     4
 10
1111.2965451989739
 20
667.63932184110445
 30
0.0
 40
12.5
  1
 330
 41
0.8299999999999999
  0
ENDBLK
  5
2E11
  8
0
  0
BLOCK
  8
0
  2
*U18
 70
     1
 10
0.0
 20
0.0
 30
0.0
  3
*U18
  1

  0
TEXT
  5
2E14
  8
AM_0
 62
     4
 10
229.22676530124841
 20
303.03815911325017
 30
0.0
 40
12.5
  1
\U+2205
 50
90.0
 41
0.8299999999999999
  0
TEXT
  5
2E15
  8
AM_0
 62
     4
 10
229.22676530124841
 20
313.41315911325012
 30
0.0
 40
12.5
  1
130
 50
90.0
 41
0.8299999999999999
  0
TEXT
  5
2E16
  8
AM_0
 62
     4
 10
229.22676530124841
 20
339.35065911325012
 30
0.0
 40
10.0
  1
G7
 50
90.0
 41
0.8299999999999999
  0
ENDBLK
  5
2E17
  8
0
  0
BLOCK
  8
0
  2
*U19
 70
     1
 10
0.0
 20
0.0
 30
0.0
  3
*U19
  1

  0
TEXT
  5
2E1A
  8
AM_0
 62
     4
 10
200.6531033525028
 20
310.81940911325017
 30
0.0
 40
12.5
  1
\U+2205
 50
90.0
 41
0.8299999999999999
  0
TEXT
  5
2E1B
  8
AM_0
 62
     4
 10
200.6531033525028
 20
321.19440911325012
 30
0.0
 40
12.5
  1
200
 50
90.0
 41
0.8299999999999999
  0
ENDBLK
  5
2E1C
  8
0
  0
BLOCK
  8
0
  2
*U20
 70
     1
 10
0.0
 20
0.0
 30
0.0
  3
*U20
  1

  0
TEXT
  5
2E1F
  8
AM_0
 62
     4
 10
717.63639468699785
 20
299.53592666411657
 30
0.0
 40
12.5
  1
\U+2205
 50
90.0
 41
0.8299999999999999
  0
TEXT
  5
2E20
  8
AM_0
 62
     4
 10
717.63639468699785
 20
309.91092666411657
 30
0.0
 40
12.5
  1
280
 50
90.0
 41
0.8299999999999999
  0
TEXT
  5
2E21
  8
AM_0
 62
     4
 10
717.63639468699785
 20
339.30675999745
 30
0.0
 40
10.0
  1
h7
 50
90.0
 41
0.8299999999999999
  0
ENDBLK
  5
2E22
  8
0
  0
BLOCK
  8
0
  2
*U21
 70
     1
 10
0.0
 20
0.0
 30
0.0
  3
*U21
  1

  0
TEXT
  5
2E25
  8
AM_0
 62
     4
 10
780.4931033171631
 20
399.38191161325028
 30
0.0
 40
12.5
  1
\U+2205
 50
90.0
 41
0.8299999999999999
  0
TEXT
  5
2E26
  8
AM_0
 62
     4
 10
780.4931033171631
 20
409.75691161325022
 30
0.0
 40
12.5
  1
55
 50
90.0
 41
0.8299999999999999
  0
TEXT
  5
2E27
  8
AM_0
 62
     4
 10
780.4931033171631
 20
430.50691161325028
 30
0.0
 40
10.0
  1
h6
 50
90.0
 41
0.8299999999999999
  0
ENDBLK
  5
2E28
  8
0
  0
BLOCK
  8
0
  2
*U22
 70
     1
 10
0.0
 20
0.0
 30
0.0
  3
*U22
  1

  0
TEXT
  5
2E2B
  8
AM_0
 62
     4
 10
977.30235423686565
 20
649.17348190475116
 30
0.0
 40
12.5
  1
o
 41
0.8299999999999999
  0
TEXT
  5
2E2C
  8
AM_0
 62
     4
 10
989.65354471305579
 20
649.17348190475116
 30
0.0
 40
12.5
  1
 330
 41
0.8299999999999999
  0
ENDBLK
  5
2E2D
  8
0
  0
BLOCK
  8
0
  2
_ACMFILLEDHALF
 70
     0
 10
0.0
 20
0.0
 30
0.0
  3
_ACMFILLEDHALF
  1

  0
TRACE
  5
319C
  8
AM_0
 62
     0
 10
-0.8
 20
0.0
 30
0.0
 11
-1.0
 21
0.166666666
 31
0.0
 12
0.0
 22
0.0
 32
0.0
 13
0.0
 23
0.0
 33
0.0
  0
LINE
  5
319D
  8
AM_0
 62
     0
 10
-1.0
 20
0.0
 30
0.0
 11
-0.8
 21
0.0
 31
0.0
  0
ENDBLK
  5
319B
  8
0
  0
ENDSEC
  0
SECTION
  2
ENTITIES
  0
INSERT
  5
2E2E
  8
GEV_FROZEN
  2
*U4
 10
908.63419872493876
 20
575.41071207004165
 30
0.0
 41
0.1
 42
0.1
 43
0.1
 50
179.9999999999998
1001
GENBH
1002
{
1000
-NOBRK
1002
}
  0
INSERT
  5
2E2F
  8
GEV_FROZEN
  2
*U5
 10
900.68725648575435
 20
561.57261424397791
 30
0.0
 41
0.1
 42
0.1
 43
0.1
 50
179.9999999999998
1001
GENBH
1002
{
1000
-NOBRK
1002
}
  0
INSERT
  5
2E30
  8
GEV_FROZEN
  2
*U6
 10
908.63419872493876
 20
575.41071207004165
 30
0.0
 41
0.1
 42
0.1
 43
0.1
 50
179.9999999999998
1001
GENBH
1002
{
1000
-NOBRK
1002
}
  0
INSERT
  5
2E31
  8
GEV_FROZEN
  2
*U7
 10
900.68725648575435
 20
561.57261424397791
 30
0.0
 41
0.1
 42
0.1
 43
0.1
 50
179.9999999999998
1001
GENBH
1002
{
1000
-NOBRK
1002
}
  0
INSERT
  5
2E32
  8
GEV_FROZEN
  2
*U9
 10
908.63419872493876
 20
575.41071207004165
 30
0.0
 41
0.1
 42
0.1
 43
0.1
 50
179.9999999999998
1001
GENBH
1002
{
1000
-NOBRK
1002
}
  0
INSERT
  5
2E33
  8
GEV_FROZEN
  2
*U10
 10
900.68725648575435
 20
561.57261424397791
 30
0.0
 41
0.1
 42
0.1
 43
0.1
 50
179.9999999999998
1001
GENBH
1002
{
1000
-NOBRK
1002
}
  0
INSERT
  5
2E34
  8
GEV_FROZEN
  2
*U11
 10
908.63419872493876
 20
575.41071207004165
 30
0.0
 41
0.1
 42
0.1
 43
0.1
 50
179.9999999999998
1001
GENBH
1002
{
1000
-NOBRK
1002
}
  0
INSERT
  5
2E35
  8
GEV_FROZEN
  2
*U12
 10
900.68725648575435
 20
561.57261424397791
 30
0.0
 41
0.1
 42
0.1
 43
0.1
 50
179.9999999999998
1001
GENBH
1002
{
1000
-NOBRK
1002
}
  0
LINE
  5
2E37
  8
AM_0
 10
678.22342853065493
 20
918.6226450281024
 30
0.0
 11
740.22336853065474
 21
918.6226450281024
 31
0.0
  0
LINE
  5
2E38
  8
AM_0
 10
678.22342853065493
 20
902.62258502810221
 30
0.0
 11
740.22336853065474
 21
902.62258502810221
 31
0.0
  0
LINE
  5
2E39
  8
AM_0
 10
658.22336853065485
 20
883.1226450281024
 30
0.0
 11
740.22336853065474
 21
883.1226450281024
 31
0.0
  0
LINE
  5
2E3A
  8
AM_0
 10
658.22336853065485
 20
938.1226450281024
 30
0.0
 11
740.22336853065474
 21
938.1226450281024
 31
0.0
  0
LINE
  5
2E3B
  8
ﾁｭｳｼﾝｾﾝ
 10
249.22801866156141
 20
910.62264502810262
 30
0.0
 11
750.84061853065521
 21
910.6226450281024
 31
0.0
  0
POLYLINE
  5
2E3C
  8
AM_0
 66
     1
 10
0.0
 20
0.0
 30
0.0
  0
VERTEX
  5
2E3D
  8
AM_0
 10
616.12625853065504
 20
997.01089502810225
 30
0.0
 42
0.01720808
  0
VERTEX
  5
2E3E
  8
AM_0
 10
611.7099885306551
 20
939.63570502810228
 30
0.0
 42
0.0088311605
  0
VERTEX
  5
2E3F
  8
AM_0
 10
610.99313853065485
 20
910.6226450281024
 30
0.0
 42
0.025919753
  0
VERTEX
  5
2E40
  8
AM_0
 10
614.86196853065519
 20
824.65895502810224
 30
0.0
  0
SEQEND
  5
2E41
  8
AM_0
  0
POLYLINE
  5
2E42
  8
AM_0
 66
     1
 10
0.0
 20
0.0
 30
0.0
  0
VERTEX
  5
2E43
  8
AM_0
 10
395.2860485306548
 20
835.06008502810221
 30
0.0
 42
-0.10362759
  0
VERTEX
  5
2E44
  8
AM_0
 10
355.87768853065501
 20
881.28577502810242
 30
0.0
 42
-0.26090923
  0
VERTEX
  5
2E45
  8
AM_0
 10
355.87768853065501
 20
939.95952502810235
 30
0.0
 42
-0.10362793
  0
VERTEX
  5
2E46
  8
AM_0
 10
395.28598853065489
 20
986.1851450281024
 30
0.0
  0
SEQEND
  5
2E47
  8
AM_0
  0
ARC
  5
2E48
  8
AM_0
 10
487.22342853065493
 20
910.6226450281024
 30
0.0
 40
12.5
 50
203.5781799999973
 51
336.42183000000068
  0
LINE
  5
2E49
  8
AM_0
 10
658.22336853065485
 20
940.62264502810228
 30
0.0
 11
658.22336853065485
 21
880.62264502810228
 31
0.0
  0
LINE
  5
2E4A
  8
AM_0
 10
628.22342853065493
 20
1070.025905028102
 30
0.0
 11
628.22342853065493
 21
751.21938502810224
 31
0.0
  0
LINE
  5
2E4B
  8
AM_0
 10
650.22342853065493
 20
1075.622645028101
 30
0.0
 11
650.22342853065493
 21
745.62258502810221
 31
0.0
  0
LINE
  5
2E4C
  8
AM_0
 10
655.22342853065493
 20
1050.622645028101
 30
0.0
 11
655.22342853065493
 21
770.6226450281024
 31
0.0
  0
LINE
  5
2E4D
  8
AM_0
 10
637.223488530655
 20
1034.971765028102
 30
0.0
 11
637.223488530655
 21
786.27352502810231
 31
0.0
  0
LINE
  5
2E4E
  8
AM_0
 10
393.22342853065493
 20
892.6226450281024
 30
0.0
 11
393.22342853065493
 21
928.6226450281024
 31
0.0
  0
LINE
  5
2E4F
  8
AM_0
 10
361.22342853065493
 20
897.62264502810228
 30
0.0
 11
361.22342853065493
 21
923.62264502810228
 31
0.0
  0
LINE
  5
2E50
  8
AM_0
 10
348.22342853065493
 20
837.1226450281024
 30
0.0
 11
348.22342853065493
 21
984.12264502810228
 31
0.0
  0
LINE
  5
2E51
  8
AM_0
 10
336.22342853065493
 20
837.1226450281024
 30
0.0
 11
336.22342853065493
 21
984.12264502810228
 31
0.0
  0
LINE
  5
2E52
  8
AM_0
 10
411.22342853065481
 20
813.62264502810228
 30
0.0
 11
411.22342853065481
 21
1007.6226450281021
 31
0.0
  0
LINE
  5
2E53
  8
AM_0
 10
426.223488530655
 20
1008.1226450281021
 30
0.0
 11
426.223488530655
 21
813.1226450281024
 31
0.0
  0
LINE
  5
2E54
  8
AM_0
 10
475.22336853065502
 20
783.49874502810223
 30
0.0
 11
475.22336853065502
 21
900.0870550281021
 31
0.0
  0
LINE
  5
2E55
  8
AM_0
 10
505.22342853065493
 20
905.62264502810228
 30
0.0
 11
505.22342853065493
 21
777.6226450281024
 31
0.0
  0
LINE
  5
2E56
  8
AM_0
 10
449.22336853065502
 20
804.16695502810239
 30
0.0
 11
449.22336853065502
 21
1017.0783350281019
 31
0.0
  0
LINE
  5
2E57
  8
AM_0
 10
505.22342853065493
 20
777.6226450281024
 30
0.0
 11
480.04892853065502
 21
778.50179502810238
 31
0.0
  0
ARC
  5
2E58
  8
AM_0
 10
413.22342853065493
 20
813.62264502810228
 30
0.0
 40
2.0
 50
179.9999899999988
 51
270.0
  0
LINE
  5
2E59
  8
AM_0
 10
411.22342853065481
 20
854.3468250281021
 30
0.0
 11
426.22342853065493
 21
854.3468250281021
 31
0.0
  0
LINE
  5
2E5A
  8
AM_0
 10
411.22342853065481
 20
838.1164150281021
 30
0.0
 11
426.22342853065493
 21
838.1164150281021
 31
0.0
  0
LINE
  5
2E5B
  8
AM_0
 10
411.22342853065481
 20
827.92745502810226
 30
0.0
 11
426.22342853065493
 21
827.92745502810226
 31
0.0
  0
LINE
  5
2E5C
  8
AM_0
 10
395.28598853065489
 20
835.0601450281024
 30
0.0
 11
409.75894853065478
 21
820.58711502810229
 31
0.0
  0
ARC
  5
2E5D
  8
AM_0
 10
406.22342853065493
 20
817.05159502810227
 30
0.0
 40
5.0
 50
0.0
 51
45.000001000003799
  0
LINE
  5
2E5E
  8
AM_0
 10
393.31766853065523
 20
835.12880502810242
 30
0.0
 11
336.22342853065493
 21
837.12258502810209
 31
0.0
  0
LINE
  5
2E5F
  8
AM_0
 10
366.22342853065493
 20
892.6226450281024
 30
0.0
 11
388.22342853065493
 21
892.6226450281024
 31
0.0
  0
LINE
  5
2E60
  8
AM_0
 10
336.22342853065493
 20
849.04268502810214
 30
0.0
 11
348.22342853065493
 21
849.04268502810214
 31
0.0
  0
LINE
  5
2E61
  8
AM_0
 10
336.22342853065493
 20
871.14791502810215
 30
0.0
 11
348.22342853065493
 21
871.14791502810215
 31
0.0
  0
ARC
  5
2E62
  8
AM_0
 10
366.22342853065493
 20
897.62264502810228
 30
0.0
 40
5.0
 50
180.00001000000091
 51
270.0
  0
ARC
  5
2E63
  8
AM_0
 10
393.14316853065492
 20
830.13191502810184
 30
0.0
 40
5.0
 50
44.999998000001611
 51
88.000000000002785
  0
ARC
  5
2E64
  8
AM_0
 10
388.22342853065493
 20
887.62264502810228
 30
0.0
 40
5.0
 50
0.0
 51
90.00000299999769
  0
LINE
  5
2E65
  8
AM_0
 10
470.39786853065488
 20
798.59908502810231
 30
0.0
 11
454.048868530655
 21
799.17000502810231
 31
0.0
  0
LINE
  5
2E66
  8
AM_0
 10
426.22342853065493
 20
813.12258502810232
 30
0.0
 11
444.39792853065512
 21
812.48793502810213
 31
0.0
  0
LINE
  5
2E67
  8
AM_0
 10
413.22342853065493
 20
811.6226450281024
 30
0.0
 11
424.22336853065502
 21
811.6226450281024
 31
0.0
  0
LINE
  5
2E68
  8
AM_0
 10
424.22342853065493
 20
811.6226450281024
 30
0.0
 11
426.22342853065493
 21
813.62264502810228
 31
0.0
  0
ARC
  5
2E69
  8
AM_0
 10
454.22336853065502
 20
804.16695502810239
 30
0.0
 40
5.0
 50
180.00001000000091
 51
268.00000000000261
  0
ARC
  5
2E6A
  8
AM_0
 10
444.22342853065493
 20
807.49098502810216
 30
0.0
 40
5.0
 50
0.0
 51
88.000000000002785
  0
ARC
  5
2E6B
  8
AM_0
 10
480.22336853065508
 20
783.49874502810223
 30
0.0
 40
5.0
 50
180.00001000000091
 51
268.00000000000261
  0
ARC
  5
2E6C
  8
AM_0
 10
470.22336853065502
 20
793.60213502810223
 30
0.0
 40
5.0
 50
0.0
 51
88.000000000002785
  0
LINE
  5
2E6D
  8
AM_0
 10
428.22336853065502
 20
827.42745502810203
 30
0.0
 11
449.22336853065502
 21
827.42745502810203
 31
0.0
  0
LINE
  5
2E6E
  8
AM_0
 10
428.22336853065502
 20
853.84682502810244
 30
0.0
 11
449.22336853065502
 21
853.84682502810244
 31
0.0
  0
LINE
  5
2E6F
  8
AM_0
 10
428.22336853065502
 20
837.61641502810244
 30
0.0
 11
449.22336853065502
 21
837.61641502810244
 31
0.0
  0
LINE
  5
2E70
  8
AM_0
 10
428.22336853065502
 20
853.84682502810244
 30
0.0
 11
428.22336853065502
 21
827.42745502810203
 31
0.0
  0
ARC
  5
2E71
  8
AM_0
 10
633.22342853065493
 20
751.21938502810224
 30
0.0
 40
5.0
 50
179.9999899999988
 51
268.00000999999861
  0
LINE
  5
2E72
  8
AM_0
 10
633.04898853065504
 20
746.22237502810219
 30
0.0
 11
650.223488530655
 21
745.6226450281024
 31
0.0
  0
LINE
  5
2E73
  8
AM_0
 10
505.22342853065493
 20
777.62258502810221
 30
0.0
 11
621.38016853065517
 21
773.56630502810231
 31
0.0
  0
LINE
  5
2E74
  8
AM_0
 10
587.57297853065506
 20
813.25856502810223
 30
0.0
 11
625.81222853065503
 21
790.11617502810225
 31
0.0
  0
LINE
  5
2E75
  8
AM_0
 10
590.16183853065502
 20
824.74910502810224
 30
0.0
 11
613.91665853065513
 21
824.74910502810224
 31
0.0
  0
LINE
  5
2E76
  8
AM_0
 10
590.152568530655
 20
822.97219502810231
 30
0.0
 11
625.72165853065519
 21
801.4457650281023
 31
0.0
  0
ARC
  5
2E77
  8
AM_0
 10
590.16183853065502
 20
819.74910502810235
 30
0.0
 40
5.0
 50
90.00000299999769
 51
180.00001000000091
  0
ARC
  5
2E78
  8
AM_0
 10
590.16183853065502
 20
817.53621502810222
 30
0.0
 40
5.0
 50
179.9999899999988
 51
238.81764999999689
  0
LINE
  5
2E79
  8
AM_0
 10
585.16183853065502
 20
817.53621502810222
 30
0.0
 11
585.16183853065502
 21
819.74910502810235
 31
0.0
  0
ARC
  5
2E7A
  8
AM_0
 10
613.91665853065513
 20
819.74910502810235
 30
0.0
 40
5.0
 50
53.744453000003212
 51
90.00000299999769
  0
POLYLINE
  5
2E7B
  8
AM_0
 66
     1
 10
0.0
 20
0.0
 30
0.0
  0
VERTEX
  5
2E7C
  8
AM_0
 10
618.30696853065479
 20
794.6583450281023
 30
0.0
 42
0.0020909347
  0
VERTEX
  5
2E7D
  8
AM_0
 10
619.27281853065494
 20
787.61783502810226
 30
0.0
 42
0.0020881749
  0
VERTEX
  5
2E7E
  8
AM_0
 10
620.29739853065485
 20
780.5862150281024
 30
0.0
 42
0.0020849591
  0
VERTEX
  5
2E7F
  8
AM_0
 10
621.38016853065517
 20
773.56636502810215
 30
0.0
  0
SEQEND
  5
2E80
  8
AM_0
  0
ARC
  5
2E81
  8
AM_0
 10
623.22342853065493
 20
785.83852502810225
 30
0.0
 40
5.0
 50
0.0
 51
58.817640999998339
  0
LINE
  5
2E82
  8
AM_0
 10
624.74118853065511
 20
772.10494502810229
 30
0.0
 11
628.223488530655
 21
768.6226450281024
 31
0.0
  0
ARC
  5
2E83
  8
AM_0
 10
629.22342853065493
 20
786.27352502810231
 30
0.0
 40
8.0
 50
270.0
 51
0.0
  0
ARC
  5
2E84
  8
AM_0
 10
621.20566853065475
 20
768.56941502810207
 30
0.0
 40
5.0
 50
45.000001000003799
 51
88.000000000002785
  0
LINE
  5
2E85
  8
AM_0
 10
616.87356853065501
 20
823.78096502810183
 30
0.0
 11
628.22342853065493
 21
815.4572350281021
 31
0.0
  0
LINE
  5
2E86
  8
AM_0
 10
650.22342853065493
 20
770.6226450281024
 30
0.0
 11
655.22342853065493
 21
770.6226450281024
 31
0.0
  0
ARC
  5
2E87
  8
AM_0
 10
629.22342853065493
 20
844.28597502810226
 30
0.0
 40
8.0
 50
270.0
 51
0.0
  0
LINE
  5
2E88
  8
AM_0
 10
655.22342853065493
 20
880.62264502810228
 30
0.0
 11
658.22336853065485
 21
880.62264502810228
 31
0.0
  0
ARC
  5
2E89
  8
AM_0
 10
507.22342853065481
 20
910.6226450281024
 30
0.0
 40
5.0
 50
270.0
 51
90.00000299999769
  0
LINE
  5
2E8A
  8
AM_0
 10
467.22342853065493
 20
915.62264502810228
 30
0.0
 11
507.22342853065481
 21
915.62264502810228
 31
0.0
  0
LINE
  5
2E8B
  8
AM_0
 10
467.22342853065493
 20
905.62264502810228
 30
0.0
 11
507.22342853065481
 21
905.62264502810228
 31
0.0
  0
LINE
  5
2E8C
  8
AM_0
 10
505.22336853065508
 20
1043.622645028101
 30
0.0
 11
480.04886853065477
 21
1042.743495028102
 31
0.0
  0
ARC
  5
2E8D
  8
AM_0
 10
414.22336853065508
 20
1007.6226450281021
 30
0.0
 40
3.0
 50
90.00000299999769
 51
180.00001000000091
  0
LINE
  5
2E8E
  8
AM_0
 10
411.22342853065481
 20
994.31777502810212
 30
0.0
 11
426.22342853065493
 21
994.31777502810212
 31
0.0
  0
LINE
  5
2E8F
  8
AM_0
 10
411.22342853065481
 20
984.12880502810219
 30
0.0
 11
426.22342853065493
 21
984.12880502810219
 31
0.0
  0
LINE
  5
2E90
  8
AM_0
 10
411.22342853065481
 20
967.89839502810219
 30
0.0
 11
426.22342853065493
 21
967.89839502810219
 31
0.0
  0
LINE
  5
2E91
  8
AM_0
 10
366.22342853065493
 20
928.6226450281024
 30
0.0
 11
388.22342853065493
 21
928.6226450281024
 31
0.0
  0
ARC
  5
2E92
  8
AM_0
 10
366.22342853065493
 20
923.62264502810228
 30
0.0
 40
5.0
 50
90.00000299999769
 51
180.00001000000091
  0
LINE
  5
2E93
  8
AM_0
 10
336.22342853065493
 20
972.2026550281023
 30
0.0
 11
348.22342853065493
 21
972.2026550281023
 31
0.0
  0
LINE
  5
2E94
  8
AM_0
 10
336.22342853065493
 20
950.09731502810246
 30
0.0
 11
348.22342853065493
 21
950.09731502810246
 31
0.0
  0
ARC
  5
2E95
  8
AM_0
 10
388.22342853065493
 20
933.6226450281024
 30
0.0
 40
5.0
 50
270.0
 51
0.0
  0
LINE
  5
2E96
  8
AM_0
 10
393.31766853065523
 20
986.11641502810255
 30
0.0
 11
336.22342853065493
 21
984.12264502810228
 31
0.0
  0
LINE
  5
2E97
  8
AM_0
 10
395.28592853065493
 20
986.1851450281024
 30
0.0
 11
409.75894853065478
 21
1000.6581650281011
 31
0.0
  0
ARC
  5
2E98
  8
AM_0
 10
393.14316853065492
 20
991.11336502810241
 30
0.0
 40
5.0
 50
271.9999999999971
 51
315.0
  0
ARC
  5
2E99
  8
AM_0
 10
406.22342853065493
 20
1004.193685028102
 30
0.0
 40
5.0
 50
315.0
 51
0.0
  0
LINE
  5
2E9A
  8
AM_0
 10
428.22336853065502
 20
993.81777502810223
 30
0.0
 11
428.22336853065502
 21
967.39839502810253
 31
0.0
  0
LINE
  5
2E9B
  8
AM_0
 10
475.22336853065502
 20
921.15816502810219
 30
0.0
 11
475.22336853065502
 21
1037.746545028102
 31
0.0
  0
LINE
  5
2E9C
  8
AM_0
 10
428.22336853065502
 20
967.39839502810253
 30
0.0
 11
449.22336853065502
 21
967.39839502810253
 31
0.0
  0
ARC
  5
2E9D
  8
AM_0
 10
487.22342853065493
 20
910.6226450281024
 30
0.0
 40
12.5
 50
23.578179999997531
 51
156.42182000000241
  0
ARC
  5
2E9E
  8
AM_0
 10
487.22342853065493
 20
910.6226450281024
 30
0.0
 40
15.0
 50
148.21198000000049
 51
160.52876999999901
  0
ARC
  5
2E9F
  8
AM_0
 10
467.22342853065493
 20
910.6226450281024
 30
0.0
 40
5.0
 50
90.00000299999769
 51
270.0
  0
ARC
  5
2EA0
  8
AM_0
 10
470.22336853065502
 20
900.0870550281021
 30
0.0
 40
5.0
 50
0.0
 51
31.78801800000311
  0
ARC
  5
2EA1
  8
AM_0
 10
487.22342853065493
 20
910.6226450281024
 30
0.0
 40
15.0
 50
199.4712300000005
 51
211.78801999999919
  0
ARC
  5
2EA2
  8
AM_0
 10
470.22336853065502
 20
921.15816502810219
 30
0.0
 40
5.0
 50
328.21198000000078
 51
0.0
  0
LINE
  5
2EA3
  8
AM_0
 10
470.39786853065488
 20
1022.646145028102
 30
0.0
 11
454.048868530655
 21
1022.075215028102
 31
0.0
  0
ARC
  5
2EA4
  8
AM_0
 10
444.22342853065493
 20
1013.754235028102
 30
0.0
 40
5.0
 50
271.9999999999971
 51
0.0
  0
LINE
  5
2EA5
  8
AM_0
 10
424.22342853065493
 20
1010.622645028101
 30
0.0
 11
426.22342853065493
 21
1008.622645028101
 31
0.0
  0
LINE
  5
2EA6
  8
AM_0
 10
426.223488530655
 20
1008.1226450281021
 30
0.0
 11
444.39798853065508
 21
1008.757285028101
 31
0.0
  0
LINE
  5
2EA7
  8
AM_0
 10
428.22336853065502
 20
983.62880502810253
 30
0.0
 11
449.22336853065502
 21
983.62880502810253
 31
0.0
  0
LINE
  5
2EA8
  8
AM_0
 10
428.22336853065502
 20
993.81777502810223
 30
0.0
 11
449.22336853065502
 21
993.81777502810223
 31
0.0
  0
LINE
  5
2EA9
  8
AM_0
 10
414.22336853065508
 20
1010.622585028101
 30
0.0
 11
424.22336853065502
 21
1010.622585028101
 31
0.0
  0
ARC
  5
2EAA
  8
AM_0
 10
454.22336853065502
 20
1017.0783350281019
 30
0.0
 40
5.0
 50
91.999998000000545
 51
180.00001000000091
  0
ARC
  5
2EAB
  8
AM_0
 10
470.22336853065502
 20
1027.643145028102
 30
0.0
 40
5.0
 50
271.9999999999971
 51
0.0
  0
ARC
  5
2EAC
  8
AM_0
 10
480.22336853065508
 20
1037.746545028102
 30
0.0
 40
5.0
 50
91.999998000000545
 51
180.00001000000091
  0
POLYLINE
  5
2EAD
  8
AM_0
 66
     1
 10
0.0
 20
0.0
 30
0.0
  0
VERTEX
  5
2EAE
  8
AM_0
 10
623.34854853065485
 20
1047.7476450281019
 30
0.0
  0
VERTEX
  5
2EAF
  8
AM_0
 10
620.11828853065504
 20
1027.6831350281011
 30
0.0
 42
-1.0
  0
SEQEND
  5
2EB0
  8
AM_0
  0
LINE
  5
2EB1
  8
AM_0
 10
505.22342853065493
 20
1043.622645028101
 30
0.0
 11
621.38016853065517
 21
1047.678915028102
 31
0.0
  0
LINE
  5
2EB2
  8
AM_0
 10
590.152568530655
 20
998.2730350281023
 30
0.0
 11
625.72165853065519
 21
1019.7994650281011
 31
0.0
  0
LINE
  5
2EB3
  8
AM_0
 10
590.16183853065502
 20
996.49617502810213
 30
0.0
 11
613.91665853065513
 21
996.49617502810213
 31
0.0
  0
LINE
  5
2EB4
  8
AM_0
 10
587.57297853065506
 20
1007.9866550281019
 30
0.0
 11
625.81222853065503
 21
1031.129115028102
 31
0.0
  0
LINE
  5
2EB5
  8
AM_0
 10
505.22342853065493
 20
1043.622645028101
 30
0.0
 11
505.22342853065493
 21
915.62264502810228
 31
0.0
  0
ARC
  5
2EB6
  8
AM_0
 10
590.16183853065502
 20
1003.709005028101
 30
0.0
 40
5.0
 50
121.18235999999619
 51
180.00001000000091
  0
ARC
  5
2EB7
  8
AM_0
 10
590.16183853065502
 20
1001.496175028102
 30
0.0
 40
5.0
 50
179.9999899999988
 51
270.0
  0
LINE
  5
2EB8
  8
AM_0
 10
585.16183853065502
 20
1003.709005028101
 30
0.0
 11
585.16183853065502
 21
1001.496175028102
 31
0.0
  0
ARC
  5
2EB9
  8
AM_0
 10
678.22342853065493
 20
910.62258502810221
 30
0.0
 40
8.0000113999999982
 50
90.00000299999769
 51
270.0
  0
LINE
  5
2EBA
  8
AM_0
 10
678.22336853065485
 20
918.6226450281024
 30
0.0
 11
678.22336853065485
 21
902.62258502810221
 31
0.0
  0
LINE
  5
2EBB
  8
AM_0
 10
655.22342853065493
 20
940.62264502810228
 30
0.0
 11
658.22336853065485
 21
940.62264502810228
 31
0.0
  0
LINE
  5
2EBC
  8
AM_0
 10
616.87356853065501
 20
997.46425502810246
 30
0.0
 11
628.223488530655
 21
1005.787985028102
 31
0.0
  0
ARC
  5
2EBD
  8
AM_0
 10
613.91665853065513
 20
1001.496175028102
 30
0.0
 40
5.0
 50
270.0
 51
306.25554999999889
  0
ARC
  5
2EBE
  8
AM_0
 10
629.22342853065493
 20
976.95925502810246
 30
0.0
 40
8.0
 50
0.0
 51
90.00000299999769
  0
ARC
  5
2EBF
  8
AM_0
 10
629.22342853065493
 20
1034.971765028102
 30
0.0
 40
8.0
 50
0.0
 51
90.00000299999769
  0
ARC
  5
2EC0
  8
AM_0
 10
623.22342853065493
 20
1035.4066950281019
 30
0.0
 40
5.0
 50
301.18235999999632
 51
0.0
  0
LINE
  5
2EC1
  8
AM_0
 10
633.04898853065504
 20
1075.022915028102
 30
0.0
 11
650.223488530655
 21
1075.622645028101
 31
0.0
  0
ARC
  5
2EC2
  8
AM_0
 10
621.20566853065475
 20
1052.675865028102
 30
0.0
 40
5.0
 50
271.9999999999971
 51
315.0
  0
LINE
  5
2EC3
  8
AM_0
 10
624.74124853065518
 20
1049.1402850281011
 30
0.0
 11
628.223488530655
 21
1052.622585028101
 31
0.0
  0
ARC
  5
2EC4
  8
AM_0
 10
633.22342853065493
 20
1070.025905028102
 30
0.0
 40
5.0
 50
91.999998000000545
 51
180.00001000000091
  0
LINE
  5
2EC5
  8
AM_0
 10
650.22342853065493
 20
1050.622645028101
 30
0.0
 11
655.22342853065493
 21
1050.622645028101
 31
0.0
  0
LINE
  5
2EC6
  8
AM_0
 10
740.22336853065474
 20
938.1226450281024
 30
0.0
 11
740.22336853065474
 21
883.1226450281024
 31
0.0
  0
ARC
  5
2EC7
  8
AM_0
 10
590.16176853065497
 20
506.48461577991679
 30
0.0
 40
5.0
 50
179.9999899999988
 51
270.0
  0
LINE
  5
2EC8
  8
AM_0
 10
587.57286853065477
 20
512.97511577991679
 30
0.0
 11
625.81216853065484
 21
536.11756577991684
 31
0.0
  0
ARC
  5
2EC9
  8
AM_0
 10
587.32851853065472
 20
230.46451577991681
 30
0.0
 40
10.0
 50
268.4999999999971
 51
300.00000000000051
  0
LINE
  5
2ECA
  8
AM_0
 10
505.22336853065491
 20
537.61106577991666
 30
0.0
 11
607.00481853065492
 21
540.27631577991667
 31
0.0
  0
LINE
  5
2ECB
  8
ﾁｭｳｼﾝｾﾝ
 10
389.14046918965482
 20
415.6110757799168
 30
0.0
 11
747.15221853065475
 21
415.6110757799168
 31
0.0
  0
LINE
  5
2ECC
  8
AM_0
 10
477.22336853065428
 20
424.07748077991681
 30
0.0
 11
622.82466853065455
 21
424.07748077991681
 31
0.0
  0
LINE
  5
2ECD
  8
AM_0
 10
477.22336853065428
 20
322.28188577991682
 30
0.0
 11
628.22336853065485
 21
322.28188577991682
 31
0.0
  0
LINE
  5
2ECE
  8
AM_0
 10
550.22336853065485
 20
295.85698577991678
 30
0.0
 11
628.22336853065485
 21
295.85698577991678
 31
0.0
  0
LINE
  5
2ECF
  8
AM_0
 10
550.22336853065485
 20
271.21212077991669
 30
0.0
 11
628.22336853065485
 21
271.21212077991669
 31
0.0
  0
LINE
  5
2ED0
  8
AM_0
 10
505.22336853065491
 20
537.61106577991666
 30
0.0
 11
505.22336853065491
 21
222.6110757799168
 31
0.0
  0
LINE
  5
2ED1
  8
AM_0
 10
449.22336853065451
 20
483.59505577991678
 30
0.0
 11
449.22336853065451
 21
258.16857077991682
 31
0.0
  0
LINE
  5
2ED2
  8
AM_0
 10
475.2233685306548
 20
534.63211577991683
 30
0.0
 11
475.2233685306548
 21
225.59006577991681
 31
0.0
  0
LINE
  5
2ED3
  8
AM_0
 10
353.1588685306545
 20
403.54647077991677
 30
0.0
 11
409.7589685306549
 21
460.14657077991677
 31
0.0
  0
LINE
  5
2ED4
  8
AM_0
 10
411.2234185306545
 20
273.1110757799168
 30
0.0
 11
411.2234185306545
 21
467.11108077991679
 31
0.0
  0
LINE
  5
2ED5
  8
AM_0
 10
426.22341853065433
 20
468.11108077991679
 30
0.0
 11
426.22341853065433
 21
273.1110757799168
 31
0.0
  0
LINE
  5
2ED6
  8
AM_0
 10
428.22336853065451
 20
453.80624077991678
 30
0.0
 11
428.22336853065451
 21
427.38686577991677
 31
0.0
  0
LINE
  5
2ED7
  8
AM_0
 10
351.22341853065461
 20
324.15920077991689
 30
0.0
 11
408.22336853065451
 21
324.15920077991689
 31
0.0
  0
LINE
  5
2ED8
  8
AM_0
 10
359.42326853065452
 20
279.61107577991669
 30
0.0
 11
408.22336853065451
 21
279.61107577991669
 31
0.0
  0
LINE
  5
2ED9
  8
ﾁｭｳｼﾝｾﾝ
 10
249.22801866156141
 20
328.1110757799168
 30
0.0
 11
404.19749326368509
 21
328.1110757799168
 31
0.0
  0
LINE
  5
2EDA
  8
AM_0
 10
258.22341853065438
 20
228.1110757799168
 30
0.0
 11
258.22341853065438
 21
428.1110757799168
 31
0.0
  0
LINE
  5
2EDB
  8
AM_0
 10
268.22341853065438
 20
427.1110757799168
 30
0.0
 11
268.22341853065438
 21
229.1110757799168
 31
0.0
  0
LINE
  5
2EDC
  8
AM_0
 10
302.22341853065438
 20
266.26632077991701
 30
0.0
 11
302.22341853065438
 21
389.5874877799169
 31
0.0
  0
LINE
  5
2EDD
  8
AM_0
 10
321.22341853065438
 20
401.6110757799168
 30
0.0
 11
321.22341853065438
 21
254.6110757799168
 31
0.0
  0
LINE
  5
2EDE
  8
AM_0
 10
336.22341853065461
 20
401.6110757799168
 30
0.0
 11
336.22341853065461
 21
254.6110607799167
 31
0.0
  0
LINE
  5
2EDF
  8
AM_0
 10
348.22341853065461
 20
321.1592357799168
 30
0.0
 11
348.22341853065461
 21
256.04139077991681
 31
0.0
  0
LINE
  5
2EE0
  8
AM_0
 10
357.32266853065482
 20
321.1592357799168
 30
0.0
 11
357.32266853065482
 21
279.61107577991669
 31
0.0
  0
LINE
  5
2EE1
  8
AM_0
 10
319.39772953065432
 20
259.20643977991682
 30
0.0
 11
302.22341853065438
 21
260.70899677991702
 31
0.0
  0
LINE
  5
2EE2
  8
AM_0
 10
302.22341853065438
 20
260.70899677991702
 30
0.0
 11
270.96195053065412
 21
257.97397277991678
 31
0.0
  0
ARC
  5
2EE3
  8
AM_0
 10
267.22341853065438
 20
229.1110757799168
 30
0.0
 40
1.0
 50
270.0
 51
0.0
  0
LINE
  5
2EE4
  8
AM_0
 10
258.22341853065438
 20
228.1110757799168
 30
0.0
 11
267.22341853065438
 21
228.1110757799168
 31
0.0
  0
ARC
  5
2EE5
  8
AM_0
 10
271.22341853065438
 20
254.9853887799168
 30
0.0
 40
3.0
 50
94.99999999999973
 51
180.0
  0
LINE
  5
2EE6
  8
AM_0
 10
349.42081853065463
 20
257.90097577991668
 30
0.0
 11
356.60416853065482
 21
277.63713577991689
 31
0.0
  0
LINE
  5
2EE7
  8
AM_0
 10
336.22341853065461
 20
254.6110607799167
 30
0.0
 11
344.7223185306546
 21
254.6110607799167
 31
0.0
  0
LINE
  5
2EE8
  8
AM_0
 10
321.22341853065438
 20
254.6110757799168
 30
0.0
 11
336.22341853065438
 21
254.6110757799168
 31
0.0
  0
ARC
  5
2EE9
  8
AM_0
 10
319.22341853065438
 20
257.21404977991682
 30
0.0
 40
2.0
 50
0.0
 51
85.000000000000256
  0
ARC
  5
2EEA
  8
AM_0
 10
344.7223185306546
 20
259.6110607799169
 30
0.0
 40
5.0
 50
270.0
 51
339.9999999999992
  0
LINE
  5
2EEB
  8
AM_0
 10
336.22341853065461
 20
266.53240077991683
 30
0.0
 11
348.22341853065461
 21
266.53240077991683
 31
0.0
  0
LINE
  5
2EEC
  8
AM_0
 10
336.22341853065461
 20
288.6364057799168
 30
0.0
 11
348.22341853065461
 21
288.6364057799168
 31
0.0
  0
LINE
  5
2EED
  8
AM_0
 10
323.07198053065451
 20
266.461075779917
 30
0.0
 11
334.53142053065432
 21
266.461075779917
 31
0.0
  0
ARC
  5
2EEE
  8
AM_0
 10
359.42326853065452
 20
276.6110757799168
 30
0.0
 40
3.0000000500000001
 50
90.00000299999769
 51
159.9999999999992
  0
LINE
  5
2EEF
  8
AM_0
 10
351.76616853065462
 20
402.1538307799168
 30
0.0
 11
351.76616853065462
 21
328.1110757799168
 31
0.0
  0
LINE
  5
2EF0
  8
AM_0
 10
336.22341853065461
 20
367.58578077991689
 30
0.0
 11
351.22341853065461
 21
367.58578077991689
 31
0.0
  0
LINE
  5
2EF1
  8
AM_0
 10
319.39772953065432
 20
397.01571277991678
 30
0.0
 11
302.22341853065438
 21
395.51315477991682
 31
0.0
  0
LINE
  5
2EF2
  8
AM_0
 10
302.22341853065438
 20
395.51315477991682
 30
0.0
 11
270.96195053065412
 21
398.248178779917
 31
0.0
  0
ARC
  5
2EF3
  8
AM_0
 10
271.22341853065438
 20
401.23676277991677
 30
0.0
 40
3.0
 50
180.0
 51
265.00000000000028
  0
ARC
  5
2EF4
  8
AM_0
 10
267.22341853065438
 20
427.1110757799168
 30
0.0
 40
1.0
 50
0.0
 51
90.0
  0
LINE
  5
2EF5
  8
AM_0
 10
258.22341853065438
 20
428.1110757799168
 30
0.0
 11
267.22341853065438
 21
428.1110757799168
 31
0.0
  0
LINE
  5
2EF6
  8
AM_0
 10
336.22341853065461
 20
389.68972077991691
 30
0.0
 11
351.22341853065461
 21
389.68972077991691
 31
0.0
  0
LINE
  5
2EF7
  8
AM_0
 10
336.22341853065461
 20
401.6110757799168
 30
0.0
 11
349.79776853065431
 21
402.08510577991677
 31
0.0
  0
LINE
  5
2EF8
  8
AM_0
 10
323.07198053065451
 20
389.76107577991689
 30
0.0
 11
334.53142053065432
 21
389.76107577991689
 31
0.0
  0
LINE
  5
2EF9
  8
AM_0
 10
321.22341853065438
 20
401.6110757799168
 30
0.0
 11
336.22341853065438
 21
401.6110757799168
 31
0.0
  0
ARC
  5
2EFA
  8
AM_0
 10
319.22341853065438
 20
399.00810177991679
 30
0.0
 40
2.0
 50
274.99999999999972
 51
0.0
  0
ARC
  5
2EFB
  8
AM_0
 10
349.62331853065479
 20
407.08208577991678
 30
0.0
 40
5.0
 50
271.99999999999687
 51
315.0
  0
LINE
  5
2EFC
  8
AM_0
 10
428.22336853065451
 20
313.83526077991689
 30
0.0
 11
428.22336853065451
 21
287.41588577991689
 31
0.0
  0
LINE
  5
2EFD
  8
AM_0
 10
477.1536185306548
 20
223.5912857799168
 30
0.0
 11
505.22341853065478
 21
222.6110607799169
 31
0.0
  0
ARC
  5
2EFE
  8
AM_0
 10
477.22336853065428
 20
225.59006577991681
 30
0.0
 40
2.0000000500000001
 50
179.9999899999988
 51
268.00000999999861
  0
LINE
  5
2EFF
  8
AM_0
 10
411.2234185306545
 20
297.60488077991681
 30
0.0
 11
426.22341853065433
 21
297.60488077991681
 31
0.0
  0
LINE
  5
2F00
  8
AM_0
 10
411.2234185306545
 20
287.41588577991689
 30
0.0
 11
426.22341853065433
 21
287.41588577991689
 31
0.0
  0
LINE
  5
2F01
  8
AM_0
 10
413.22336853065451
 20
271.1110757799168
 30
0.0
 11
424.22336853065451
 21
271.1110757799168
 31
0.0
  0
ARC
  5
2F02
  8
AM_0
 10
408.22336853065451
 20
276.6110757799168
 30
0.0
 40
3.0000000500000001
 50
0.0
 51
90.00000299999769
  0
ARC
  5
2F03
  8
AM_0
 10
413.22336853065451
 20
273.1110757799168
 30
0.0
 40
2.0000000500000001
 50
179.9999899999988
 51
270.0
  0
ARC
  5
2F04
  8
AM_0
 10
454.22336853065451
 20
258.16857077991682
 30
0.0
 40
5.0
 50
179.9999899999988
 51
234.17957000000149
  0
LINE
  5
2F05
  8
AM_0
 10
473.14961853065478
 20
238.34192577991689
 30
0.0
 11
451.2971685306548
 21
254.1142957799168
 31
0.0
  0
ARC
  5
2F06
  8
AM_0
 10
470.2233685306548
 20
234.28768077991671
 30
0.0
 40
5.0
 50
0.0
 51
54.179553999998987
  0
LINE
  5
2F07
  8
AM_0
 10
426.22336853065451
 20
273.1110757799168
 30
0.0
 11
444.3978685306547
 21
272.47640077991667
 31
0.0
  0
LINE
  5
2F08
  8
AM_0
 10
424.2234185306545
 20
271.11101577991678
 30
0.0
 11
426.22341853065433
 21
273.1109857799168
 31
0.0
  0
ARC
  5
2F09
  8
AM_0
 10
444.22336853065451
 20
267.4794557799168
 30
0.0
 40
5.0
 50
0.0
 51
88.000000000002899
  0
LINE
  5
2F0A
  8
AM_0
 10
428.22336853065451
 20
287.41588577991689
 30
0.0
 11
449.22336853065451
 21
287.41588577991689
 31
0.0
  0
LINE
  5
2F0B
  8
AM_0
 10
428.22336853065451
 20
297.60488077991681
 30
0.0
 11
449.22336853065451
 21
297.60488077991681
 31
0.0
  0
LINE
  5
2F0C
  8
AM_0
 10
505.22331853065481
 20
222.6110757799168
 30
0.0
 11
587.06671853065495
 21
220.46793077991671
 31
0.0
  0
LINE
  5
2F0D
  8
AM_0
 10
545.22336853065485
 20
290.85698577991678
 30
0.0
 11
545.22336853065485
 21
276.2121207799168
 31
0.0
  0
ARC
  5
2F0E
  8
AM_0
 10
550.22336853065485
 20
276.2121207799168
 30
0.0
 40
5.0
 50
179.9999899999988
 51
270.0
  0
ARC
  5
2F0F
  8
AM_0
 10
550.22336853065485
 20
290.85698577991678
 30
0.0
 40
5.0
 50
90.00000299999769
 51
180.00001000000091
  0
LINE
  5
2F10
  8
AM_0
 10
411.2234185306545
 20
313.83526077991689
 30
0.0
 11
426.22341853065433
 21
313.83526077991689
 31
0.0
  0
LINE
  5
2F11
  8
AM_0
 10
428.22336853065451
 20
313.83526077991689
 30
0.0
 11
449.22336853065451
 21
313.83526077991689
 31
0.0
  0
LINE
  5
2F12
  8
AM_0
 10
411.2234185306545
 20
443.61727577991678
 30
0.0
 11
426.22341853065433
 21
443.61727577991678
 31
0.0
  0
LINE
  5
2F13
  8
AM_0
 10
411.2234185306545
 20
427.38686577991677
 30
0.0
 11
426.22341853065433
 21
427.38686577991677
 31
0.0
  0
LINE
  5
2F14
  8
AM_0
 10
428.22336853065451
 20
427.38686577991677
 30
0.0
 11
449.22336853065451
 21
427.38686577991677
 31
0.0
  0
LINE
  5
2F15
  8
AM_0
 10
428.22336853065451
 20
443.61727577991678
 30
0.0
 11
449.22336853065451
 21
443.61727577991678
 31
0.0
  0
ARC
  5
2F16
  8
AM_0
 10
487.22336853065451
 20
563.61106577991688
 30
0.0
 40
25.000000499999999
 50
306.46672000000012
 51
233.53329000000139
  0
LINE
  5
2F17
  8
AM_0
 10
477.42931853065483
 20
546.61106577991666
 30
0.0
 11
497.01736853065478
 21
546.61106577991666
 31
0.0
  0
LINE
  5
2F18
  8
AM_0
 10
477.74526853065453
 20
546.73201577991688
 30
0.0
 11
487.22336853065451
 21
548.61106577991677
 31
0.0
  0
CIRCLE
  5
2F19
  8
AM_0
 10
487.22336853065451
 20
563.61106577991688
 30
0.0
 40
15.0
  0
LINE
  5
2F1A
  8
AM_0
 10
477.15356853065441
 20
536.6308657799168
 30
0.0
 11
505.22336853065491
 21
537.61106577991666
 31
0.0
  0
LINE
  5
2F1B
  8
AM_0
 10
474.22336853065451
 20
537.61106577991666
 30
0.0
 11
505.22336853065491
 21
537.61106577991666
 31
0.0
  0
LINE
  5
2F1C
  8
AM_0
 10
472.2233685306544
 20
535.61111577991676
 30
0.0
 11
472.2233685306544
 21
511.51171577991681
 31
0.0
  0
LINE
  5
2F1D
  8
AM_0
 10
411.2234185306545
 20
453.80624077991678
 30
0.0
 11
426.22341853065433
 21
453.80624077991678
 31
0.0
  0
LINE
  5
2F1E
  8
AM_0
 10
414.2233685306544
 20
470.1110507799167
 30
0.0
 11
424.22336853065451
 21
470.1110507799167
 31
0.0
  0
ARC
  5
2F1F
  8
AM_0
 10
406.2234185306545
 20
463.6821557799168
 30
0.0
 40
5.0
 50
315.0
 51
0.0
  0
ARC
  5
2F20
  8
AM_0
 10
414.2233685306544
 20
467.11108077991679
 30
0.0
 40
3.0000000500000001
 50
90.00000299999769
 51
180.00001000000091
  0
LINE
  5
2F21
  8
AM_0
 10
428.22336853065451
 20
453.80624077991678
 30
0.0
 11
449.22336853065451
 21
453.80624077991678
 31
0.0
  0
LINE
  5
2F22
  8
AM_0
 10
426.22336853065451
 20
468.11108077991679
 30
0.0
 11
444.3978685306547
 21
468.74575077991682
 31
0.0
  0
LINE
  5
2F23
  8
AM_0
 10
424.22336853065451
 20
470.11101577991678
 30
0.0
 11
426.22336853065451
 21
468.11101577991678
 31
0.0
  0
ARC
  5
2F24
  8
AM_0
 10
444.22336853065451
 20
473.74270077991679
 30
0.0
 40
5.0
 50
271.99999999999687
 51
0.0
  0
LINE
  5
2F25
  8
AM_0
 10
450.62176853065472
 20
487.0632557799168
 30
0.0
 11
470.82491853065483
 21
508.0434657799168
 31
0.0
  0
ARC
  5
2F26
  8
AM_0
 10
454.22336853065451
 20
483.59505577991678
 30
0.0
 40
5.0
 50
136.08091999999979
 51
180.00001000000091
  0
ARC
  5
2F27
  8
AM_0
 10
470.2233685306548
 20
514.62711577991683
 30
0.0
 40
5.0
 50
316.08091999999982
 51
0.0
  0
ARC
  5
2F28
  8
AM_0
 10
467.22336853065451
 20
511.51171577991681
 30
0.0
 40
5.0
 50
316.08091999999982
 51
0.0
  0
LINE
  5
2F29
  8
AM_0
 10
470.82491853065483
 20
508.0434657799168
 30
0.0
 11
473.82491853065483
 21
511.15886577991682
 31
0.0
  0
ARC
  5
2F2A
  8
AM_0
 10
468.79831853065451
 20
538.68081577991666
 30
0.0
 40
6.0
 50
349.72994999999878
 51
53.533291000002919
  0
LINE
  5
2F2B
  8
AM_0
 10
474.72336853065451
 20
537.61106577991666
 30
0.0
 11
476.9738685306545
 21
546.01001577991678
 31
0.0
  0
ARC
  5
2F2C
  8
AM_0
 10
474.22336853065451
 20
535.61111577991676
 30
0.0
 40
2.0000000500000001
 50
90.00000299999769
 51
180.00001000000091
  0
ARC
  5
2F2D
  8
AM_0
 10
477.22336853065428
 20
534.63211577991683
 30
0.0
 40
2.0000000500000001
 50
91.999998000000545
 51
180.00001000000091
  0
ARC
  5
2F2E
  8
AM_0
 10
477.9398185306548
 20
545.75116577991696
 30
0.0
 40
1.0
 50
101.213289999998
 51
164.99999000000179
  0
LINE
  5
2F2F
  8
AM_0
 10
585.16176853065485
 20
508.69746577991668
 30
0.0
 11
585.16176853065485
 21
506.48461577991679
 31
0.0
  0
ARC
  5
2F30
  8
AM_0
 10
590.16176853065497
 20
508.69746577991668
 30
0.0
 40
5.0
 50
121.182359999998
 51
180.00001000000091
  0
LINE
  5
2F31
  8
AM_0
 10
487.22341853065478
 20
548.61111577991676
 30
0.0
 11
496.70141853065451
 21
546.73206577991675
 31
0.0
  0
ARC
  5
2F32
  8
AM_0
 10
505.64836853065441
 20
538.68081577991666
 30
0.0
 40
6.0
 50
126.46669999999671
 51
190.27005999999909
  0
LINE
  5
2F33
  8
AM_0
 10
499.72336853065451
 20
537.61106577991666
 30
0.0
 11
497.47286853065492
 21
546.01001577991678
 31
0.0
  0
ARC
  5
2F34
  8
AM_0
 10
496.50701853065482
 20
545.75116577991696
 30
0.0
 40
1.0
 50
15.000000000000741
 51
78.786710000001847
  0
LINE
  5
2F35
  8
AM_0
 10
628.22336853065485
 20
575.01436577991672
 30
0.0
 11
628.22336853065485
 21
381.34771077991689
 31
0.0
  0
LINE
  5
2F36
  8
AM_0
 10
650.22336853065485
 20
580.61111577991664
 30
0.0
 11
650.22336853065485
 21
250.61107577991669
 31
0.0
  0
LINE
  5
2F37
  8
AM_0
 10
655.22336853065485
 20
555.61111577991676
 30
0.0
 11
655.22336853065485
 21
275.6110757799168
 31
0.0
  0
LINE
  5
2F38
  8
AM_0
 10
637.22336853065451
 20
539.96021577991689
 30
0.0
 11
637.22336853065451
 21
291.26195577991678
 31
0.0
  0
LINE
  5
2F39
  8
AM_0
 10
627.55001853065494
 20
373.12298077991682
 30
0.0
 11
615.64626853065454
 21
501.48464577991678
 31
0.0
  0
CIRCLE
  5
2F3A
  8
AM_0
 10
1059.563381540622
 20
415.6110757799168
 30
0.0
 40
132.0
  0
ARC
  5
2F3B
  8
AM_0
 10
1059.563381540622
 20
415.6110757799168
 30
0.0
 40
60.0
 50
90.00000299999769
 51
270.0
  0
ARC
  5
2F3C
  8
AM_0
 10
1059.563381540622
 20
415.6110757799168
 30
0.0
 40
60.0
 50
270.0
 51
90.00000299999769
  0
CIRCLE
  5
2F3D
  8
AM_0
 10
1059.563381540622
 20
415.6110757799168
 30
0.0
 40
140.0
  0
LINE
  5
2F3E
  8
ﾁｭｳｼﾝｾﾝ
 10
1059.563381540622
 20
208.5858957799168
 30
0.0
 11
1059.563381540622
 21
595.06376577991671
 31
0.0
  0
LINE
  5
2F3F
  8
AM_0
 10
894.5633615406224
 20
360.6110757799168
 30
0.0
 11
894.5633615406224
 21
470.61108077991679
 31
0.0
  0
LINE
  5
2F40
  8
AM_0
 10
1224.563356540621
 20
360.6110757799168
 30
0.0
 11
1224.563356540621
 21
470.61108077991679
 31
0.0
  0
LINE
  5
2F41
  8
AM_0
 10
658.22336853065485
 20
445.61108077991679
 30
0.0
 11
658.22336853065485
 21
385.61107577991692
 31
0.0
  0
LINE
  5
2F42
  8
AM_0
 10
678.22336853065485
 20
447.11108077991679
 30
0.0
 11
678.22336853065485
 21
443.11108077991679
 31
0.0
  0
LINE
  5
2F43
  8
AM_0
 10
740.22336853065474
 20
447.11108077991679
 30
0.0
 11
740.22336853065474
 21
388.11107577991692
 31
0.0
  0
ARC
  5
2F44
  8
AM_0
 10
1059.563381540622
 20
415.6110757799168
 30
0.0
 40
75.0
 50
142.9032099999981
 51
180.00001000000091
  0
LINE
  5
2F45
  8
AM_0
 10
1051.563351540623
 20
437.11108077991679
 30
0.0
 11
1051.563351540623
 21
447.11108077991679
 31
0.0
  0
LINE
  5
2F46
  8
AM_0
 10
1067.563351540623
 20
437.11108077991679
 30
0.0
 11
1067.563351540623
 21
447.11108077991679
 31
0.0
  0
ARC
  5
2F47
  8
AM_0
 10
1059.563381540622
 20
415.6110757799168
 30
0.0
 40
75.0
 50
0.0
 51
37.096792999999472
  0
LINE
  5
2F48
  8
ﾁｭｳｼﾝｾﾝ
 10
984.56338154062303
 20
370.6110757799168
 30
0.0
 11
1134.563351540623
 21
370.6110757799168
 31
0.0
  0
LINE
  5
2F49
  8
AM_0
 10
997.71633654062225
 20
219.7910807799168
 30
0.0
 11
1121.410366540621
 21
219.7910807799168
 31
0.0
  0
LINE
  5
2F4A
  8
AM_0
 10
1004.563381540622
 20
250.6110757799168
 30
0.0
 11
1114.563351540623
 21
250.6110757799168
 31
0.0
  0
LINE
  5
2F4B
  8
ﾁｭｳｼﾝｾﾝ
 10
883.58166154062258
 20
415.6110757799168
 30
0.0
 11
1236.989946540622
 21
415.6110757799168
 31
0.0
  0
LINE
  5
2F4C
  8
AM_0
 10
628.22336853065485
 20
323.33718077991682
 30
0.0
 11
628.22336853065485
 21
255.6110757799168
 31
0.0
  0
LINE
  5
2F4D
  8
AM_0
 10
592.32846853065473
 20
221.80426577991679
 30
0.0
 11
642.22336853065451
 21
250.61109077991671
 31
0.0
  0
LINE
  5
2F4E
  8
AM_0
 10
633.22336853065485
 20
250.61107577991669
 30
0.0
 11
650.22336853065485
 21
250.61107577991669
 31
0.0
  0
ARC
  5
2F4F
  8
AM_0
 10
633.22336853065485
 20
255.6110757799168
 30
0.0
 40
5.0
 50
179.9999899999988
 51
270.0
  0
ARC
  5
2F50
  8
AM_0
 10
629.22336853065485
 20
291.26195577991678
 30
0.0
 40
8.0
 50
270.0
 51
0.0
  0
LINE
  5
2F51
  8
AM_0
 10
650.22336853065485
 20
275.6110757799168
 30
0.0
 11
655.22336853065485
 21
275.6110757799168
 31
0.0
  0
LINE
  5
2F52
  8
AM_0
 10
658.22336853065485
 20
443.11108077991679
 30
0.0
 11
740.22336853065474
 21
443.11108077991679
 31
0.0
  0
LINE
  5
2F53
  8
AM_0
 10
658.22336853065485
 20
388.11107577991692
 30
0.0
 11
740.22336853065474
 21
388.11107577991692
 31
0.0
  0
ARC
  5
2F54
  8
AM_0
 10
635.51576853065455
 20
373.86172077991682
 30
0.0
 40
8.0
 50
185.2982400000015
 51
270.0
  0
ARC
  5
2F55
  8
AM_0
 10
629.22336853065485
 20
331.27443577991681
 30
0.0
 40
8.0
 50
270.0
 51
0.0
  0
LINE
  5
2F56
  8
AM_0
 10
655.22336853065485
 20
385.61107577991692
 30
0.0
 11
658.22336853065485
 21
385.61107577991692
 31
0.0
  0
LINE
  5
2F57
  8
AM_0
 10
894.56341154062261
 20
360.6110757799168
 30
0.0
 11
899.09871154062273
 21
274.07225577991682
 31
0.0
  0
LINE
  5
2F58
  8
AM_0
 10
1004.563351540622
 20
250.6110757799168
 30
0.0
 11
918.02453154062243
 21
255.1463857799169
 31
0.0
  0
LINE
  5
2F59
  8
AM_0
 10
990.36309654062268
 20
222.10955077991679
 30
0.0
 11
967.58819154062269
 21
238.0567107799169
 31
0.0
  0
CIRCLE
  5
2F5A
  8
AM_0
 10
921.67754654062276
 20
277.7252707799168
 30
0.0
 40
9.5
  0
ARC
  5
2F5B
  8
ﾁｭｳｼﾝｾﾝ1
 10
1059.563381540622
 20
415.6110757799168
 30
0.0
 40
195.0000049999999
 50
218.16532000000149
 51
232.1288600000004
  0
LINE
  5
2F5C
  8
ﾁｭｳｼﾝｾﾝ1
 10
933.76038419679423
 20
289.80808182513312
 30
0.0
 11
909.85920562367664
 21
265.90692288170641
 31
0.0
  0
ARC
  5
2F5D
  8
AM_0
 10
919.07128654062285
 20
275.11895077991682
 30
0.0
 40
20.000000499999999
 50
183.00000999999961
 51
267.0000000000008
  0
ARC
  5
2F5E
  8
AM_0
 10
1026.563351540623
 20
322.28188577991682
 30
0.0
 40
102.81999499999991
 50
222.01518000000081
 51
235.0000000000025
  0
ARC
  5
2F5F
  8
AM_0
 10
997.71633654062225
 20
232.61107577991689
 30
0.0
 40
12.82
 50
235.0000000000025
 51
270.0
  0
ARC
  5
2F60
  8
AM_0
 10
979.56338154062303
 20
405.6110757799168
 30
0.0
 40
5.0
 50
270.0
 51
0.0
  0
LINE
  5
2F61
  8
AM_0
 10
932.95769654062235
 20
400.6110757799168
 30
0.0
 11
979.56338154062303
 21
400.6110757799168
 31
0.0
  0
ARC
  5
2F62
  8
AM_0
 10
932.95769654062235
 20
405.6110757799168
 30
0.0
 40
5.0
 50
184.5161599999995
 51
270.0
  0
ARC
  5
2F63
  8
AM_0
 10
1059.563381540622
 20
415.6110757799168
 30
0.0
 40
27.500000499999999
 50
106.9123899999975
 51
73.087596999998908
  0
LINE
  5
2F64
  8
AM_0
 10
984.56338154062303
 20
415.6110757799168
 30
0.0
 11
984.56338154062303
 21
405.6110757799168
 31
0.0
  0
LINE
  5
2F65
  8
AM_0
 10
1051.563351540623
 20
437.11108077991679
 30
0.0
 11
1067.563351540623
 21
437.11108077991679
 31
0.0
  0
CIRCLE
  5
2F66
  8
AM_0
 10
1059.563381540622
 20
415.6110757799168
 30
0.0
 40
4.500000049999997
  0
CIRCLE
  5
2F67
  8
AM_5
 10
1059.563381540622
 20
415.6110757799168
 30
0.0
 40
6.0
  0
LINE
  5
2F68
  8
AM_0
 10
1224.563356540621
 20
360.61110577991678
 30
0.0
 11
1220.0280465406231
 21
274.07222577991689
 31
0.0
  0
CIRCLE
  5
2F69
  8
AM_0
 10
1197.449186540623
 20
277.7252707799168
 30
0.0
 40
9.5
  0
ARC
  5
2F6A
  8
AM_0
 10
1200.055466540623
 20
275.11895077991682
 30
0.0
 40
20.000000499999999
 50
272.99999999999909
 51
357.00000000000108
  0
LINE
  5
2F6B
  8
AM_0
 10
1128.7636115406231
 20
222.10955077991679
 30
0.0
 11
1151.538481540621
 21
238.0566757799169
 31
0.0
  0
ARC
  5
2F6C
  8
AM_0
 10
1121.410366540621
 20
232.61107577991689
 30
0.0
 40
12.82
 50
270.0
 51
304.99999999999739
  0
LINE
  5
2F6D
  8
AM_0
 10
1114.563381540622
 20
250.6110757799168
 30
0.0
 11
1201.102186540621
 21
255.1463857799169
 31
0.0
  0
ARC
  5
2F6E
  8
AM_0
 10
1092.563351540623
 20
322.28188577991682
 30
0.0
 40
102.81999499999991
 50
304.99999999999739
 51
317.9848199999991
  0
LINE
  5
2F6F
  8
AM_0
 10
1186.1690515406231
 20
400.6110757799168
 30
0.0
 11
1139.5633515406221
 21
400.6110757799168
 31
0.0
  0
LINE
  5
2F70
  8
AM_0
 10
1134.563351540623
 20
415.6110757799168
 30
0.0
 11
1134.563351540623
 21
405.6110757799168
 31
0.0
  0
ARC
  5
2F71
  8
AM_0
 10
1139.5633515406221
 20
405.6110757799168
 30
0.0
 40
5.0
 50
179.9999899999988
 51
270.0
  0
ARC
  5
2F72
  8
AM_0
 10
1186.1690515406231
 20
405.6110757799168
 30
0.0
 40
5.0
 50
270.0
 51
355.48384999999831
  0
ARC
  5
2F73
  8
AM_0
 10
1059.563381540622
 20
415.6110757799168
 30
0.0
 40
75.0
 50
52.903206000003003
 51
127.0967900000017
  0
LINE
  5
2F74
  8
AM_0
 10
1004.563381540622
 20
580.61111577991664
 30
0.0
 11
1114.563351540623
 21
580.61111577991664
 31
0.0
  0
LINE
  5
2F75
  8
AM_0
 10
678.22336853065485
 20
447.11108077991679
 30
0.0
 11
740.22336853065474
 21
447.11108077991679
 31
0.0
  0
LINE
  5
2F76
  8
AM_0
 10
590.15246853065446
 20
503.26150077991679
 30
0.0
 11
625.72151853065486
 21
524.78796577991682
 31
0.0
  0
LINE
  5
2F77
  8
AM_0
 10
616.87351853065491
 20
502.45272577991682
 30
0.0
 11
628.22336853065485
 21
510.7764657799168
 31
0.0
  0
LINE
  5
2F78
  8
AM_0
 10
590.16176853065497
 20
501.48461577991679
 30
0.0
 11
613.91661853065477
 21
501.48461577991679
 31
0.0
  0
ARC
  5
2F79
  8
AM_0
 10
613.91661853065477
 20
506.48461577991679
 30
0.0
 40
5.0
 50
270.0
 51
306.25555000000082
  0
ARC
  5
2F7A
  8
AM_0
 10
629.22336853065485
 20
481.94772077991678
 30
0.0
 40
8.0
 50
0.0
 51
90.00000299999769
  0
LINE
  5
2F7B
  8
AM_0
 10
655.22336853065485
 20
445.61108077991679
 30
0.0
 11
658.22336853065485
 21
445.61108077991679
 31
0.0
  0
LINE
  5
2F7C
  8
AM_0
 10
633.04886853065489
 20
580.01136577991667
 30
0.0
 11
650.22336853065485
 21
580.61111577991664
 31
0.0
  0
LINE
  5
2F7D
  8
AM_0
 10
613.8141185306547
 20
543.20181577991684
 30
0.0
 11
628.2234185306545
 21
557.61106577991666
 31
0.0
  0
LINE
  5
2F7E
  8
AM_0
 10
613.02126853065454
 20
529.79041577991688
 30
0.0
 11
611.95041853065447
 21
541.33801577991676
 31
0.0
  0
ARC
  5
2F7F
  8
AM_0
 10
606.74301853065447
 20
550.27286577991686
 30
0.0
 40
10.0
 50
271.50000000000261
 51
315.0
  0
ARC
  5
2F80
  8
AM_0
 10
629.22336853065485
 20
539.96021577991689
 30
0.0
 40
8.0
 50
0.0
 51
90.00000299999769
  0
ARC
  5
2F81
  8
AM_0
 10
623.22336853065497
 20
540.39516577991685
 30
0.0
 40
5.0
 50
301.18235999999791
 51
0.0
  0
ARC
  5
2F82
  8
AM_0
 10
633.22336853065485
 20
575.01436577991672
 30
0.0
 40
5.0
 50
91.999998000000545
 51
180.00001000000091
  0
LINE
  5
2F83
  8
AM_0
 10
650.22336853065485
 20
555.61111577991676
 30
0.0
 11
655.22336853065485
 21
555.61111577991676
 31
0.0
  0
ARC
  5
2F84
  8
AM_0
 10
1059.563381540622
 20
583.611065779917
 30
0.0
 40
5.0
 50
359.999989999999
 51
179.9999899999988
  0
LINE
  5
2F85
  8
AM_0
 10
999.28951654062234
 20
467.39965077991678
 30
0.0
 11
965.85564654062307
 21
500.8334907799167
 31
0.0
  0
LINE
  5
2F86
  8
AM_0
 10
1004.563351540622
 20
580.611065779917
 30
0.0
 11
918.02456154062259
 21
576.07576577991665
 31
0.0
  0
LINE
  5
2F87
  8
AM_0
 10
1007.774776540621
 20
475.88491577991681
 30
0.0
 11
974.34093654062269
 21
509.31876577991682
 31
0.0
  0
LINE
  5
2F88
  8
AM_0
 10
894.5633615406224
 20
470.61111077991683
 30
0.0
 11
899.09866154062252
 21
557.14991577991668
 31
0.0
  0
ARC
  5
2F89
  8
AM_0
 10
977.8764615406227
 20
512.85431577991676
 30
0.0
 40
5.0
 50
130.03114999999761
 51
225.0
  0
ARC
  5
2F8A
  8
AM_0
 10
962.32009654062301
 20
497.29800077991678
 30
0.0
 40
5.0
 50
45.00000100000149
 51
139.96884999999969
  0
CIRCLE
  5
2F8B
  8
AM_0
 10
921.67754654062276
 20
553.49691577991678
 30
0.0
 40
9.5
  0
ARC
  5
2F8C
  8
AM_0
 10
919.07128654062285
 20
556.10316577991694
 30
0.0
 40
20.000000499999999
 50
92.999999000001679
 51
176.99999000000011
  0
ARC
  5
2F8D
  8
AM_0
 10
1011.310271540623
 20
479.42049577991679
 30
0.0
 40
5.0
 50
225.0
 51
307.0967900000017
  0
ARC
  5
2F8E
  8
AM_0
 10
995.75393154062272
 20
463.86416077991692
 30
0.0
 40
5.0
 50
322.9032099999983
 51
45.00000100000149
  0
LINE
  5
2F8F
  8
AM_0
 10
1051.563351540623
 20
447.11108077991679
 30
0.0
 11
1067.563351540623
 21
447.11108077991679
 31
0.0
  0
LINE
  5
2F90
  8
AM_0
 10
1064.563381540622
 20
583.611065779917
 30
0.0
 11
1064.563381540622
 21
580.61111577991664
 31
0.0
  0
LINE
  5
2F91
  8
AM_0
 10
1054.5633815406211
 20
583.611065779917
 30
0.0
 11
1054.5633815406211
 21
580.61111577991664
 31
0.0
  0
ARC
  5
2F92
  8
ﾁｭｳｼﾝｾﾝ1
 10
1059.563381540622
 20
415.6110757799168
 30
0.0
 40
195.0000049999999
 50
39.367218999999267
 51
50.896189000000447
  0
CIRCLE
  5
2F93
  8
AM_0
 10
1197.449186540623
 20
553.49691577991678
 30
0.0
 40
9.5
  0
ARC
  5
2F94
  8
AM_0
 10
1200.055466540623
 20
556.10316577991694
 30
0.0
 40
20.000000499999999
 50
3.0000000999988461
 51
86.99999899999699
  0
LINE
  5
2F95
  8
ﾁｭｳｼﾝｾﾝ1
 10
1185.379140692407
 20
541.4268717119644
 30
0.0
 11
1209.445312358059
 21
565.49298227119925
 31
0.0
  0
ARC
  5
2F96
  8
AM_0
 10
1141.2502715406231
 20
512.85431577991676
 30
0.0
 40
5.0
 50
315.0
 51
49.96885100000106
  0
LINE
  5
2F97
  8
AM_0
 10
1119.837246540621
 20
467.39968577991681
 30
0.0
 11
1153.271086540622
 21
500.8335207799168
 31
0.0
  0
LINE
  5
2F98
  8
AM_0
 10
1111.351986540622
 20
475.88494577991679
 30
0.0
 11
1144.7858265406221
 21
509.31876577991682
 31
0.0
  0
ARC
  5
2F99
  8
AM_0
 10
1123.3727715406219
 20
463.86416077991692
 30
0.0
 40
5.0
 50
135.0
 51
217.09680000000159
  0
ARC
  5
2F9A
  8
AM_0
 10
1107.8164365406219
 20
479.42049577991679
 30
0.0
 40
5.0
 50
232.90320999999821
 51
315.0
  0
ARC
  5
2F9B
  8
AM_0
 10
1156.806611540622
 20
497.29800077991678
 30
0.0
 40
5.0
 50
40.031148000000073
 51
135.0
  0
LINE
  5
2F9C
  8
AM_0
 10
1114.563321540621
 20
580.61111577991664
 30
0.0
 11
1201.1021715406221
 21
576.07576577991665
 31
0.0
  0
LINE
  5
2F9D
  8
AM_0
 10
1224.563356540621
 20
470.61108077991679
 30
0.0
 11
1220.0280465406231
 21
557.14986577991681
 31
0.0
  0
LINE
  5
2F9E
  8
AM_0
 10
258.22342853065481
 20
1010.622652528102
 30
0.0
 11
267.22342853065481
 21
1010.622652528102
 31
0.0
  0
LINE
  5
2F9F
  8
AM_0
 10
258.22342853065481
 20
810.62265252810255
 30
0.0
 11
267.22342853065481
 21
810.62265252810255
 31
0.0
  0
LINE
  5
2FA0
  8
AM_0
 10
258.22342853065481
 20
810.62265252810255
 30
0.0
 11
258.22342853065481
 21
1010.622652528102
 31
0.0
  0
LINE
  5
2FA1
  8
AM_0
 10
321.22342853065481
 20
984.12265252810244
 30
0.0
 11
321.22342853065481
 21
837.12265252810255
 31
0.0
  0
LINE
  5
2FA2
  8
AM_0
 10
302.22342853065481
 20
848.7778975281027
 30
0.0
 11
302.22342853065481
 21
972.0990645281023
 31
0.0
  0
LINE
  5
2FA3
  8
AM_0
 10
268.22342853065481
 20
1009.622652528102
 30
0.0
 11
268.22342853065481
 21
811.62265252810255
 31
0.0
  0
LINE
  5
2FA4
  8
AM_0
 10
321.22342853065481
 20
837.12265252810255
 30
0.0
 11
336.22342853065481
 21
837.12265252810255
 31
0.0
  0
ARC
  5
2FA5
  8
AM_0
 10
267.22342853065481
 20
811.62265252810255
 30
0.0
 40
1.0
 50
270.0
 51
0.0
  0
LINE
  5
2FA6
  8
AM_0
 10
302.22342853065481
 20
843.22057352810259
 30
0.0
 11
270.96196053065461
 21
840.48554952810241
 31
0.0
  0
ARC
  5
2FA7
  8
AM_0
 10
271.22342853065481
 20
837.49696552810224
 30
0.0
 40
3.0
 50
94.99999999999973
 51
180.0
  0
LINE
  5
2FA8
  8
AM_0
 10
319.3977395306548
 20
841.71801652810257
 30
0.0
 11
302.22342853065481
 21
843.22057352810259
 31
0.0
  0
ARC
  5
2FA9
  8
AM_0
 10
319.22342853065481
 20
839.72562652810257
 30
0.0
 40
2.0
 50
0.0
 51
85.000000000000256
  0
LINE
  5
2FAA
  8
AM_0
 10
323.07199053065477
 20
848.97265252810246
 30
0.0
 11
334.53143053065492
 21
848.97265252810246
 31
0.0
  0
LINE
  5
2FAB
  8
AM_0
 10
321.22342853065481
 20
984.12265252810244
 30
0.0
 11
336.22342853065481
 21
984.12265252810244
 31
0.0
  0
LINE
  5
2FAC
  8
AM_0
 10
302.22342853065481
 20
978.02473152810228
 30
0.0
 11
270.96196053065461
 21
980.75975552810235
 31
0.0
  0
ARC
  5
2FAD
  8
AM_0
 10
271.22342853065481
 20
983.74833952810241
 30
0.0
 40
3.0
 50
180.0
 51
265.00000000000028
  0
LINE
  5
2FAE
  8
AM_0
 10
319.3977395306548
 20
979.52728952810253
 30
0.0
 11
302.22342853065481
 21
978.02473152810228
 31
0.0
  0
ARC
  5
2FAF
  8
AM_0
 10
319.22342853065481
 20
981.51967852810265
 30
0.0
 40
2.0
 50
274.99999999999972
 51
0.0
  0
ARC
  5
2FB0
  8
AM_0
 10
267.22342853065481
 20
1009.622652528102
 30
0.0
 40
1.0
 50
0.0
 51
90.0
  0
LINE
  5
2FB1
  8
AM_0
 10
323.07199053065477
 20
972.27265252810275
 30
0.0
 11
334.53143053065492
 21
972.27265252810275
 31
0.0
  0
ARC
  5
2FB2
  8
ﾁｭｳｼﾝｾﾝ1
 10
1059.563381540622
 20
415.6110757799168
 30
0.0
 40
195.0000049999999
 50
129.1038109999995
 51
140.6327810000007
  0
LINE
  5
2FB3
  8
ﾁｭｳｼﾝｾﾝ1
 10
933.74762238883761
 20
541.4268717119644
 30
0.0
 11
909.68145072318532
 21
565.49298227119925
 31
0.0
  0
ARC
  5
2FB4
  8
ﾁｭｳｼﾝｾﾝ1
 10
1059.563381540622
 20
415.6110757799168
 30
0.0
 40
195.0000049999999
 50
307.87113999999951
 51
321.83467999999817
  0
LINE
  5
2FB5
  8
ﾁｭｳｼﾝｾﾝ1
 10
1185.366378884451
 20
289.80808182513312
 30
0.0
 11
1209.267557457568
 21
265.90692288170641
 31
0.0
  0
LINE
  5
2FB6
  8
AM_0
 10
323.07198053065451
 20
288.5650807799168
 30
0.0
 11
334.53142053065432
 21
288.5650807799168
 31
0.0
  0
LINE
  5
2FB7
  8
AM_0
 10
323.07198053065451
 20
367.51445577991677
 30
0.0
 11
334.53142053065432
 21
367.51445577991677
 31
0.0
  0
LINE
  5
2FB8
  8
AM_0
 10
323.07199053065477
 20
871.07659002810226
 30
0.0
 11
334.53143053065492
 21
871.07659002810226
 31
0.0
  0
LINE
  5
2FB9
  8
AM_0
 10
323.07199053065477
 20
950.02599002810223
 30
0.0
 11
334.53143053065492
 21
950.02599002810223
 31
0.0
  0
TEXT
  5
31C1
  8
AM_0
 10
919.60529573738165
 20
931.1206906283528
 30
0.0
 40
20.0
  1
VX15-240AF~VX15-300AF
  0
ENDSEC
  0
EOF
