  0
SECTION
  2
HEADER
  9
$ACADVER
  1
AC1009
  9
$INSBASE
 10
0.0
 20
0.0
 30
0.0
  9
$EXTMIN
 10
230.3618276158368
 20
183.10585258657329
 30
-0.0000000000112498
  9
$EXTMAX
 10
972.04311649611111
 20
776.26266677545254
 30
0.0000000000002956
  9
$LIMMIN
 10
0.0
 20
0.0
  9
$LIMMAX
 10
1422.5
 20
925.0
  9
$ORTHOMODE
 70
     0
  9
$REGENMODE
 70
     1
  9
$FILLMODE
 70
     1
  9
$QTEXTMODE
 70
     0
  9
$MIRRTEXT
 70
     1
  9
$DRAGMODE
 70
     2
  9
$LTSCALE
 40
5.0
  9
$OSMODE
 70
   551
  9
$ATTMODE
 70
     1
  9
$TEXTSIZE
 40
2.5
  9
$TRACEWID
 40
1.0
  9
$TEXTSTYLE
  7
STANDARD
  9
$CLAYER
  8
AM_0
  9
$CELTYPE
  6
BYLAYER
  9
$CECOLOR
 62
   256
  9
$DIMSCALE
 40
1.0
  9
$DIMASZ
 40
2.5
  9
$DIMEXO
 40
1.0
  9
$DIMDLI
 40
8.0
  9
$DIMRND
 40
0.0
  9
$DIMDLE
 40
0.0
  9
$DIMEXE
 40
0.6
  9
$DIMTP
 40
0.1
  9
$DIMTM
 40
0.1
  9
$DIMTXT
 40
2.5
  9
$DIMCEN
 40
0.0
  9
$DIMTSZ
 40
0.0
  9
$DIMTOL
 70
     0
  9
$DIMLIM
 70
     0
  9
$DIMTIH
 70
     0
  9
$DIMTOH
 70
     0
  9
$DIMSE1
 70
     0
  9
$DIMSE2
 70
     0
  9
$DIMTAD
 70
     1
  9
$DIMZIN
 70
     8
  9
$DIMBLK
  1

  9
$DIMASO
 70
     1
  9
$DIMSHO
 70
     1
  9
$DIMPOST
  1

  9
$DIMAPOST
  1
"
  9
$DIMALT
 70
     0
  9
$DIMALTD
 70
     2
  9
$DIMALTF
 40
0.0393701
  9
$DIMLFAC
 40
1.0
  9
$DIMTOFL
 70
     1
  9
$DIMTVP
 40
0.0
  9
$DIMTIX
 70
     0
  9
$DIMSOXD
 70
     0
  9
$DIMSAH
 70
     0
  9
$DIMBLK1
  1

  9
$DIMBLK2
  1

  9
$DIMSTYLE
  2
AM_ISO
  9
$DIMCLRD
 70
   256
  9
$DIMCLRE
 70
   256
  9
$DIMCLRT
 70
     4
  9
$DIMTFAC
 40
0.71
  9
$DIMGAP
 40
0.8
  9
$LUNITS
 70
     2
  9
$LUPREC
 70
     2
  9
$SKETCHINC
 40
1.0
  9
$FILLETRAD
 40
25.0
  9
$AUNITS
 70
     0
  9
$AUPREC
 70
     0
  9
$MENU
  1
.
  9
$ELEVATION
 40
0.0
  9
$PELEVATION
 40
0.0
  9
$THICKNESS
 40
0.0
  9
$LIMCHECK
 70
     0
  9
$BLIPMODE
 70
     0
  9
$CHAMFERA
 40
10.0
  9
$CHAMFERB
 40
5.0
  9
$SKPOLY
 70
     0
  9
$TDCREATE
 40
2452066.6139178239
  9
$TDUPDATE
 40
2458541.5484413542
  9
$TDINDWG
 40
0.1102104745
  9
$TDUSRTIMER
 40
0.1102104514
  9
$USRTIMER
 70
     1
  9
$ANGBASE
 50
0.0
  9
$ANGDIR
 70
     0
  9
$PDMODE
 70
     0
  9
$PDSIZE
 40
0.0
  9
$PLINEWID
 40
0.0
  9
$COORDS
 70
     1
  9
$SPLFRAME
 70
     0
  9
$SPLINETYPE
 70
     6
  9
$SPLINESEGS
 70
     8
  9
$ATTDIA
 70
     1
  9
$ATTREQ
 70
     1
  9
$HANDLING
 70
     1
  9
$HANDSEED
  5
2F65
  9
$SURFTAB1
 70
     6
  9
$SURFTAB2
 70
     6
  9
$SURFTYPE
 70
     6
  9
$SURFU
 70
     6
  9
$SURFV
 70
     6
  9
$UCSNAME
  2

  9
$UCSORG
 10
0.0
 20
0.0
 30
0.0
  9
$UCSXDIR
 10
1.0
 20
0.0
 30
0.0
  9
$UCSYDIR
 10
0.0
 20
1.0
 30
0.0
  9
$PUCSNAME
  2

  9
$PUCSORG
 10
0.0
 20
0.0
 30
0.0
  9
$PUCSXDIR
 10
1.0
 20
0.0
 30
0.0
  9
$PUCSYDIR
 10
0.0
 20
1.0
 30
0.0
  9
$USERI1
 70
     0
  9
$USERI2
 70
     0
  9
$USERI3
 70
     0
  9
$USERI4
 70
     0
  9
$USERI5
 70
     0
  9
$USERR1
 40
0.0
  9
$USERR2
 40
0.0
  9
$USERR3
 40
0.0
  9
$USERR4
 40
0.0
  9
$USERR5
 40
0.0
  9
$WORLDVIEW
 70
     1
  9
$SHADEDGE
 70
     3
  9
$SHADEDIF
 70
    70
  9
$TILEMODE
 70
     1
  9
$MAXACTVP
 70
    64
  9
$PLIMCHECK
 70
     0
  9
$PEXTMIN
 10
1.0000000000000000E+020
 20
1.0000000000000000E+020
 30
1.0000000000000000E+020
  9
$PEXTMAX
 10
-1.0000000000000000E+020
 20
-1.0000000000000000E+020
 30
-1.0000000000000000E+020
  9
$PLIMMIN
 10
0.0
 20
0.0
  9
$PLIMMAX
 10
420.0
 20
297.0
  9
$UNITMODE
 70
     0
  9
$VISRETAIN
 70
     1
  9
$PLINEGEN
 70
     0
  9
$PSLTSCALE
 70
     1
  0
ENDSEC
  0
SECTION
  2
TABLES
  0
TABLE
  2
VPORT
 70
     1
  0
VPORT
  2
*ACTIVE
 70
     0
 10
0.0
 20
0.0
 11
1.0
 21
1.0
 12
601.202472055974
 22
479.68425968101297
 13
0.0
 23
0.0
 14
12.5
 24
12.5
 15
50.0
 25
50.0
 16
0.0
 26
0.0
 36
1.0
 17
0.0
 27
0.0
 37
0.0
 40
597.22882893159465
 41
1.7571592210767459
 42
50.0
 43
0.0
 44
0.0
 50
0.0
 51
0.0
 71
     0
 72
   100
 73
     1
 74
     3
 75
     0
 76
     0
 77
     0
 78
     0
  0
ENDTAB
  0
TABLE
  2
LTYPE
 70
    26
  0
LTYPE
  2
CONTINUOUS
 70
     0
  3
Solid line
 72
    65
 73
     0
 40
0.0
  0
LTYPE
  2
AM_ISO02W050
 70
     0
  3
__ __ __ __ __ __ __ __ __ __ __ __ __ __ __
 72
    65
 73
     2
 40
7.5
 49
6.0
 49
-1.5
  0
LTYPE
  2
AM_ISO08W050
 70
     0
  3
____ . ____ . ____ . ____ . ____ . ____ . ____
 72
    65
 73
     4
 40
18.0
 49
12.0
 49
-1.5
 49
3.0
 49
-1.5
  0
LTYPE
  2
AM_ISO09W050
 70
     0
  3
_____ . . _____ . . _____ . . ____ .. ____
 72
    65
 73
     6
 40
22.5
 49
12.0
 49
-1.5
 49
3.0
 49
-1.5
 49
3.0
 49
-1.5
  0
LTYPE
  2
AMCONSTR
 70
     0
  3
_______________________
 72
    65
 73
     2
 40
9999.0
 49
9999.0
 49
0.0
  0
LTYPE
  2
AM_ISO08W050X2
 70
     0
  3
__ . __ . __ . __ . __ . __
 72
    65
 73
     4
 40
9.0
 49
6.0
 49
-0.75
 49
1.5
 49
-0.75
  0
LTYPE
  2
AM_ISO02W050X2
 70
     0
  3
 _ _ _ _ _ _ _ _ _ _ _ _
 72
    65
 73
     2
 40
3.75
 49
3.0
 49
-0.75
  0
LTYPE
  2
AMZIGZAG
 70
     0
  3
/\/-/\/-/\/-/\/-/\/-/\/
 72
    65
 73
     2
 40
11.000099999999991
 49
0.0001
 49
-11.0
  0
LTYPE
  2
ACISOWELD
 70
     0
  3
_ _ _ _ _
 72
    65
 73
     2
 40
2.0
 49
2.0
 49
-1.0
  0
LTYPE
  2
ACISOTGB
 70
     0
  3
__ . . __ . .
 72
    65
 73
     6
 40
9.0
 49
4.0
 49
-1.0
 49
1.0
 49
-1.0
 49
1.0
 49
-1.0
  0
LTYPE
  2
ACISOTGL
 70
     0
  3
_ _ _ _ _
 72
    65
 73
     2
 40
3.0
 49
2.0
 49
-1.0
  0
LTYPE
  2
CENTER
 70
     0
  3
__ . __
 72
    65
 73
     4
 40
7.0
 49
4.0
 49
-1.0
 49
1.0
 49
-1.0
  0
LTYPE
  2
PHANTOM2
 70
     0
  3
Phantom (.5x) ___ _ _ ___ _ _ ___ _ _ ___ _ _
 72
    65
 73
     6
 40
31.75
 49
15.875
 49
-3.174999999999998
 49
3.174999999999998
 49
-3.174999999999998
 49
3.174999999999998
 49
-3.174999999999998
  0
LTYPE
  2
ACANSTGBM
 70
     0
  3
__ . . __ . .
 72
    65
 73
     6
 40
9.0
 49
4.0
 49
-1.0
 49
1.0
 49
-1.0
 49
1.0
 49
-1.0
  0
LTYPE
  2
ACANSTGLM
 70
     0
  3
_ _ _ _ _
 72
    65
 73
     2
 40
3.0
 49
2.0
 49
-1.0
  0
LTYPE
  2
GEN7
 70
     0
  3
____ . ____ . ____ . ____ . ____ . ____ . ____
 72
    65
 73
     4
 40
14.25
 49
9.75
 49
-1.5
 49
1.5
 49
-1.5
  0
LTYPE
  2
GEN7A
 70
     0
  3
__ . __ . __
 72
    65
 73
     4
 40
7.375
 49
4.75
 49
-0.875
 49
0.875
 49
-0.875
  0
LTYPE
  2
ACJISTGB
 70
     0
  3
__ . . __ . .
 72
    65
 73
     6
 40
9.0
 49
4.0
 49
-1.0
 49
1.0
 49
-1.0
 49
1.0
 49
-1.0
  0
LTYPE
  2
ACJISTGL
 70
     0
  3
_ _ _ _ _
 72
    65
 73
     2
 40
3.0
 49
2.0
 49
-1.0
  0
LTYPE
  2
HIDDEN
 70
     0
  3
Hidden __ __ __ __ __ __ __ __ __ __ __ __ __ _
 72
    65
 73
     2
 40
0.375
 49
0.25
 49
-0.125
  0
LTYPE
  2
CENTER2
 70
     0
  3
Center (.5x) ___ _ ___ _ ___ _ ___ _ ___ _ ___
 72
    65
 73
     4
 40
1.125
 49
0.75
 49
-0.125
 49
0.125
 49
-0.125
  0
LTYPE
  2
HIDDEN2
 70
     0
  3
Hidden (.5x) _ _ _ _ _ _ _ _ _ _ _ _ _ _ _ _ _
 72
    65
 73
     2
 40
0.1875
 49
0.125
 49
-0.0625
  0
LTYPE
  2
AMZIGZAG2
 70
     0
  3
/\/-/\/-/\/-/\/-/\/-/\/
 72
    65
 73
     2
 40
0.4401
 49
0.0001
 49
-0.4400000000000002
  0
LTYPE
  2
ACANSTGB
 70
     0
  3
__ . . __ . .
 72
    65
 73
     6
 40
0.35433070866
 49
0.15748031496
 49
-0.03937007874
 49
0.03937007874
 49
-0.03937007874
 49
0.03937007874
 49
-0.03937007874
  0
LTYPE
  2
ACANSTGL
 70
     0
  3
_ _ _ _ _
 72
    65
 73
     2
 40
0.11811023622
 49
0.07874015748
 49
-0.03937007874
  0
ENDTAB
  0
TABLE
  2
LAYER
 70
     6
  0
LAYER
  2
0
 70
     0
 62
     7
  6
CONTINUOUS
  0
LAYER
  2
AM_0
 70
     0
 62
     7
  6
CONTINUOUS
  0
LAYER
  2
AM_5
 70
     0
 62
     2
  6
CONTINUOUS
  0
LAYER
  2
DEFPOINTS
 70
     0
 62
     7
  6
CONTINUOUS
  0
LAYER
  2
ﾁｭｳｼﾝｾﾝ
 70
     0
 62
     1
  6
GEN7
  0
LAYER
  2
ﾁｭｳｼﾝｾﾝ1
 70
     0
 62
     1
  6
GEN7A
  0
ENDTAB
  0
TABLE
  2
STYLE
 70
     9
  0
STYLE
  2
STANDARD
 70
     0
 40
0.0
 41
0.8299999999999999
 50
0.0
 71
     0
 42
2.5
  3
txt.shx
  4
bigfont.shx
  0
STYLE
  2
ANNOTATIVE
 70
     0
 40
0.0
 41
1.0
 50
0.0
 71
     0
 42
0.2
  3
txt
  4

  0
STYLE
  2

 70
     1
 40
0.0
 41
1.0
 50
0.0
 71
     0
 42
2.5
  3
ltypeshp.shx
  4

  0
STYLE
  2
ACISOTS
 70
     0
 40
1.0
 41
1.0
 50
0.0
 71
     0
 42
2.5
  3
isocp.shx
  4
extfont.shx
  0
STYLE
  2
ACISOGDT
 70
     0
 40
0.0
 41
1.0
 50
0.0
 71
     0
 42
2.5
  3
amgdt.shx
  4

  0
STYLE
  2
ACANSTS
 70
     0
 40
1.0
 41
1.0
 50
0.0
 71
     0
 42
2.5
  3
romans.shx
  4
bigfont.shx
  0
STYLE
  2
ACANSGDT
 70
     0
 40
0.0
 41
1.0
 50
0.0
 71
     0
 42
2.5
  3
amgdt.shx
  4

  0
STYLE
  2
ACJISTS
 70
     0
 40
1.0
 41
1.0
 50
0.0
 71
     0
 42
2.5
  3
isocp.shx
  4
bigfont.shx
  0
STYLE
  2
ACJISGDT
 70
     0
 40
0.0
 41
1.0
 50
0.0
 71
     0
 42
2.5
  3
amgdt.shx
  4

  0
ENDTAB
  0
TABLE
  2
VIEW
 70
     6
  0
VIEW
  2
AM_VIEW1
 70
     0
 40
462.5
 10
416.07965009208078
 20
693.75
 41
832.15930018416213
 11
0.0
 21
0.0
 31
1.0
 12
0.0
 22
0.0
 32
0.0
 42
50.0
 43
0.0
 44
0.0
 50
0.0
 71
     0
  0
VIEW
  2
AM_VIEW2
 70
     0
 40
462.5
 10
1006.420349907918
 20
693.75
 41
832.15930018416213
 11
0.0
 21
0.0
 31
1.0
 12
0.0
 22
0.0
 32
0.0
 42
50.0
 43
0.0
 44
0.0
 50
0.0
 71
     0
  0
VIEW
  2
AM_VIEW3
 70
     0
 40
462.5
 10
416.07965009208078
 20
231.25
 41
832.15930018416213
 11
0.0
 21
0.0
 31
1.0
 12
0.0
 22
0.0
 32
0.0
 42
50.0
 43
0.0
 44
0.0
 50
0.0
 71
     0
  0
VIEW
  2
AM_VIEW4
 70
     0
 40
462.5
 10
1006.420349907918
 20
231.25
 41
832.15930018416213
 11
0.0
 21
0.0
 31
1.0
 12
0.0
 22
0.0
 32
0.0
 42
50.0
 43
0.0
 44
0.0
 50
0.0
 71
     0
  0
VIEW
  2
AM_VIEW5
 70
     0
 40
462.5
 10
711.24999999999966
 20
462.5
 41
832.15930018416179
 11
0.0
 21
0.0
 31
1.0
 12
0.0
 22
0.0
 32
0.0
 42
50.0
 43
0.0
 44
0.0
 50
0.0
 71
     0
  0
VIEW
  2
AM_VIEW6
 70
     0
 40
924.99075000000005
 10
711.24999999999966
 20
462.5
 41
1664.3019571823199
 11
0.0
 21
0.0
 31
1.0
 12
0.0
 22
0.0
 32
0.0
 42
50.0
 43
0.0
 44
0.0
 50
0.0
 71
     0
  0
ENDTAB
  0
TABLE
  2
UCS
 70
     0
  0
ENDTAB
  0
TABLE
  2
APPID
 70
    95
  0
APPID
  2
ACAD
 70
     0
  0
APPID
  2
ACADANNOTATIVE
 70
     0
  0
APPID
  2
MCAD_NO_VIS
 70
     0
  0
APPID
  2
ACAD_TEMP_GRAPHIC
 70
     0
  0
APPID
  2
ACATTRIBSERVICES
 70
     0
  0
APPID
  2
GENIUS_GENREC_14
 70
     0
  0
APPID
  2
GENIUS_GENOBJ-N-REC_13
 70
     0
  0
APPID
  2
GENIUS_GENODEF_13
 70
     0
  0
APPID
  2
GENIUS_GENOLIS_13
 70
     0
  0
APPID
  2
GENIUS_GENOBJ-N-TIT_13
 70
     0
  0
APPID
  2
GENIUS_GENOENT_13
 70
     0
  0
APPID
  2
GENIUS_GENTITLE_13
 70
     0
  0
APPID
  2
GENIUS_GENOREF_13
 70
     0
  0
APPID
  2
GENIUS_GENSCREG_15
 70
     0
  0
APPID
  2
GENIUS_GENOBJ-N-SDF_13
 70
     0
  0
APPID
  2
GENIUS_GENFIL_13
 70
     0
  0
APPID
  2
GENIUS_GENOBJ-N-CHA_13
 70
     0
  0
APPID
  2
GENIUS_GENDTOL_13
 70
     0
  0
APPID
  2
GENIUS_GENOBJ-N-FIL_13
 70
     0
  0
APPID
  2
AD_DRAW
 70
     0
  0
APPID
  2
DESIGNERASSEMBLIES
 70
     0
  0
APPID
  2
ASURF_PCURVE_APPNAME
 70
     0
  0
APPID
  2
GENIUS_GE3SECT_13
 70
     0
  0
APPID
  2
GENIUS_GENCFG_13
 70
     0
  0
APPID
  2
GENIUS_GE3CFG0_13
 70
     0
  0
APPID
  2
GENIUS_GENCFG0_13
 70
     0
  0
APPID
  2
GENIUS_GENCFG1_13
 70
     0
  0
APPID
  2
GENIUS_GENCFG2_13
 70
     0
  0
APPID
  2
GENIUS_GENCFG3_13
 70
     0
  0
APPID
  2
GENIUS_GENCFG4_13
 70
     0
  0
APPID
  2
GENIUS_GEVCFG0_13
 70
     0
  0
APPID
  2
GENIUS_GENHINW_13
 70
     0
  0
APPID
  2
GENIUS_FIRSTVISTXT_14
 70
     0
  0
APPID
  2
GENIUS_GENOBJ-N-LEADER_13
 70
     0
  0
APPID
  2
GEV_VCCNULL_SWITCH_OFF
 70
     0
  0
APPID
  2
GENIUS_GEFCFG0_13
 70
     0
  0
APPID
  2
GENIUS_GENZVEED_13
 70
     0
  0
APPID
  2
GENIUS_GENSCREG_13
 70
     0
  0
APPID
  2
GENIUS_DUMCFG0_13
 70
     0
  0
APPID
  2
GEVID936201362
 70
     0
  0
APPID
  2
GEVDC
 70
     0
  0
APPID
  2
GEVCON
 70
     0
  0
APPID
  2
VCC
 70
     0
  0
APPID
  2
GEVPT
 70
     0
  0
APPID
  2
GEVIT
 70
     0
  0
APPID
  2
GENBH
 70
     0
  0
APPID
  2
GEVMK
 70
     0
  0
APPID
  2
GENIUS_GENBH_13
 70
     0
  0
APPID
  2
GENIUS_GENOBJ-NBEHI-BHF_13
 70
     0
  0
APPID
  2
GENIUS_GENOBJ-NBEHI-BHB_13
 70
     0
  0
APPID
  2
GENIUS_GENOBJ-F-DESC_13
 70
     0
  0
APPID
  2
GENIUS_GEFDESC_14
 70
     0
  0
APPID
  2
GENIUS_GENOBJ-F-PART_13
 70
     0
  0
APPID
  2
GENIUS_GEFSTDP_13
 70
     0
  0
APPID
  2
GENIUS_GEFPARTINS_13
 70
     0
  0
APPID
  2
GENIUS_GENTRA_14
 70
     0
  0
APPID
  2
GENIUS_GENINF13_13
 70
     0
  0
APPID
  2
GENIUS_GENOBJ-N-INFOPT_13
 70
     0
  0
APPID
  2
GENIUS_GENOBJ-N-RSSYM_13
 70
     0
  0
APPID
  2
GENIUS_GENSYMENT_13
 70
     0
  0
APPID
  2
GENIUS_GENSCSYM_13
 70
     0
  0
APPID
  2
GENIUS_GEFINFNAM_13
 70
     0
  0
APPID
  2
GENIUS_GENOBJ-N-CEN_13
 70
     0
  0
APPID
  2
GENIUS_GENOBJ-N-CRS_13
 70
     0
  0
APPID
  2
GENIUS_GENOBJ-N-CRC_13
 70
     0
  0
APPID
  2
GENIUS_GENCRC_14
 70
     0
  0
APPID
  2
GEVID942827039
 70
     0
  0
APPID
  2
GEVID942827040
 70
     0
  0
APPID
  2
GEVID942827041
 70
     0
  0
APPID
  2
GENIUS_GENOBJ-F-SCPASSM_13
 70
     0
  0
APPID
  2
GENIUS_GENDIMSH_14
 70
     0
  0
APPID
  2
GEVID942827042
 70
     0
  0
APPID
  2
GEVID946020473
 70
     0
  0
APPID
  2
GEVID946020474
 70
     0
  0
APPID
  2
GEVID946020475
 70
     0
  0
APPID
  2
GENIUS_GENOBJ-N-HTC_13
 70
     0
  0
APPID
  2
GENIUS_GENHATCH_13
 70
     0
  0
APPID
  2
GEVID948854295
 70
     0
  0
APPID
  2
GEVID939402019
 70
     0
  0
APPID
  2
GEVID952919491
 70
     0
  0
APPID
  2
GEVID952919492
 70
     0
  0
APPID
  2
GENIUS_GEFWELD_13
 70
     0
  0
APPID
  2
GENIUS_GENOBJ-F-WELS_13
 70
     0
  0
APPID
  2
GEVID952919493
 70
     0
  0
APPID
  2
GENIUS_GENOBJ-N-RSBK_13
 70
     0
  0
APPID
  2
GENIUS_GENOBJ-N-LIB_13
 70
     0
  0
APPID
  2
GENIUS_GENSCALE_13
 70
     0
  0
APPID
  2
GEVID986376691
 70
     0
  0
APPID
  2
DCO15
 70
     0
  0
APPID
  2
ACAD_DSTYLE_DIMBREAK
 70
     0
  0
APPID
  2
ACAD_DSTYLE_DIMJAG
 70
     0
  0
APPID
  2
ACAD_NAV_VCDISPLAY
 70
     0
  0
APPID
  2
ACADANNOPO
 70
     0
  0
APPID
  2
ACAD_EXEMPT_FROM_CAD_STANDARDS
 70
     0
  0
APPID
  2
ACAD_MLEADERVER
 70
     0
  0
ENDTAB
  0
TABLE
  2
DIMSTYLE
 70
    22
  0
DIMSTYLE
  2
STANDARD
 70
     0
  3

  4

  5

  6

  7

 40
1.0
 41
0.18
 42
0.0625
 43
0.38
 44
0.18
 45
0.0
 46
0.0
 47
0.0
 48
0.0
140
0.18
141
0.09
142
0.0
143
25.399999999999999
144
1.0
145
0.0
146
1.0
147
0.09
 71
     0
 72
     0
 73
     1
 74
     1
 75
     0
 76
     0
 77
     0
 78
     0
170
     0
171
     2
172
     0
173
     0
174
     0
175
     0
176
     0
177
     0
178
     0
  0
DIMSTYLE
  2
ANNOTATIVE
 70
     0
  3

  4

  5

  6

  7

 40
1.0
 41
0.18
 42
0.0625
 43
0.38
 44
0.18
 45
0.0
 46
0.0
 47
0.0
 48
0.0
140
0.18
141
0.09
142
0.0
143
25.399999999999999
144
1.0
145
0.0
146
1.0
147
0.09
 71
     0
 72
     0
 73
     1
 74
     1
 75
     0
 76
     0
 77
     0
 78
     0
170
     0
171
     2
172
     0
173
     0
174
     0
175
     0
176
     0
177
     0
178
     0
  0
DIMSTYLE
  2
AM_ISO
 70
     0
  3

  4
"
  5

  6

  7

 40
1.0
 41
2.5
 42
1.0
 43
8.0
 44
0.6
 45
0.0
 46
0.0
 47
0.1
 48
0.1
140
2.5
141
0.0
142
0.0
143
0.0393701
144
1.0
145
0.0
146
0.71
147
0.8
 71
     0
 72
     0
 73
     0
 74
     0
 75
     0
 76
     0
 77
     1
 78
     8
170
     0
171
     2
172
     1
173
     0
174
     0
175
     0
176
   256
177
   256
178
     4
  0
DIMSTYLE
  2
AM_ISO$3
 70
     0
  3

  4
"
  5

  6

  7

 40
1.0
 41
2.5
 42
1.0
 43
8.0
 44
0.6
 45
0.0
 46
0.0
 47
0.1
 48
0.1
140
2.5
141
0.0
142
0.0
143
0.0393701
144
1.0
145
0.0
146
0.71
147
0.8
 71
     0
 72
     0
 73
     0
 74
     1
 75
     0
 76
     0
 77
     1
 78
     8
170
     0
171
     2
172
     0
173
     0
174
     0
175
     0
176
   256
177
   256
178
     4
  0
DIMSTYLE
  2
AM_ISO$4
 70
     0
  3

  4
"
  5

  6

  7

 40
1.0
 41
2.5
 42
1.0
 43
8.0
 44
0.6
 45
0.0
 46
0.0
 47
0.1
 48
0.1
140
2.5
141
0.0
142
0.0
143
0.0393701
144
1.0
145
0.0
146
0.71
147
0.8
 71
     0
 72
     0
 73
     0
 74
     1
 75
     0
 76
     0
 77
     1
 78
     8
170
     0
171
     2
172
     0
173
     0
174
     0
175
     0
176
   256
177
   256
178
     4
  0
DIMSTYLE
  2
AM_ISO$6
 70
     0
  3

  4
"
  5

  6

  7

 40
1.0
 41
2.5
 42
1.0
 43
8.0
 44
0.6
 45
0.0
 46
0.0
 47
0.1
 48
0.1
140
2.5
141
0.0
142
0.0
143
0.0393701
144
1.0
145
0.0
146
0.71
147
0.8
 71
     0
 72
     0
 73
     0
 74
     0
 75
     0
 76
     0
 77
     0
 78
     8
170
     0
171
     2
172
     1
173
     0
174
     0
175
     0
176
   256
177
   256
178
     4
  0
DIMSTYLE
  2
AM_ISO$7
 70
     0
  3

  4
"
  5

  6

  7

 40
1.0
 41
2.5
 42
1.0
 43
8.0
 44
0.6
 45
0.0
 46
0.0
 47
0.1
 48
0.1
140
2.5
141
0.0
142
0.0
143
0.0393701
144
1.0
145
0.0
146
0.71
147
0.8
 71
     0
 72
     0
 73
     0
 74
     0
 75
     0
 76
     0
 77
     1
 78
     8
170
     0
171
     2
172
     1
173
     0
174
     0
175
     0
176
   256
177
   256
178
     4
  0
DIMSTYLE
  2
AM_ISO$SF
 70
     0
  3

  4
"
  5

  6

  7

 40
1.0
 41
2.5
 42
1.0
 43
10.0
 44
1.0
 45
0.0
 46
0.0
 47
0.1
 48
0.1
140
3.5
141
0.0
142
0.0
143
0.0393701
144
1.0
145
0.0
146
0.71
147
1.5
 71
     0
 72
     0
 73
     0
 74
     0
 75
     1
 76
     1
 77
     1
 78
     8
170
     0
171
     2
172
     1
173
     0
174
     0
175
     0
176
   256
177
   256
178
     2
  0
DIMSTYLE
  2
AM_ISO$SH
 70
     0
  3

  4
"
  5

  6

  7

 40
1.0
 41
2.5
 42
1.0
 43
10.0
 44
1.0
 45
0.0
 46
0.0
 47
0.1
 48
0.1
140
3.5
141
0.0
142
0.0
143
0.0393701
144
2.0
145
0.0
146
0.71
147
1.5
 71
     0
 72
     0
 73
     0
 74
     0
 75
     1
 76
     1
 77
     1
 78
     8
170
     0
171
     2
172
     1
173
     1
174
     0
175
     0
176
   256
177
   256
178
     2
  0
DIMSTYLE
  2
AM_JIS
 70
     0
  3

  4
"
  5

  6

  7

 40
1.0
 41
2.5
 42
1.0
 43
7.0
 44
1.0
 45
0.0
 46
0.0
 47
0.1
 48
0.1000000001
140
2.5
141
0.0
142
0.0
143
0.0393701
144
1.0
145
0.0
146
0.71
147
1.0
 71
     0
 72
     0
 73
     0
 74
     0
 75
     0
 76
     0
 77
     3
 78
     8
170
     0
171
     2
172
     1
173
     0
174
     0
175
     0
176
   256
177
   256
178
     4
  0
DIMSTYLE
  2
AM_JIS$3
 70
     0
  3

  4
"
  5

  6

  7

 40
1.0
 41
2.5
 42
1.0
 43
7.0
 44
1.0
 45
0.0
 46
0.0
 47
0.1
 48
0.1000000001
140
2.5
141
0.0
142
0.0
143
0.0393701
144
1.0
145
0.0
146
0.71
147
1.0
 71
     0
 72
     0
 73
     0
 74
     1
 75
     0
 76
     0
 77
     3
 78
     8
170
     0
171
     2
172
     0
173
     0
174
     0
175
     0
176
   256
177
   256
178
     4
  0
DIMSTYLE
  2
AM_JIS$4
 70
     0
  3

  4
"
  5

  6

  7

 40
1.0
 41
2.5
 42
1.0
 43
7.0
 44
1.0
 45
0.0
 46
0.0
 47
0.1
 48
0.1000000001
140
2.5
141
0.0
142
0.0
143
0.0393701
144
1.0
145
0.0
146
0.71
147
1.0
 71
     0
 72
     0
 73
     0
 74
     0
 75
     0
 76
     0
 77
     3
 78
     8
170
     0
171
     2
172
     0
173
     0
174
     0
175
     0
176
   256
177
   256
178
     4
  0
DIMSTYLE
  2
AM_JIS$6
 70
     0
  3

  4
"
  5

  6

  7

 40
1.0
 41
2.5
 42
1.0
 43
7.0
 44
1.0
 45
0.0
 46
0.0
 47
0.1
 48
0.1000000001
140
2.5
141
0.0
142
0.0
143
0.0393701
144
1.0
145
0.0
146
0.71
147
1.0
 71
     0
 72
     0
 73
     0
 74
     0
 75
     0
 76
     0
 77
     0
 78
     8
170
     0
171
     2
172
     1
173
     0
174
     0
175
     0
176
   256
177
   256
178
     4
  0
DIMSTYLE
  2
AM_JIS$7
 70
     0
  3

  4
"
  5

  6

  7

 40
1.0
 41
2.5
 42
1.0
 43
7.0
 44
1.0
 45
0.0
 46
0.0
 47
0.1
 48
0.1000000001
140
2.5
141
0.0
142
0.0
143
0.0393701
144
1.0
145
0.0
146
0.71
147
1.0
 71
     0
 72
     0
 73
     0
 74
     0
 75
     0
 76
     0
 77
     3
 78
     8
170
     0
171
     2
172
     1
173
     0
174
     0
175
     0
176
   256
177
   256
178
     4
  0
DIMSTYLE
  2
AM_JIS$SF
 70
     0
  3

  4
"
  5

  6

  7

 40
1.0
 41
2.5
 42
1.0
 43
10.0
 44
1.0
 45
0.0
 46
0.0
 47
0.1
 48
0.1
140
3.5
141
0.0
142
0.0
143
0.0393701
144
1.0
145
0.0
146
0.71
147
1.5
 71
     0
 72
     0
 73
     0
 74
     0
 75
     1
 76
     1
 77
     3
 78
     8
170
     0
171
     2
172
     1
173
     0
174
     0
175
     0
176
   256
177
   256
178
     4
  0
DIMSTYLE
  2
AM_JIS$SH
 70
     0
  3

  4
"
  5

  6

  7

 40
1.0
 41
2.5
 42
1.0
 43
10.0
 44
1.0
 45
0.0
 46
0.0
 47
0.1
 48
0.1
140
3.5
141
0.0
142
0.0
143
0.0393701
144
1.0
145
0.0
146
0.71
147
1.5
 71
     0
 72
     0
 73
     0
 74
     0
 75
     1
 76
     0
 77
     3
 78
     8
170
     0
171
     2
172
     1
173
     1
174
     0
175
     0
176
   256
177
   256
178
     4
  0
DIMSTYLE
  2
AM_ANSI
 70
     0
  3

  4
mm
  5

  6

  7

 40
1.0
 41
0.1
 42
0.05
 43
0.5
 44
0.1
 45
0.0
 46
0.0
 47
0.1
 48
0.1
140
0.12
141
0.0
142
0.0
143
25.399999999999999
144
1.0
145
0.0
146
0.71
147
0.06
 71
     0
 72
     0
 73
     1
 74
     1
 75
     0
 76
     0
 77
     0
 78
     7
170
     0
171
     2
172
     0
173
     0
174
     0
175
     0
176
   256
177
   256
178
     2
  0
DIMSTYLE
  2
AM_ANSI$3
 70
     0
  3

  4
mm
  5

  6

  7

 40
1.0
 41
0.1
 42
0.05
 43
0.5
 44
0.1
 45
0.0
 46
0.0
 47
0.1
 48
0.1
140
0.12
141
0.0
142
0.0
143
25.399999999999999
144
1.0
145
0.0
146
0.71
147
0.06
 71
     0
 72
     0
 73
     1
 74
     1
 75
     0
 76
     0
 77
     0
 78
     7
170
     0
171
     2
172
     0
173
     0
174
     0
175
     0
176
   256
177
   256
178
     2
  0
DIMSTYLE
  2
AM_ANSI$4
 70
     0
  3

  4
mm
  5

  6

  7

 40
1.0
 41
0.1
 42
0.05
 43
0.5
 44
0.1
 45
0.0
 46
0.0
 47
0.1
 48
0.1
140
0.12
141
0.0
142
0.0
143
25.399999999999999
144
1.0
145
0.0
146
0.71
147
0.06
 71
     0
 72
     0
 73
     1
 74
     1
 75
     0
 76
     0
 77
     0
 78
     7
170
     0
171
     2
172
     0
173
     0
174
     0
175
     0
176
   256
177
   256
178
     2
  0
DIMSTYLE
  2
AM_ANSI$7
 70
     0
  3

  4
mm
  5

  6

  7

 40
1.0
 41
0.1
 42
0.05
 43
0.5
 44
0.1
 45
0.0
 46
0.0
 47
0.1
 48
0.1
140
0.24
141
0.0
142
0.0
143
25.399999999999999
144
1.0
145
0.0
146
0.71
147
0.06
 71
     0
 72
     0
 73
     1
 74
     1
 75
     0
 76
     0
 77
     0
 78
     7
170
     0
171
     2
172
     0
173
     0
174
     0
175
     0
176
   256
177
   256
178
     2
  0
DIMSTYLE
  2
AM_ANSI$SF
 70
     0
  3

  4
mm
  5

  6

  7

 40
1.0
 41
0.1
 42
0.05
 43
0.5
 44
0.1
 45
0.0
 46
0.0
 47
0.1
 48
0.1
140
0.12
141
0.0
142
0.0
143
25.399999999999999
144
1.0
145
0.0
146
0.71
147
0.06
 71
     0
 72
     0
 73
     1
 74
     1
 75
     1
 76
     1
 77
     0
 78
     7
170
     0
171
     2
172
     0
173
     0
174
     0
175
     0
176
   256
177
   256
178
     2
  0
DIMSTYLE
  2
AM_ANSI$SH
 70
     0
  3

  4
mm
  5

  6

  7

 40
1.0
 41
0.1
 42
0.05
 43
0.5
 44
0.1
 45
0.0
 46
0.0
 47
0.1
 48
0.1
140
0.12
141
0.0
142
0.0
143
25.399999999999999
144
1.0
145
0.0
146
0.71
147
0.06
 71
     0
 72
     0
 73
     1
 74
     1
 75
     1
 76
     1
 77
     0
 78
     7
170
     0
171
     2
172
     0
173
     1
174
     0
175
     0
176
   256
177
   256
178
     2
  0
ENDTAB
  0
ENDSEC
  0
SECTION
  2
BLOCKS
  0
BLOCK
  8
0
  2
$MODEL_SPACE
 70
     0
 10
0.0
 20
0.0
 30
0.0
  3
$MODEL_SPACE
  1

  0
ENDBLK
  5
2DCB
  8
0
  0
BLOCK
 67
     1
  8
0
  2
$PAPER_SPACE
 70
     0
 10
0.0
 20
0.0
 30
0.0
  3
$PAPER_SPACE
  1

  0
ENDBLK
  5
2DC7
 67
     1
  8
0
  0
BLOCK
  8
0
  2
GENAXEH
 70
     0
 10
0.0
 20
0.0
 30
0.0
  3
GENAXEH
  1

  0
LINE
  5
2BB5
  8
0
 10
-1.0
 20
0.0
 30
0.0
 11
1.0
 21
0.0
 31
0.0
  0
ENDBLK
  5
2BB6
  8
0
  0
BLOCK
  8
0
  2
_OPEN30
 70
     0
 10
0.0
 20
0.0
 30
0.0
  3
_OPEN30
  1

  0
LINE
  5
2BB9
  8
0
 62
     0
 10
-1.0
 20
0.26794919
 30
0.0
 11
0.0
 21
0.0
 31
0.0
  0
LINE
  5
2BBA
  8
0
 62
     0
 10
0.0
 20
0.0
 30
0.0
 11
-1.0
 21
-0.26794919
 31
0.0
  0
LINE
  5
2BBB
  8
0
 62
     0
 10
0.0
 20
0.0
 30
0.0
 11
-1.0
 21
0.0
 31
0.0
  0
ENDBLK
  5
2BBC
  8
0
  0
BLOCK
  8
0
  2
_NONE
 70
     0
 10
0.0
 20
0.0
 30
0.0
  3
_NONE
  1

  0
ENDBLK
  5
2BBF
  8
0
  0
BLOCK
  8
0
  2
*U5
 70
     1
 10
0.0
 20
0.0
 30
0.0
  3
*U5
  1

  0
TEXT
  5
2BC2
  8
AM_0
 62
     4
 10
1066.5850221579419
 20
614.3931010257179
 30
0.0
 40
12.5
  1
o
 41
0.8299999999999999
  0
TEXT
  5
2BC3
  8
AM_0
 62
     4
 10
1078.9362126341309
 20
614.3931010257179
 30
0.0
 40
12.5
  1
 235
 41
0.8299999999999999
  0
ENDBLK
  5
2BC4
  8
0
  0
BLOCK
  8
0
  2
*U6
 70
     1
 10
0.0
 20
0.0
 30
0.0
  3
*U6
  1

  0
TEXT
  5
2BC7
  8
AM_0
 62
     4
 10
845.05602120261642
 20
399.27138765229171
 30
0.0
 40
12.5
  1
\U+2205
 50
90.0
 41
0.8299999999999999
  0
TEXT
  5
2BC8
  8
AM_0
 62
     4
 10
845.05602120261642
 20
409.64638765229171
 30
0.0
 40
12.5
  1
210
 50
90.0
 41
0.8299999999999999
  0
TEXT
  5
2BC9
  8
AM_0
 62
     4
 10
845.05602120261642
 20
435.58388765229159
 30
0.0
 40
10.0
  1
h7
 50
90.0
 41
0.8299999999999999
  0
ENDBLK
  5
2BCA
  8
0
  0
BLOCK
  8
0
  2
*U7
 70
     1
 10
0.0
 20
0.0
 30
0.0
  3
*U7
  1

  0
TEXT
  5
2BCD
  8
AM_0
 62
     4
 10
435.76883491892289
 20
371.27138865229171
 30
0.0
 40
12.5
  1
\U+2205
 50
90.0
 41
0.8299999999999999
  0
TEXT
  5
2BCE
  8
AM_0
 62
     4
 10
435.76883491892289
 20
381.64638865229171
 30
0.0
 40
12.5
  1
180
 50
90.0
 41
0.8299999999999999
  0
TEXT
  5
2BCF
  8
AM_0
 62
     4
 10
435.76883491892289
 20
407.58388865229171
 30
0.0
 40
10.0
  1
G7
 50
90.0
 41
0.8299999999999999
  0
ENDBLK
  5
2BD0
  8
0
  0
BLOCK
  8
0
  2
*U8
 70
     1
 10
0.0
 20
0.0
 30
0.0
  3
*U8
  1

  0
TEXT
  5
2BD3
  8
AM_0
 62
     4
 10
399.5513033069754
 20
378.18805531895828
 30
0.0
 40
12.5
  1
\U+2205
 50
90.0
 41
0.8299999999999999
  0
TEXT
  5
2BD4
  8
AM_0
 62
     4
 10
399.5513033069754
 20
388.56305531895828
 30
0.0
 40
12.5
  1
250
 50
90.0
 41
0.8299999999999999
  0
ENDBLK
  5
2BD5
  8
0
  0
BLOCK
  8
0
  2
*U9
 70
     1
 10
0.0
 20
0.0
 30
0.0
  3
*U9
  1

  0
TEXT
  5
2BD8
  8
AM_0
 62
     4
 10
618.87650331324221
 20
315.9838427318208
 30
0.0
 40
12.5
  1
\U+2205
 50
90.0
 41
0.8299999999999999
  0
TEXT
  5
2BD9
  8
AM_0
 62
     4
 10
618.87650331324221
 20
326.35884273182057
 30
0.0
 40
12.5
  1
210
 50
90.0
 41
0.8299999999999999
  0
TEXT
  5
2BDA
  8
AM_0
 62
     4
 10
618.87650331324221
 20
352.29634273182091
 30
0.0
 40
10.0
  1
h7
 50
90.0
 41
0.8299999999999999
  0
ENDBLK
  5
2BDB
  8
0
  0
BLOCK
  8
0
  2
*U10
 70
     1
 10
0.0
 20
0.0
 30
0.0
  3
*U10
  1

  0
TEXT
  5
2BDE
  8
AM_0
 62
     4
 10
173.3717854176011
 20
294.9005103984872
 30
0.0
 40
12.5
  1
\U+2205
 50
90.0
 41
0.8299999999999999
  0
TEXT
  5
2BDF
  8
AM_0
 62
     4
 10
173.3717854176011
 20
305.2755103984872
 30
0.0
 40
12.5
  1
250
 50
90.0
 41
0.8299999999999999
  0
ENDBLK
  5
2BE0
  8
0
  0
BLOCK
  8
0
  2
*U11
 70
     1
 10
0.0
 20
0.0
 30
0.0
  3
*U11
  1

  0
TEXT
  5
2BE3
  8
AM_0
 62
     4
 10
209.5893170295484
 20
287.98384373182063
 30
0.0
 40
12.5
  1
\U+2205
 50
90.0
 41
0.8299999999999999
  0
TEXT
  5
2BE4
  8
AM_0
 62
     4
 10
209.5893170295484
 20
298.35884373182068
 30
0.0
 40
12.5
  1
180
 50
90.0
 41
0.8299999999999999
  0
TEXT
  5
2BE5
  8
AM_0
 62
     4
 10
209.5893170295484
 20
324.29634373182068
 30
0.0
 40
10.0
  1
G7
 50
90.0
 41
0.8299999999999999
  0
ENDBLK
  5
2BE6
  8
0
  0
BLOCK
  8
0
  2
*U12
 70
     1
 10
0.0
 20
0.0
 30
0.0
  3
*U12
  1

  0
TEXT
  5
2BE9
  8
AM_0
 62
     4
 10
840.40550426856805
 20
531.10555610524693
 30
0.0
 40
12.5
  1
o
 41
0.8299999999999999
  0
TEXT
  5
2BEA
  8
AM_0
 62
     4
 10
852.75669474475831
 20
531.10555610524693
 30
0.0
 40
12.5
  1
 235
 41
0.8299999999999999
  0
ENDBLK
  5
2BEB
  8
0
  0
BLOCK
  8
0
  2
_ACMFILLEDHALF
 70
     0
 10
0.0
 20
0.0
 30
0.0
  3
_ACMFILLEDHALF
  1

  0
TRACE
  5
2ED1
  8
AM_0
 62
     0
 10
-0.8
 20
0.0
 30
0.0
 11
-1.0
 21
0.166666666
 31
0.0
 12
0.0
 22
0.0
 32
0.0
 13
0.0
 23
0.0
 33
0.0
  0
LINE
  5
2ED2
  8
AM_0
 62
     0
 10
-1.0
 20
0.0
 30
0.0
 11
-0.8
 21
0.0
 31
0.0
  0
ENDBLK
  5
2ED0
  8
0
  0
ENDSEC
  0
SECTION
  2
ENTITIES
  0
LINE
  5
2BEC
  8
AM_0
 10
493.63399357337818
 20
646.22793345860248
 30
0.0
 11
538.63402357337816
 21
646.22793345860248
 31
0.0
  0
LINE
  5
2BED
  8
AM_0
 10
493.63399357337818
 20
656.22793345860225
 30
0.0
 11
538.63402357337816
 21
656.22793345860225
 31
0.0
  0
LINE
  5
2BEE
  8
AM_0
 10
538.63402357337816
 20
635.22793345860237
 30
0.0
 11
480.63399357337818
 21
635.22793345860237
 31
0.0
  0
LINE
  5
2BEF
  8
AM_0
 10
538.63402357337816
 20
667.22793345860248
 30
0.0
 11
480.63399357337818
 21
667.22793345860248
 31
0.0
  0
LINE
  5
2BF0
  8
ﾁｭｳｼﾝｾﾝ
 10
230.45897006228941
 20
651.22793345860248
 30
0.0
 11
550.01348357337815
 21
651.22793345860248
 31
0.0
  0
POLYLINE
  5
2BF1
  8
AM_0
 66
     1
 10
0.0
 20
0.0
 30
0.0
  0
VERTEX
  5
2BF2
  8
AM_0
 10
454.30010357337829
 20
753.89406345860243
 30
0.0
 42
0.07982674
  0
VERTEX
  5
2BF3
  8
AM_0
 10
428.45827357337822
 20
686.98761345860225
 30
0.0
 42
0.10414855
  0
VERTEX
  5
2BF4
  8
AM_0
 10
428.4583435733781
 20
615.46788345860227
 30
0.0
 42
0.07982627
  0
VERTEX
  5
2BF5
  8
AM_0
 10
454.30010357337829
 20
548.56179345860255
 30
0.0
  0
SEQEND
  5
2BF6
  8
AM_0
  0
ARC
  5
2BF7
  8
AM_0
 10
493.63399357337818
 20
651.22793345860248
 30
0.0
 40
5.0
 50
90.00000299999769
 51
270.0
  0
ARC
  5
2BF8
  8
AM_0
 10
351.63396357337831
 20
639.22793345860237
 30
0.0
 40
8.0
 50
23.18801899999854
 51
156.8119800000035
  0
ARC
  5
2BF9
  8
AM_0
 10
351.63396357337831
 20
639.22793345860237
 30
0.0
 40
9.0
 50
94.780191999998834
 51
159.51269999999971
  0
LINE
  5
2BFA
  8
AM_0
 10
493.63399357337818
 20
656.22793345860225
 30
0.0
 11
493.63399357337818
 21
646.22793345860248
 31
0.0
  0
LINE
  5
2BFB
  8
AM_0
 10
461.63399357337818
 20
537.1488034586024
 30
0.0
 11
461.63399357337818
 21
765.3070334586024
 31
0.0
  0
LINE
  5
2BFC
  8
AM_0
 10
468.63399357337818
 20
560.62820345860246
 30
0.0
 11
468.63399357337818
 21
741.8276634586025
 31
0.0
  0
LINE
  5
2BFD
  8
AM_0
 10
476.63399357337818
 20
533.72793345860248
 30
0.0
 11
476.63399357337818
 21
768.72793345860225
 31
0.0
  0
LINE
  5
2BFE
  8
AM_0
 10
480.63399357337818
 20
546.22790345860233
 30
0.0
 11
480.63399357337818
 21
756.22793345860225
 31
0.0
  0
LINE
  5
2BFF
  8
AM_0
 10
363.63396357337831
 20
642.37795345860241
 30
0.0
 11
363.63396357337831
 21
750.72793345860248
 31
0.0
  0
LINE
  5
2C00
  8
AM_0
 10
335.63396357337831
 20
643.72591345860246
 30
0.0
 11
335.63396357337831
 21
662.19369345860252
 31
0.0
  0
LINE
  5
2C01
  8
AM_0
 10
333.63396357337831
 20
565.22793345860271
 30
0.0
 11
333.63396357337831
 21
737.22793345860271
 31
0.0
  0
LINE
  5
2C02
  8
AM_0
 10
338.4839435733781
 20
642.37795345860241
 30
0.0
 11
364.78393357337808
 21
642.37795345860241
 31
0.0
  0
LINE
  5
2C03
  8
AM_0
 10
338.4839435733781
 20
636.07790345860235
 30
0.0
 11
364.78393357337808
 21
636.07790345860235
 31
0.0
  0
LINE
  5
2C04
  8
ﾁｭｳｼﾝｾﾝ
 10
334.25426357337813
 20
639.22793345860237
 30
0.0
 11
369.55254357337822
 21
639.22793345860237
 31
0.0
  0
LINE
  5
2C05
  8
AM_0
 10
356.52929357337808
 20
551.97604345860225
 30
0.0
 11
363.63390357337829
 21
551.72793345860237
 31
0.0
  0
LINE
  5
2C06
  8
AM_0
 10
353.63396357337831
 20
554.97420345860235
 30
0.0
 11
353.63396357337831
 21
627.26968345860246
 31
0.0
  0
LINE
  5
2C07
  8
AM_0
 10
333.63396357337831
 20
567.72793345860248
 30
0.0
 11
348.80846357337822
 21
567.19802345860228
 31
0.0
  0
ARC
  5
2C08
  8
AM_0
 10
356.63396357337831
 20
554.97420345860235
 30
0.0
 40
3.0
 50
180.00001000000091
 51
267.99999999999631
  0
ARC
  5
2C09
  8
AM_0
 10
348.63396357337831
 20
562.20107345860242
 30
0.0
 40
5.0
 50
0.0
 51
87.999999999996248
  0
ARC
  5
2C0A
  8
AM_0
 10
351.63396357337831
 20
639.22793345860237
 30
0.0
 40
9.0
 50
200.4873
 51
265.21980000000372
  0
ARC
  5
2C0B
  8
AM_0
 10
342.18328357337828
 20
642.49660345860252
 30
0.0
 40
1.0
 50
353.18505000000079
 51
87.999999999996248
  0
ARC
  5
2C0C
  8
AM_0
 10
338.4839435733781
 20
639.22793345860237
 30
0.0
 40
3.1499977000000001
 50
90.00000299999769
 51
270.0
  0
LINE
  5
2C0D
  8
AM_0
 10
335.63396357337831
 20
643.72591345860246
 30
0.0
 11
342.21819357337819
 21
643.49599345860236
 31
0.0
  0
ARC
  5
2C0E
  8
AM_0
 10
351.63396357337831
 20
639.22793345860237
 30
0.0
 40
8.0
 50
203.18801999999641
 51
336.81196999999531
  0
ARC
  5
2C0F
  8
AM_0
 10
350.63396357337831
 20
627.26968345860246
 30
0.0
 40
3.0
 50
0.0
 51
85.219805999998442
  0
LINE
  5
2C10
  8
AM_0
 10
455.69280357337828
 20
547.16912345860248
 30
0.0
 11
461.6340235733781
 21
541.22790345860233
 31
0.0
  0
ARC
  5
2C11
  8
AM_0
 10
464.63399357337818
 20
537.1488034586024
 30
0.0
 40
3.0
 50
179.9999899999988
 51
268.00000999999861
  0
LINE
  5
2C12
  8
AM_0
 10
464.52932357337829
 20
534.15063345860233
 30
0.0
 11
476.63399357337818
 21
533.72793345860248
 31
0.0
  0
LINE
  5
2C13
  8
AM_0
 10
363.63402357337822
 20
551.72793345860237
 30
0.0
 11
452.33178357337829
 21
548.63055345860232
 31
0.0
  0
LINE
  5
2C14
  8
AM_0
 10
363.63396357337831
 20
551.72793345860237
 30
0.0
 11
363.63396357337831
 21
636.07790345860235
 31
0.0
  0
ARC
  5
2C15
  8
AM_0
 10
364.78393357337808
 20
639.22793345860237
 30
0.0
 40
3.1499977000000001
 50
270.0
 51
90.00000299999769
  0
ARC
  5
2C16
  8
AM_0
 10
464.63399357337818
 20
592.31719345860245
 30
0.0
 40
3.0
 50
90.00000299999769
 51
180.00001000000091
  0
ARC
  5
2C17
  8
AM_0
 10
452.15725357337823
 20
543.63357345860265
 30
0.0
 40
5.0
 50
45.000001000003799
 51
87.999999999996248
  0
LINE
  5
2C18
  8
AM_0
 10
476.63399357337818
 20
546.22790345860233
 30
0.0
 11
480.63399357337818
 21
546.22790345860233
 31
0.0
  0
ARC
  5
2C19
  8
AM_0
 10
465.63399357337818
 20
560.62820345860246
 30
0.0
 40
3.0
 50
267.99999999999631
 51
0.0
  0
LINE
  5
2C1A
  8
AM_0
 10
465.34945357337818
 20
557.63631345860233
 30
0.0
 11
465.52932357337829
 21
557.63003345860216
 31
0.0
  0
LINE
  5
2C1B
  8
AM_0
 10
464.63399357337818
 20
595.31719345860245
 30
0.0
 11
468.63399357337818
 21
595.31719345860245
 31
0.0
  0
LINE
  5
2C1C
  8
AM_0
 10
356.52929357337808
 20
750.47982345860248
 30
0.0
 11
363.63396357337831
 21
750.72793345860248
 31
0.0
  0
ARC
  5
2C1D
  8
AM_0
 10
356.63396357337831
 20
747.48165345860241
 30
0.0
 40
3.0
 50
91.999998000000545
 51
180.00001000000091
  0
LINE
  5
2C1E
  8
AM_0
 10
353.63396357337831
 20
651.18618345860227
 30
0.0
 11
353.63396357337831
 21
747.48165345860241
 31
0.0
  0
LINE
  5
2C1F
  8
AM_0
 10
335.63402357337827
 20
662.19369345860252
 30
0.0
 11
350.7387035733783
 21
662.72115345860232
 31
0.0
  0
LINE
  5
2C20
  8
AM_0
 10
335.63396357337831
 20
658.72994345860252
 30
0.0
 11
350.7387035733783
 21
659.2574134586024
 31
0.0
  0
ARC
  5
2C21
  8
AM_0
 10
350.63396357337831
 20
662.25558345860225
 30
0.0
 40
3.0
 50
272.00000000000369
 51
0.0
  0
ARC
  5
2C22
  8
AM_0
 10
350.63396357337831
 20
651.18618345860227
 30
0.0
 40
3.0
 50
274.78019999999628
 51
0.0
  0
ARC
  5
2C23
  8
AM_0
 10
350.63396357337831
 20
665.71932345860228
 30
0.0
 40
3.0
 50
272.00000000000369
 51
0.0
  0
LINE
  5
2C24
  8
AM_0
 10
333.63396357337831
 20
734.72793345860248
 30
0.0
 11
348.80846357337822
 21
735.25783345860225
 31
0.0
  0
ARC
  5
2C25
  8
AM_0
 10
348.63396357337831
 20
740.25478345860245
 30
0.0
 40
5.0
 50
272.00000000000369
 51
0.0
  0
ARC
  5
2C26
  8
AM_0
 10
464.63399357337818
 20
710.13869345860235
 30
0.0
 40
3.0
 50
179.9999899999988
 51
270.0
  0
LINE
  5
2C27
  8
AM_0
 10
464.63399357337818
 20
707.13869345860235
 30
0.0
 11
468.63399357337818
 21
707.13869345860235
 31
0.0
  0
ARC
  5
2C28
  8
AM_0
 10
465.63399357337818
 20
741.8276634586025
 30
0.0
 40
3.0
 50
0.0
 51
91.999998000000545
  0
LINE
  5
2C29
  8
AM_0
 10
465.349483573378
 20
744.81954345860242
 30
0.0
 11
465.5292935733782
 21
744.82583345860235
 31
0.0
  0
LINE
  5
2C2A
  8
AM_0
 10
363.63402357337822
 20
750.72793345860248
 30
0.0
 11
452.33178357337829
 21
753.82528345860248
 31
0.0
  0
ARC
  5
2C2B
  8
AM_0
 10
464.63399357337818
 20
765.3070334586024
 30
0.0
 40
3.0
 50
91.999998000000545
 51
180.00001000000091
  0
ARC
  5
2C2C
  8
AM_0
 10
452.15725357337823
 20
758.82229345860242
 30
0.0
 40
5.0
 50
272.00000000000369
 51
315.0
  0
LINE
  5
2C2D
  8
AM_0
 10
455.69280357337828
 20
755.2867734586024
 30
0.0
 11
461.63399357337818
 21
761.22793345860225
 31
0.0
  0
LINE
  5
2C2E
  8
AM_0
 10
476.63399357337818
 20
756.22793345860225
 30
0.0
 11
480.63399357337818
 21
756.22793345860225
 31
0.0
  0
LINE
  5
2C2F
  8
AM_0
 10
464.52932357337829
 20
768.30520345860225
 30
0.0
 11
476.63402357337827
 21
768.72793345860225
 31
0.0
  0
LINE
  5
2C30
  8
AM_0
 10
538.63402357337816
 20
635.22793345860237
 30
0.0
 11
538.63402357337816
 21
667.22793345860248
 31
0.0
  0
LINE
  5
2C32
  8
AM_0
 10
538.63402357337816
 20
357.0567763984871
 30
0.0
 11
480.63403357337847
 21
357.0567763984871
 31
0.0
  0
LINE
  5
2C33
  8
AM_0
 10
538.63402357337816
 20
325.0567603984872
 30
0.0
 11
480.63403357337847
 21
325.0567603984872
 31
0.0
  0
LINE
  5
2C34
  8
ﾁｭｳｼﾝｾﾝ
 10
341.44522992854758
 20
341.0567593984872
 30
0.0
 11
541.41322357337822
 21
341.0567593984872
 31
0.0
  0
LINE
  5
2C35
  8
AM_0
 10
480.63403357337847
 20
236.05675639848721
 30
0.0
 11
480.63403357337847
 21
446.05676239848742
 31
0.0
  0
LINE
  5
2C36
  8
AM_0
 10
449.52187357337817
 20
390.09379339848709
 30
0.0
 11
445.10116357337841
 21
347.4898963984873
 31
0.0
  0
LINE
  5
2C37
  8
AM_0
 10
461.63401357337779
 20
312.29249239848718
 30
0.0
 11
461.63401357337779
 21
399.96752239848718
 31
0.0
  0
LINE
  5
2C38
  8
AM_0
 10
363.6340335733783
 20
412.55678239848709
 30
0.0
 11
363.6340335733783
 21
341.0567593984872
 31
0.0
  0
LINE
  5
2C39
  8
AM_0
 10
476.63401357337813
 20
341.0567593984872
 30
0.0
 11
476.63401357337813
 21
458.55674239848742
 31
0.0
  0
LINE
  5
2C3A
  8
AM_0
 10
468.63403357337847
 20
341.0567593984872
 30
0.0
 11
468.63403357337847
 21
431.6564923984871
 31
0.0
  0
LINE
  5
2C3B
  8
AM_0
 10
333.6340335733783
 20
399.05676039848709
 30
0.0
 11
333.63403357337808
 21
227.05676039848731
 31
0.0
  0
LINE
  5
2C3C
  8
AM_0
 10
353.63401357337818
 20
215.83734139848721
 30
0.0
 11
353.63401357337818
 21
410.2762123984873
 31
0.0
  0
LINE
  5
2C3D
  8
AM_0
 10
343.63408357337801
 20
378.32810839848719
 30
0.0
 11
343.63408357337801
 21
391.32807739848721
 31
0.0
  0
LINE
  5
2C3E
  8
AM_0
 10
351.6340335733783
 20
377.32810939848707
 30
0.0
 11
351.6340335733783
 21
392.32810939848719
 31
0.0
  0
LINE
  5
2C3F
  8
AM_0
 10
254.1340335733781
 20
438.05676039848709
 30
0.0
 11
254.1340335733781
 21
188.0567603984872
 31
0.0
  0
LINE
  5
2C40
  8
AM_0
 10
270.13403357337808
 20
437.05676039848731
 30
0.0
 11
270.13403357337808
 21
189.0567603984872
 31
0.0
  0
LINE
  5
2C41
  8
ﾁｭｳｼﾝｾﾝ
 10
230.4589700622895
 20
313.0567603984872
 30
0.0
 11
373.38104092582353
 21
313.05676039848697
 31
0.0
  0
LINE
  5
2C42
  8
AM_0
 10
254.1340335733781
 20
188.0567603984872
 30
0.0
 11
269.13403357337808
 21
188.0567603984872
 31
0.0
  0
LINE
  5
2C43
  8
AM_0
 10
461.63401357337779
 20
226.13953639848711
 30
0.0
 11
461.63401357337779
 21
276.3675043984872
 31
0.0
  0
LINE
  5
2C44
  8
AM_0
 10
476.63401357337813
 20
223.55675539848741
 30
0.0
 11
476.63401357337813
 21
341.0567593984872
 31
0.0
  0
LINE
  5
2C45
  8
AM_0
 10
363.6340335733783
 20
213.55676239848719
 30
0.0
 11
363.6340335733783
 21
341.0567593984872
 31
0.0
  0
LINE
  5
2C46
  8
AM_0
 10
351.6340335733783
 20
248.7854113984873
 30
0.0
 11
351.6340335733783
 21
233.78540839848719
 31
0.0
  0
LINE
  5
2C47
  8
AM_0
 10
353.63401357337818
 20
232.63897039848709
 30
0.0
 11
459.89755357337799
 21
232.63897039848709
 31
0.0
  0
LINE
  5
2C48
  8
AM_0
 10
363.6340335733783
 20
213.55675639848721
 30
0.0
 11
448.8709335733783
 21
211.3247533984873
 31
0.0
  0
LINE
  5
2C49
  8
AM_0
 10
333.63403357337808
 20
227.05676039848731
 30
0.0
 11
272.87256657337821
 21
221.7408203984873
 31
0.0
  0
ARC
  5
2C4A
  8
AM_0
 10
269.13403357337808
 20
189.0567603984872
 30
0.0
 40
1.0
 50
270.0
 51
0.0
  0
ARC
  5
2C4B
  8
AM_0
 10
273.13403357337808
 20
218.7522363984873
 30
0.0
 40
3.0
 50
94.99999999999973
 51
180.0
  0
LINE
  5
2C4C
  8
AM_0
 10
333.63403357337808
 20
229.5567553984873
 30
0.0
 11
348.80851357337798
 21
229.0268503984872
 31
0.0
  0
LINE
  5
2C4D
  8
AM_0
 10
355.56427357337822
 20
213.83854639848721
 30
0.0
 11
363.6340335733783
 21
213.55674739848729
 31
0.0
  0
ARC
  5
2C4E
  8
AM_0
 10
355.63408357337801
 20
215.83734139848721
 30
0.0
 40
2.00000007
 50
179.9999899999988
 51
268.00000999999861
  0
ARC
  5
2C4F
  8
AM_0
 10
348.63403357337819
 20
224.0299003984872
 30
0.0
 40
5.0000001000000003
 50
0.0
 51
88.000000000002899
  0
LINE
  5
2C50
  8
AM_0
 10
353.63401357337818
 20
233.78540839848719
 30
0.0
 11
351.6340335733783
 21
233.78540839848719
 31
0.0
  0
LINE
  5
2C51
  8
AM_0
 10
448.8709335733783
 20
211.3247473984872
 30
0.0
 11
469.63402357337822
 21
223.31232439848719
 31
0.0
  0
LINE
  5
2C52
  8
AM_0
 10
464.73871357337839
 20
223.14136639848729
 30
0.0
 11
476.63398357337792
 21
223.55675539848741
 31
0.0
  0
ARC
  5
2C53
  8
AM_0
 10
464.63401357337813
 20
226.13953639848711
 30
0.0
 40
3.0
 50
179.9999899999988
 51
271.99999000000139
  0
LINE
  5
2C54
  8
AM_0
 10
353.63401357337818
 20
252.67650739848719
 30
0.0
 11
459.89755357337799
 21
252.67650739848719
 31
0.0
  0
LINE
  5
2C55
  8
AM_0
 10
330.63403357337819
 20
251.13786039848719
 30
0.0
 11
270.13403357337808
 21
251.13786039848719
 31
0.0
  0
LINE
  5
2C56
  8
AM_0
 10
270.13403357337808
 20
287.30985439848718
 30
0.0
 11
329.93773557337801
 21
287.30985439848718
 31
0.0
  0
LINE
  5
2C57
  8
AM_0
 10
270.13403357337808
 20
277.11862239848728
 30
0.0
 11
330.63403357337819
 21
277.11862239848728
 31
0.0
  0
LINE
  5
2C58
  8
AM_0
 10
335.6340135733783
 20
281.94631639848723
 30
0.0
 11
335.6340135733783
 21
257.2038223984872
 31
0.0
  0
LINE
  5
2C59
  8
AM_0
 10
332.63403357337819
 20
287.30985439848718
 30
0.0
 11
332.63403357337819
 21
253.13786039848719
 31
0.0
  0
LINE
  5
2C5A
  8
AM_0
 10
351.6340335733783
 20
234.78542539848729
 30
0.0
 11
343.63408357337801
 21
234.78542539848729
 31
0.0
  0
LINE
  5
2C5B
  8
AM_0
 10
335.6340135733783
 20
257.2038223984872
 30
0.0
 11
353.63401357337818
 21
257.2038223984872
 31
0.0
  0
LINE
  5
2C5C
  8
AM_0
 10
351.6340335733783
 20
247.78542439848721
 30
0.0
 11
343.63408357337801
 21
247.78542439848721
 31
0.0
  0
LINE
  5
2C5D
  8
AM_0
 10
335.6340135733783
 20
270.1942093984872
 30
0.0
 11
353.63401357337818
 21
270.1942093984872
 31
0.0
  0
ARC
  5
2C5E
  8
AM_0
 10
330.63403357337819
 20
253.13786039848719
 30
0.0
 40
2.0
 50
270.0
 51
0.0
  0
LINE
  5
2C5F
  8
AM_0
 10
343.63408357337801
 20
247.78542439848721
 30
0.0
 11
343.63408357337801
 21
234.78542539848729
 31
0.0
  0
LINE
  5
2C60
  8
AM_0
 10
353.63401357337818
 20
248.7854113984873
 30
0.0
 11
351.6340335733783
 21
248.7854113984873
 31
0.0
  0
LINE
  5
2C61
  8
AM_0
 10
335.6340135733783
 20
281.94631639848723
 30
0.0
 11
353.63401357337818
 21
281.94631639848723
 31
0.0
  0
ARC
  5
2C62
  8
AM_0
 10
330.63403357337819
 20
279.11862239848722
 30
0.0
 40
2.0
 50
270.0
 51
0.0
  0
LINE
  5
2C63
  8
AM_0
 10
351.6340335733783
 20
378.32810839848719
 30
0.0
 11
343.63408357337801
 21
378.32810839848719
 31
0.0
  0
LINE
  5
2C64
  8
AM_0
 10
353.63401357337818
 20
377.32810939848707
 30
0.0
 11
351.6340335733783
 21
377.32810939848707
 31
0.0
  0
LINE
  5
2C65
  8
AM_0
 10
468.63403357337847
 20
249.6887773984873
 30
0.0
 11
468.63403357337847
 21
341.0567593984872
 31
0.0
  0
ARC
  5
2C66
  8
AM_0
 10
465.63403357337842
 20
249.6887773984873
 30
0.0
 40
3.0
 50
271.99999999999687
 51
0.0
  0
LINE
  5
2C67
  8
AM_0
 10
463.91857357337801
 20
246.62704039848711
 30
0.0
 11
465.73870357337819
 21
246.6906073984872
 31
0.0
  0
LINE
  5
2C68
  8
AM_0
 10
476.63401357337813
 20
236.05675639848721
 30
0.0
 11
480.63403357337847
 21
236.05675639848721
 31
0.0
  0
LINE
  5
2C69
  8
AM_0
 10
464.63401357337813
 20
279.3675043984872
 30
0.0
 11
468.63403357337847
 21
279.3675043984872
 31
0.0
  0
ARC
  5
2C6A
  8
AM_0
 10
464.63401357337813
 20
276.3675043984872
 30
0.0
 40
3.0
 50
90.00000299999769
 51
180.00001000000091
  0
ARC
  5
2C6B
  8
AM_0
 10
484.88755357337823
 20
343.36150939848721
 30
0.0
 40
40.000001999999981
 50
174.0759799999995
 51
234.45533999999751
  0
LINE
  5
2C6C
  8
AM_0
 10
464.63401357337813
 20
309.2924923984873
 30
0.0
 11
468.63403357337847
 21
309.2924923984873
 31
0.0
  0
ARC
  5
2C6D
  8
AM_0
 10
464.63401357337813
 20
312.29249239848718
 30
0.0
 40
3.0
 50
179.9999899999988
 51
270.0
  0
LINE
  5
2C6E
  8
AM_0
 10
254.1340335733781
 20
438.05676039848709
 30
0.0
 11
269.13403357337808
 21
438.05676039848709
 31
0.0
  0
LINE
  5
2C6F
  8
AM_0
 10
353.63401357337818
 20
392.26118239848722
 30
0.0
 11
448.6275435733782
 21
392.26118239848722
 31
0.0
  0
LINE
  5
2C70
  8
AM_0
 10
363.6340335733783
 20
412.55678239848709
 30
0.0
 11
422.73988357337839
 21
414.10451239848709
 31
0.0
  0
LINE
  5
2C71
  8
AM_0
 10
331.63403357337808
 20
398.9923173984871
 30
0.0
 11
270.13403357337808
 21
398.9923173984871
 31
0.0
  0
LINE
  5
2C72
  8
AM_0
 10
332.63403357337819
 20
412.05676039848709
 30
0.0
 11
272.87256657337821
 21
417.28521139848709
 31
0.0
  0
ARC
  5
2C73
  8
AM_0
 10
273.13403357337808
 20
420.2737953984871
 30
0.0
 40
3.0
 50
180.0
 51
265.00000000000028
  0
ARC
  5
2C74
  8
AM_0
 10
269.13403357337808
 20
437.05676039848731
 30
0.0
 40
1.0
 50
0.0
 51
90.0
  0
ARC
  5
2C75
  8
AM_0
 10
351.6340335733783
 20
427.05674239848702
 30
0.0
 40
16.299997799999989
 50
304.109570000004
 51
235.8904200000035
  0
LINE
  5
2C76
  8
AM_0
 10
345.50779357337819
 20
415.21712239848711
 30
0.0
 11
351.6340335733783
 21
417.05675239848699
 31
0.0
  0
ARC
  5
2C77
  8
AM_0
 10
357.43204357337783
 20
414.41093239848709
 30
0.0
 40
1.0000000199999981
 50
15.000000000000741
 51
74.498792999996866
  0
LINE
  5
2C78
  8
AM_0
 10
335.6340135733783
 20
396.62663239848712
 30
0.0
 11
348.8084535733783
 21
397.08668239848708
 31
0.0
  0
LINE
  5
2C79
  8
AM_0
 10
351.6340335733783
 20
391.32807739848721
 30
0.0
 11
343.63408357337801
 21
391.32807739848721
 31
0.0
  0
LINE
  5
2C7A
  8
AM_0
 10
342.63403357337808
 20
410.05673239848699
 30
0.0
 11
353.63401357337818
 21
410.05673239848699
 31
0.0
  0
LINE
  5
2C7B
  8
AM_0
 10
335.6340135733783
 20
396.62660239848719
 30
0.0
 11
335.6340135733783
 21
412.0567423984873
 31
0.0
  0
ARC
  5
2C7C
  8
AM_0
 10
341.6340135733783
 20
397.8367423984871
 30
0.0
 40
1.0000000199999981
 50
271.99999999999687
 51
0.0
  0
LINE
  5
2C7D
  8
AM_0
 10
333.633973573378
 20
396.55676239848719
 30
0.0
 11
335.6340135733783
 21
396.62663239848712
 31
0.0
  0
LINE
  5
2C7E
  8
AM_0
 10
332.63403357337819
 20
399.05676039848709
 30
0.0
 11
333.6340335733783
 21
399.05676039848709
 31
0.0
  0
LINE
  5
2C7F
  8
AM_0
 10
342.63403357337808
 20
397.8367423984871
 30
0.0
 11
342.63403357337808
 21
410.05673239848699
 31
0.0
  0
LINE
  5
2C80
  8
AM_0
 10
332.63403357337819
 20
399.05676039848709
 30
0.0
 11
332.63403357337819
 21
412.05676039848709
 31
0.0
  0
LINE
  5
2C81
  8
AM_0
 10
335.6340135733783
 20
412.0567423984873
 30
0.0
 11
343.64044357337809
 21
412.0567423984873
 31
0.0
  0
ARC
  5
2C82
  8
AM_0
 10
345.79540357337822
 20
414.25937239848702
 30
0.0
 40
1.0000000199999981
 50
106.7144199999974
 51
164.99999000000179
  0
ARC
  5
2C83
  8
AM_0
 10
340.80301357337828
 20
411.08240239848709
 30
0.0
 40
3.0
 50
344.99999999999909
 51
55.86173700000024
  0
LINE
  5
2C84
  8
AM_0
 10
343.63402357337822
 20
410.05676239848708
 30
0.0
 11
344.82946357337818
 21
414.51821239848709
 31
0.0
  0
ARC
  5
2C85
  8
AM_0
 10
348.63403357337819
 20
402.08360239848707
 30
0.0
 40
5.0000001000000003
 50
271.99999999999687
 51
0.0
  0
LINE
  5
2C86
  8
AM_0
 10
353.63401357337818
 20
392.32810939848719
 30
0.0
 11
351.6340335733783
 21
392.32810939848719
 31
0.0
  0
LINE
  5
2C87
  8
AM_0
 10
355.56418357337822
 20
412.27499239848697
 30
0.0
 11
363.633973573378
 21
412.55678239848709
 31
0.0
  0
ARC
  5
2C88
  8
AM_0
 10
362.46502357337829
 20
411.08240239848709
 30
0.0
 40
3.0
 50
124.1382599999986
 51
153.4747200000015
  0
ARC
  5
2C89
  8
AM_0
 10
355.63408357337801
 20
410.2762123984873
 30
0.0
 40
2.00000007
 50
109.0654000000021
 51
180.00001000000091
  0
ARC
  5
2C8A
  8
AM_0
 10
355.63408357337801
 20
410.2762123984873
 30
0.0
 40
2.00000007
 50
91.999998000000545
 51
109.0654000000021
  0
LINE
  5
2C8B
  8
AM_0
 10
359.00743357337819
 20
412.39517239848709
 30
0.0
 11
358.39801357337808
 21
414.669772398487
 31
0.0
  0
CIRCLE
  5
2C8C
  8
AM_0
 10
351.6340335733783
 20
427.05674239848702
 30
0.0
 40
9.9999992999999971
  0
LINE
  5
2C8D
  8
AM_0
 10
351.6340335733783
 20
417.05678239848709
 30
0.0
 11
357.6993435733782
 21
415.3745923984871
 31
0.0
  0
LINE
  5
2C8E
  8
AM_0
 10
461.63401357337779
 20
399.96752239848718
 30
0.0
 11
461.63401357337779
 21
455.13587239848738
 31
0.0
  0
LINE
  5
2C8F
  8
AM_0
 10
426.14452357337808
 20
415.56725239848703
 30
0.0
 11
461.63404357337822
 21
451.05674239848719
 31
0.0
  0
LINE
  5
2C90
  8
AM_0
 10
424.73398357337811
 20
414.15671239848712
 30
0.0
 11
431.964193573378
 21
412.9954723984871
 31
0.0
  0
ARC
  5
2C91
  8
AM_0
 10
422.60899357337797
 20
419.10281239848712
 30
0.0
 40
5.0000001000000003
 50
271.50000000000261
 51
315.0
  0
ARC
  5
2C92
  8
AM_0
 10
428.63401357337779
 20
392.26118239848722
 30
0.0
 40
21.000000600000011
 50
354.07597999999939
 51
80.875524999996657
  0
ARC
  5
2C93
  8
AM_0
 10
464.63401357337813
 20
399.96752239848718
 30
0.0
 40
3.0
 50
179.9999899999988
 51
270.0
  0
LINE
  5
2C94
  8
AM_0
 10
464.63401357337813
 20
396.96752239848718
 30
0.0
 11
468.63403357337847
 21
396.96752239848718
 31
0.0
  0
ARC
  5
2C95
  8
AM_0
 10
465.63403357337842
 20
431.6564923984871
 30
0.0
 40
3.0
 50
0.0
 51
91.999998000000545
  0
LINE
  5
2C96
  8
AM_0
 10
465.34945357337801
 20
434.64839239848709
 30
0.0
 11
465.5293335733781
 21
434.6546623984874
 31
0.0
  0
LINE
  5
2C97
  8
AM_0
 10
476.63401357337813
 20
446.05676239848742
 30
0.0
 11
480.63403357337847
 21
446.05676239848742
 31
0.0
  0
LINE
  5
2C98
  8
AM_0
 10
464.5293135733782
 20
458.1340123984873
 30
0.0
 11
476.63398357337792
 21
458.55671239848738
 31
0.0
  0
ARC
  5
2C99
  8
AM_0
 10
464.63401357337813
 20
455.13587239848738
 30
0.0
 40
3.0
 50
91.999998000000545
 51
180.00001000000091
  0
LINE
  5
2C9A
  8
ﾁｭｳｼﾝｾﾝ
 10
771.48678264455873
 20
183.12591508059811
 30
0.0
 11
771.4867935580919
 21
462.30353738877778
 31
0.0
  0
LINE
  5
2C9B
  8
AM_0
 10
653.98680455809165
 20
371.0567443984873
 30
0.0
 11
657.40166255809174
 21
436.21601239848712
 31
0.0
  0
LINE
  5
2C9C
  8
AM_0
 10
888.98680355809142
 20
371.0567443984873
 30
0.0
 11
885.57194855809144
 21
436.21601239848712
 31
0.0
  0
LINE
  5
2C9D
  8
AM_0
 10
731.72600555809186
 20
375.16072039848711
 30
0.0
 11
702.49570355809192
 21
404.39099239848713
 31
0.0
  0
LINE
  5
2C9E
  8
AM_0
 10
811.24760555809178
 20
375.16068739848708
 30
0.0
 11
840.47791355809204
 21
404.39099239848713
 31
0.0
  0
ARC
  5
2C9F
  8
AM_0
 10
771.4867935580919
 20
313.0567603984872
 30
0.0
 40
99.500004000000004
 50
125.863690000004
 51
150.26975999999769
  0
ARC
  5
2CA0
  8
AM_0
 10
771.4867935580919
 20
313.0567603984872
 30
0.0
 40
99.500004000000004
 50
29.730243000000002
 51
54.136312000000359
  0
CIRCLE
  5
2CA1
  8
AM_0
 10
771.4867935580919
 20
341.0567593984872
 30
0.0
 40
99.000003000000021
  0
CIRCLE
  5
2CA2
  8
AM_0
 10
771.4867935580919
 20
341.0567593984872
 30
0.0
 40
105.00000299999979
  0
ARC
  5
2CA3
  8
AM_0
 10
740.91838655809215
 20
384.35310139848718
 30
0.0
 40
5.0000001000000003
 50
225.0
 51
305.22315000000219
  0
ARC
  5
2CA4
  8
AM_0
 10
802.05520055809131
 20
384.35310139848718
 30
0.0
 40
5.0000001000000003
 50
234.776859999999
 51
315.0
  0
LINE
  5
2CA5
  8
AM_0
 10
824.48680355809142
 20
298.05675739848721
 30
0.0
 11
857.46355055809204
 21
298.05675739848721
 31
0.0
  0
ARC
  5
2CA6
  8
AM_0
 10
771.4867935580919
 20
313.0567603984872
 30
0.0
 40
125.0
 50
223.68384630049101
 51
316.31614345041157
  0
LINE
  5
2CA7
  8
ﾁｭｳｼﾝｾﾝ
 10
648.81914255809215
 20
341.0567593984872
 30
0.0
 11
893.29653755809204
 21
341.0567593984872
 31
0.0
  0
LINE
  5
2CA8
  8
AM_0
 10
801.48679355809202
 20
223.55675539848741
 30
0.0
 11
866.64608255809208
 21
226.97159839848709
 31
0.0
  0
LINE
  5
2CA9
  8
AM_0
 10
538.63402357337816
 20
325.0567603984872
 30
0.0
 11
538.63402357337816
 21
360.0567763984871
 31
0.0
  0
LINE
  5
2CAA
  8
AM_0
 10
538.63402357337816
 20
360.0567763984871
 30
0.0
 11
493.63405357337791
 21
360.0567763984871
 31
0.0
  0
LINE
  5
2CAB
  8
AM_0
 10
493.63405357337791
 20
357.0567763984871
 30
0.0
 11
493.63405357337791
 21
360.0567763984871
 31
0.0
  0
ARC
  5
2CAC
  8
ﾁｭｳｼﾝｾﾝ1
 10
771.4867935580919
 20
341.0567593984872
 30
0.0
 40
135.00000299999991
 50
218.3683900000002
 51
232.25634999999781
  0
ARC
  5
2CAD
  8
AM_0
 10
677.37425555809216
 20
246.9441943984873
 30
0.0
 40
20.000000700000001
 50
183.00000999999961
 51
267.0000000000008
  0
LINE
  5
2CAE
  8
AM_0
 10
741.4867935580919
 20
223.55675539848741
 30
0.0
 11
676.32753455809166
 21
226.97161339848711
 31
0.0
  0
ARC
  5
2CAF
  8
AM_0
 10
771.4867935580919
 20
313.0567603984872
 30
0.0
 40
99.500004000000004
 50
242.88566000000239
 51
297.11435000000108
  0
LINE
  5
2CB0
  8
AM_0
 10
771.4867935580919
 20
223.55675539848741
 30
0.0
 11
801.48679355809202
 21
223.55675539848741
 31
0.0
  0
LINE
  5
2CB1
  8
AM_0
 10
771.4867935580919
 20
223.55675539848741
 30
0.0
 11
741.4867935580919
 21
223.55675539848741
 31
0.0
  0
LINE
  5
2CB2
  8
ﾁｭｳｼﾝｾﾝ
 10
713.19383145045526
 20
313.0567603984872
 30
0.0
 11
829.77975285099785
 21
313.0567603984872
 31
0.0
  0
ARC
  5
2CB3
  8
AM_0
 10
771.4867935580919
 20
341.0567593984872
 30
0.0
 40
48.0
 50
144.77684000000161
 51
180.00001000000091
  0
LINE
  5
2CB4
  8
AM_0
 10
723.48679055809146
 20
341.0567593984872
 30
0.0
 11
723.48679055809146
 21
303.05677339848722
 31
0.0
  0
ARC
  5
2CB5
  8
AM_0
 10
771.48679355809281
 20
313.0567603984872
 30
0.0
 40
125.0000000000007
 50
160.05154163275481
 51
203.0240104863754
  0
LINE
  5
2CB6
  8
AM_0
 10
653.98680455809165
 20
311.0567593984872
 30
0.0
 11
657.40162955809194
 21
245.89748539848731
 31
0.0
  0
LINE
  5
2CB7
  8
ﾁｭｳｼﾝｾﾝ1
 10
687.03481940262895
 20
256.66174024506972
 30
0.0
 11
665.89768497281818
 21
235.4676508132136
 31
0.0
  0
CIRCLE
  5
2CB8
  8
AM_0
 10
676.02739355809206
 20
245.59734439848731
 30
0.0
 40
7.5000002999999982
  0
LINE
  5
2CB9
  8
AM_0
 10
718.48680755809198
 20
298.05675739848721
 30
0.0
 11
685.51006055809194
 21
298.05675739848721
 31
0.0
  0
ARC
  5
2CBA
  8
AM_0
 10
685.51006055809194
 20
303.05677339848722
 30
0.0
 40
5.0000001000000003
 50
203.84446999999949
 51
270.0
  0
ARC
  5
2CBB
  8
AM_0
 10
718.48680755809198
 20
303.05677339848722
 30
0.0
 40
5.0000001000000003
 50
270.0
 51
0.0
  0
LINE
  5
2CBC
  8
AM_0
 10
653.98680455809165
 20
341.0567593984872
 30
0.0
 11
653.98680455809165
 21
371.0567443984873
 31
0.0
  0
LINE
  5
2CBD
  8
AM_0
 10
653.98680455809165
 20
341.0567593984872
 30
0.0
 11
653.98680455809165
 21
311.0567593984872
 31
0.0
  0
ARC
  5
2CBE
  8
AM_0
 10
771.4867935580919
 20
341.0567593984872
 30
0.0
 40
89.000003999999961
 50
166.12423000000109
 51
179.5717700000001
  0
ARC
  5
2CBF
  8
AM_0
 10
771.4867935580919
 20
313.0567603984872
 30
0.0
 40
93.500003999999976
 50
162.1467900000001
 51
183.00788
  0
LINE
  5
2CC0
  8
AM_0
 10
819.4867935580919
 20
341.0567593984872
 30
0.0
 11
819.4867935580919
 21
303.05677339848722
 31
0.0
  0
ARC
  5
2CC1
  8
AM_0
 10
824.48680355809142
 20
303.05677339848722
 30
0.0
 40
5.0000001000000003
 50
179.9999899999988
 51
270.0
  0
CIRCLE
  5
2CC2
  8
AM_0
 10
771.4867935580919
 20
341.0567593984872
 30
0.0
 40
29.000001000000001
  0
ARC
  5
2CC3
  8
AM_0
 10
771.4867935580919
 20
341.0567593984872
 30
0.0
 40
16.000000499999999
 50
108.2099599999986
 51
71.790051999998809
  0
ARC
  5
2CC4
  8
AM_0
 10
771.4867935580919
 20
341.0567593984872
 30
0.0
 40
16.000000499999999
 50
108.2099599999986
 51
71.790051999998809
  0
CIRCLE
  5
2CC5
  8
AM_0
 10
771.4867935580919
 20
341.0567593984872
 30
0.0
 40
2.75000007
  0
CIRCLE
  5
2CC6
  8
AM_5
 10
771.4867935580919
 20
341.0567593984872
 30
0.0
 40
4.000000199999997
  0
ARC
  5
2CC7
  8
AM_0
 10
728.19048155809185
 20
371.62516639848718
 30
0.0
 40
5.0000001000000003
 50
324.77685000000031
 51
45.00000100000149
  0
LINE
  5
2CC8
  8
AM_0
 10
766.48679255809202
 20
352.05674539848718
 30
0.0
 11
776.4867945580919
 21
352.05674539848718
 31
0.0
  0
LINE
  5
2CC9
  8
AM_0
 10
766.48679255809202
 20
360.0567763984871
 30
0.0
 11
776.4867945580919
 21
360.0567763984871
 31
0.0
  0
LINE
  5
2CCA
  8
AM_0
 10
766.48679255809202
 20
352.05674539848718
 30
0.0
 11
766.48679255809202
 21
360.0567763984871
 31
0.0
  0
LINE
  5
2CCB
  8
AM_0
 10
776.4867945580919
 20
352.05674539848718
 30
0.0
 11
776.4867945580919
 21
360.0567763984871
 31
0.0
  0
ARC
  5
2CCC
  8
AM_0
 10
771.4867935580919
 20
341.0567593984872
 30
0.0
 40
48.0
 50
0.0
 51
35.223151999999843
  0
ARC
  5
2CCD
  8
AM_0
 10
814.78312655809202
 20
371.62516639848718
 30
0.0
 40
5.0000001000000003
 50
135.0
 51
215.22314999999929
  0
ARC
  5
2CCE
  8
AM_0
 10
865.59936155809203
 20
246.9441943984873
 30
0.0
 40
20.000000700000001
 50
272.99999999999909
 51
357.00000000000108
  0
ARC
  5
2CCF
  8
AM_0
 10
771.48679355809054
 20
313.05676039848697
 30
0.0
 40
125.00000000000129
 50
336.97598471658148
 51
19.948434184333689
  0
LINE
  5
2CD0
  8
AM_0
 10
888.986800558092
 20
311.0567593984872
 30
0.0
 11
885.57194555809224
 21
245.89748539848731
 31
0.0
  0
CIRCLE
  5
2CD1
  8
AM_0
 10
866.94622355809145
 20
245.59734439848731
 30
0.0
 40
7.5000002999999982
  0
ARC
  5
2CD2
  8
AM_0
 10
857.46355055809204
 20
303.05677339848722
 30
0.0
 40
5.0000001000000003
 50
270.0
 51
336.15553000000051
  0
LINE
  5
2CD3
  8
AM_0
 10
888.986800558092
 20
341.0567593984872
 30
0.0
 11
888.986800558092
 21
371.0567443984873
 31
0.0
  0
ARC
  5
2CD4
  8
AM_0
 10
771.4867935580919
 20
341.0567593984872
 30
0.0
 40
89.000003999999961
 50
0.4282278599984297
 51
13.87576399999806
  0
ARC
  5
2CD5
  8
AM_0
 10
771.4867935580919
 20
313.0567603984872
 30
0.0
 40
93.500003999999976
 50
356.99211999999977
 51
17.85321299999984
  0
LINE
  5
2CD6
  8
AM_0
 10
888.986800558092
 20
341.0567593984872
 30
0.0
 11
888.986800558092
 21
311.0567593984872
 31
0.0
  0
LINE
  5
2CD7
  8
AM_0
 10
801.48680855809164
 20
458.55674239848742
 30
0.0
 11
866.64607355809142
 21
455.1419023984871
 31
0.0
  0
LINE
  5
2CD8
  8
AM_0
 10
737.38285055809183
 20
380.81758039848722
 30
0.0
 11
708.15254855809155
 21
410.04785239848718
 31
0.0
  0
LINE
  5
2CD9
  8
AM_0
 10
741.4867935580919
 20
458.55674239848742
 30
0.0
 11
676.32753455809166
 21
455.1419023984871
 31
0.0
  0
ARC
  5
2CDA
  8
AM_0
 10
677.37425555809216
 20
435.16931239848719
 30
0.0
 40
20.000000700000001
 50
92.999999000001679
 51
176.99999000000011
  0
CIRCLE
  5
2CDB
  8
AM_0
 10
676.02739355809206
 20
436.51619239848719
 30
0.0
 40
7.5000002999999982
  0
ARC
  5
2CDC
  8
AM_0
 10
711.68806955809146
 20
413.58338239848717
 30
0.0
 40
5.0000001000000003
 50
129.50581999999901
 51
225.0
  0
ARC
  5
2CDD
  8
AM_0
 10
698.96016455809195
 20
400.85549239848712
 30
0.0
 40
5.0000001000000003
 50
45.00000100000149
 51
140.49417999999881
  0
ARC
  5
2CDE
  8
AM_0
 10
771.4867935580919
 20
341.0567593984872
 30
0.0
 40
48.0
 50
54.776849999997779
 51
125.2231400000008
  0
ARC
  5
2CDF
  8
AM_0
 10
771.4867935580919
 20
313.0567603984872
 30
0.0
 40
99.500004000000004
 50
58.838493999997567
 51
86.644180000003075
  0
ARC
  5
2CE0
  8
AM_0
 10
777.48679355809179
 20
415.38098239848711
 30
0.0
 40
3.0
 50
179.9999899999988
 51
266.64419000000049
  0
ARC
  5
2CE1
  8
AM_0
 10
765.48679355809179
 20
415.38098239848711
 30
0.0
 40
3.0
 50
273.35581999999681
 51
0.0
  0
ARC
  5
2CE2
  8
AM_0
 10
771.4867935580919
 20
313.0567603984872
 30
0.0
 40
99.500004000000004
 50
93.355817999997413
 51
121.1614999999983
  0
ARC
  5
2CE3
  8
AM_0
 10
765.48679355809179
 20
421.57148239848709
 30
0.0
 40
3.0
 50
0.0
 51
90.00000299999769
  0
ARC
  5
2CE4
  8
AM_0
 10
777.48679355809179
 20
421.57148239848709
 30
0.0
 40
3.0
 50
90.00000299999769
 51
180.00001000000091
  0
LINE
  5
2CE5
  8
AM_0
 10
774.4867935580919
 20
421.57148239848709
 30
0.0
 11
774.4867935580919
 21
415.38098239848711
 31
0.0
  0
LINE
  5
2CE6
  8
AM_0
 10
768.4867935580919
 20
421.57148239848709
 30
0.0
 11
768.4867935580919
 21
415.38098239848711
 31
0.0
  0
ARC
  5
2CE7
  8
AM_0
 10
831.28551755809235
 20
413.58338239848717
 30
0.0
 40
5.0000001000000003
 50
315.0
 51
50.49418200000094
  0
LINE
  5
2CE8
  8
AM_0
 10
805.59073655809163
 20
380.81758039848722
 30
0.0
 11
834.82104755809223
 21
410.04785239848718
 31
0.0
  0
LINE
  5
2CE9
  8
AM_0
 10
771.4867935580919
 20
458.55674239848742
 30
0.0
 11
801.48679355809202
 21
458.55674239848742
 31
0.0
  0
LINE
  5
2CEA
  8
AM_0
 10
771.4867935580919
 20
458.55674239848742
 30
0.0
 11
741.4867935580919
 21
458.55674239848742
 31
0.0
  0
ARC
  5
2CEB
  8
AM_0
 10
865.59936155809203
 20
435.16931239848719
 30
0.0
 40
20.000000700000001
 50
3.0000000999988461
 51
86.99999899999699
  0
ARC
  5
2CEC
  8
AM_0
 10
844.01344355809135
 20
400.85549239848712
 30
0.0
 40
5.0000001000000003
 50
39.505817999999088
 51
135.0
  0
LINE
  5
2CED
  8
ﾁｭｳｼﾝｾﾝ1
 10
856.20847238054239
 20
425.7784182480562
 30
0.0
 11
877.29610592222684
 21
446.8660609752539
 31
0.0
  0
CIRCLE
  5
2CEE
  8
AM_0
 10
866.94622355809145
 20
436.51619239848719
 30
0.0
 40
7.5000002999999982
  0
ARC
  5
2CEF
  8
ﾁｭｳｼﾝｾﾝ1
 10
771.4867935580919
 20
341.0567593984872
 30
0.0
 40
135.00000299999991
 50
38.36839300000004
 51
52.256345999996789
  0
LINE
  5
2CF0
  8
AM_0
 10
270.13396357337831
 20
775.22793345860293
 30
0.0
 11
270.13396357337831
 21
527.22793345860282
 31
0.0
  0
LINE
  5
2CF1
  8
AM_0
 10
254.13396357337831
 20
776.22793345860293
 30
0.0
 11
254.13396357337831
 21
526.22793345860282
 31
0.0
  0
LINE
  5
2CF2
  8
AM_0
 10
333.63396357337831
 20
565.22793345860271
 30
0.0
 11
272.87249632276507
 21
559.91199343667711
 31
0.0
  0
LINE
  5
2CF3
  8
AM_0
 10
332.63396357337882
 20
560.75965324264064
 30
0.0
 11
272.8724965733789
 21
555.53120224264001
 31
0.0
  0
LINE
  5
2CF4
  8
AM_0
 10
254.13396357337831
 20
526.22793345860282
 30
0.0
 11
269.13396357337831
 21
526.22793345860282
 31
0.0
  0
ARC
  5
2CF5
  8
AM_0
 10
269.13396357337831
 20
527.22793345860282
 30
0.0
 40
1.0
 50
270.0
 51
0.0
  0
ARC
  5
2CF6
  8
AM_0
 10
273.13396357337831
 20
556.92340934435902
 30
0.0
 40
3.0
 50
95.000000428873591
 51
180.0
1001
GENIUS_GENODEF_13
1002
{
1000
HIER
1070
     0
1002
}
1002
{
1000
MANEDIT
1070
     0
1002
}
1002
{
1000
NOSEL
1070
     0
1002
}
1002
{
1000
BEHIND
1070
     0
1002
}
1002
{
1000
OTHER
1070
     0
1002
}
1002
{
1000
REACTOR
1002
}
1001
GENIUS_GENOBJ-N-FIL_13
1002
{
1000
OWNER
1000
GEN
1002
}
  0
ARC
  5
2CF7
  8
AM_0
 10
273.13396357337888
 20
552.54261824263995
 30
0.0
 40
3.0
 50
95.0
 51
180.0
  0
LINE
  5
2CF8
  8
AM_0
 10
333.63396357337831
 20
737.22793345860293
 30
0.0
 11
272.87249632276507
 21
742.54387348052853
 31
0.0
  0
LINE
  5
2CF9
  8
AM_0
 10
332.63396357337831
 20
741.69621367456512
 30
0.0
 11
272.87249657337838
 21
746.92466467456541
 31
0.0
  0
LINE
  5
2CFA
  8
AM_0
 10
332.63396357337831
 20
658.72994345860297
 30
0.0
 11
270.13396357337831
 21
660.91249155183698
 31
0.0
  0
LINE
  5
2CFB
  8
AM_0
 10
332.63396357337831
 20
662.19369345860275
 30
0.0
 11
270.13396357337808
 21
664.37624155183721
 31
0.0
  0
LINE
  5
2CFC
  8
AM_0
 10
332.63396357337831
 20
640.26217345860232
 30
0.0
 11
270.13396357337808
 21
638.07962536536832
 31
0.0
  0
LINE
  5
2CFD
  8
AM_0
 10
332.63396357337831
 20
643.72592345860232
 30
0.0
 11
270.13396357337831
 21
641.54337536536832
 31
0.0
  0
LINE
  5
2CFE
  8
AM_0
 10
254.13396357337831
 20
776.22793345860293
 30
0.0
 11
269.13396357337831
 21
776.22793345860293
 31
0.0
  0
ARC
  5
2CFF
  8
AM_0
 10
273.13396357337831
 20
749.91324867456512
 30
0.0
 40
3.0
 50
180.0
 51
265.0
  0
ARC
  5
2D00
  8
AM_0
 10
273.13396357337831
 20
745.5324575728464
 30
0.0
 40
3.0
 50
180.0
 51
264.9999995711263
1001
GENIUS_GENODEF_13
1002
{
1000
HIER
1070
     0
1002
}
1002
{
1000
MANEDIT
1070
     0
1002
}
1002
{
1000
NOSEL
1070
     0
1002
}
1002
{
1000
BEHIND
1070
     0
1002
}
1002
{
1000
OTHER
1070
     0
1002
}
1002
{
1000
REACTOR
1002
}
1001
GENIUS_GENOBJ-N-FIL_13
1002
{
1000
OWNER
1000
GEN
1002
}
  0
ARC
  5
2D01
  8
AM_0
 10
269.13396357337831
 20
775.22793345860293
 30
0.0
 40
1.0
 50
0.0
 51
90.0
  0
LINE
  5
2D02
  8
AM_0
 10
332.63396357337882
 20
565.14044478753465
 30
0.0
 11
332.63396357337882
 21
560.75965324264064
 31
0.0
  0
LINE
  5
2D03
  8
AM_0
 10
332.63396357337831
 20
662.19369345860275
 30
0.0
 11
332.63396357337831
 21
640.26217345860232
 31
0.0
  0
LINE
  5
2D04
  8
AM_0
 10
332.63396357337831
 20
737.31542212967133
 30
0.0
 11
332.63396357337831
 21
741.69621367456512
 31
0.0
  0
ARC
  5
2D05
  8
ﾁｭｳｼﾝｾﾝ1
 10
771.48678407860154
 20
341.05675939848749
 30
0.0
 40
135.00000299999991
 50
127.74364952042239
 51
141.63160252041911
  0
LINE
  5
2D06
  8
ﾁｭｳｼﾝｾﾝ1
 10
686.76511187998085
 20
425.77842487188798
 30
0.0
 11
665.67747998700122
 21
446.86606924778948
 31
0.0
  0
ARC
  5
2D07
  8
ﾁｭｳｼﾝｾﾝ1
 10
771.48678407860154
 20
341.05675939848749
 30
0.0
 40
135.00000299999991
 50
307.7436455204213
 51
321.63160552041882
  0
LINE
  5
2D08
  8
ﾁｭｳｼﾝｾﾝ1
 10
855.93875163577195
 20
256.66173364232509
 30
0.0
 11
877.07588440855613
 21
235.4676425578954
 31
0.0
  0
TEXT
  5
2EF6
  8
AM_0
 10
661.95328001080952
 20
681.94941945410426
 30
0.0
 40
15.0
  1
VX22-003AF~VX22-020AF
  0
ENDSEC
  0
EOF
