  0
SECTION
  2
HEADER
  9
$ACADVER
  1
AC1009
  9
$INSBASE
 10
0.0
 20
0.0
 30
0.0
  9
$EXTMIN
 10
324.13013827187251
 20
232.42186327280089
 30
-0.0000000000112498
  9
$EXTMAX
 10
1115.842898462832
 20
976.17777572492037
 30
0.0000000000002956
  9
$LIMMIN
 10
0.0
 20
0.0
  9
$LIMMAX
 10
1422.5
 20
925.0
  9
$ORTHOMODE
 70
     0
  9
$REGENMODE
 70
     1
  9
$FILLMODE
 70
     1
  9
$QTEXTMODE
 70
     0
  9
$MIRRTEXT
 70
     1
  9
$DRAGMODE
 70
     2
  9
$LTSCALE
 40
5.0
  9
$OSMODE
 70
   551
  9
$ATTMODE
 70
     1
  9
$TEXTSIZE
 40
2.5
  9
$TRACEWID
 40
1.0
  9
$TEXTSTYLE
  7
STANDARD
  9
$CLAYER
  8
AM_0
  9
$CELTYPE
  6
BYLAYER
  9
$CECOLOR
 62
   256
  9
$DIMSCALE
 40
1.0
  9
$DIMASZ
 40
2.5
  9
$DIMEXO
 40
1.0
  9
$DIMDLI
 40
8.0
  9
$DIMRND
 40
0.0
  9
$DIMDLE
 40
0.0
  9
$DIMEXE
 40
0.6
  9
$DIMTP
 40
0.1
  9
$DIMTM
 40
0.1
  9
$DIMTXT
 40
2.5
  9
$DIMCEN
 40
0.0
  9
$DIMTSZ
 40
0.0
  9
$DIMTOL
 70
     0
  9
$DIMLIM
 70
     0
  9
$DIMTIH
 70
     0
  9
$DIMTOH
 70
     0
  9
$DIMSE1
 70
     0
  9
$DIMSE2
 70
     0
  9
$DIMTAD
 70
     1
  9
$DIMZIN
 70
     8
  9
$DIMBLK
  1

  9
$DIMASO
 70
     1
  9
$DIMSHO
 70
     1
  9
$DIMPOST
  1

  9
$DIMAPOST
  1
"
  9
$DIMALT
 70
     0
  9
$DIMALTD
 70
     2
  9
$DIMALTF
 40
0.0393701
  9
$DIMLFAC
 40
1.0
  9
$DIMTOFL
 70
     1
  9
$DIMTVP
 40
0.0
  9
$DIMTIX
 70
     0
  9
$DIMSOXD
 70
     0
  9
$DIMSAH
 70
     0
  9
$DIMBLK1
  1

  9
$DIMBLK2
  1

  9
$DIMSTYLE
  2
AM_ISO
  9
$DIMCLRD
 70
   256
  9
$DIMCLRE
 70
   256
  9
$DIMCLRT
 70
     4
  9
$DIMTFAC
 40
0.71
  9
$DIMGAP
 40
0.8
  9
$LUNITS
 70
     2
  9
$LUPREC
 70
     2
  9
$SKETCHINC
 40
1.0
  9
$FILLETRAD
 40
25.0
  9
$AUNITS
 70
     0
  9
$AUPREC
 70
     0
  9
$MENU
  1
.
  9
$ELEVATION
 40
0.0
  9
$PELEVATION
 40
0.0
  9
$THICKNESS
 40
0.0
  9
$LIMCHECK
 70
     0
  9
$BLIPMODE
 70
     0
  9
$CHAMFERA
 40
10.0
  9
$CHAMFERB
 40
5.0
  9
$SKPOLY
 70
     0
  9
$TDCREATE
 40
2452066.6258053011
  9
$TDUPDATE
 40
2458541.548913449
  9
$TDINDWG
 40
0.1663190278
  9
$TDUSRTIMER
 40
0.1663186458
  9
$USRTIMER
 70
     1
  9
$ANGBASE
 50
0.0
  9
$ANGDIR
 70
     0
  9
$PDMODE
 70
     0
  9
$PDSIZE
 40
0.0
  9
$PLINEWID
 40
0.0
  9
$COORDS
 70
     1
  9
$SPLFRAME
 70
     0
  9
$SPLINETYPE
 70
     6
  9
$SPLINESEGS
 70
     8
  9
$ATTDIA
 70
     1
  9
$ATTREQ
 70
     1
  9
$HANDLING
 70
     1
  9
$HANDSEED
  5
2F17
  9
$SURFTAB1
 70
     6
  9
$SURFTAB2
 70
     6
  9
$SURFTYPE
 70
     6
  9
$SURFU
 70
     6
  9
$SURFV
 70
     6
  9
$UCSNAME
  2

  9
$UCSORG
 10
0.0
 20
0.0
 30
0.0
  9
$UCSXDIR
 10
1.0
 20
0.0
 30
0.0
  9
$UCSYDIR
 10
0.0
 20
1.0
 30
0.0
  9
$PUCSNAME
  2

  9
$PUCSORG
 10
0.0
 20
0.0
 30
0.0
  9
$PUCSXDIR
 10
1.0
 20
0.0
 30
0.0
  9
$PUCSYDIR
 10
0.0
 20
1.0
 30
0.0
  9
$USERI1
 70
     0
  9
$USERI2
 70
     0
  9
$USERI3
 70
     0
  9
$USERI4
 70
     0
  9
$USERI5
 70
     0
  9
$USERR1
 40
0.0
  9
$USERR2
 40
0.0
  9
$USERR3
 40
0.0
  9
$USERR4
 40
0.0
  9
$USERR5
 40
0.0
  9
$WORLDVIEW
 70
     1
  9
$SHADEDGE
 70
     3
  9
$SHADEDIF
 70
    70
  9
$TILEMODE
 70
     1
  9
$MAXACTVP
 70
    64
  9
$PLIMCHECK
 70
     0
  9
$PEXTMIN
 10
1.0000000000000000E+020
 20
1.0000000000000000E+020
 30
1.0000000000000000E+020
  9
$PEXTMAX
 10
-1.0000000000000000E+020
 20
-1.0000000000000000E+020
 30
-1.0000000000000000E+020
  9
$PLIMMIN
 10
0.0
 20
0.0
  9
$PLIMMAX
 10
420.0
 20
297.0
  9
$UNITMODE
 70
     0
  9
$VISRETAIN
 70
     1
  9
$PLINEGEN
 70
     0
  9
$PSLTSCALE
 70
     1
  0
ENDSEC
  0
SECTION
  2
TABLES
  0
TABLE
  2
VPORT
 70
     1
  0
VPORT
  2
*ACTIVE
 70
     0
 10
0.0
 20
0.0
 11
1.0
 21
1.0
 12
719.98651836735235
 22
604.29981949886064
 13
0.0
 23
0.0
 14
12.5
 24
12.5
 15
50.0
 25
50.0
 16
0.0
 26
0.0
 36
1.0
 17
0.0
 27
0.0
 37
0.0
 40
748.86178828131028
 41
1.7571592210767459
 42
50.0
 43
0.0
 44
0.0
 50
0.0
 51
0.0
 71
     0
 72
   100
 73
     1
 74
     3
 75
     0
 76
     0
 77
     0
 78
     0
  0
ENDTAB
  0
TABLE
  2
LTYPE
 70
    26
  0
LTYPE
  2
CONTINUOUS
 70
     0
  3
Solid line
 72
    65
 73
     0
 40
0.0
  0
LTYPE
  2
AM_ISO02W050
 70
     0
  3
__ __ __ __ __ __ __ __ __ __ __ __ __ __ __
 72
    65
 73
     2
 40
7.5
 49
6.0
 49
-1.5
  0
LTYPE
  2
AM_ISO08W050
 70
     0
  3
____ . ____ . ____ . ____ . ____ . ____ . ____
 72
    65
 73
     4
 40
18.0
 49
12.0
 49
-1.5
 49
3.0
 49
-1.5
  0
LTYPE
  2
AM_ISO09W050
 70
     0
  3
_____ . . _____ . . _____ . . ____ .. ____
 72
    65
 73
     6
 40
22.5
 49
12.0
 49
-1.5
 49
3.0
 49
-1.5
 49
3.0
 49
-1.5
  0
LTYPE
  2
AMCONSTR
 70
     0
  3
_______________________
 72
    65
 73
     2
 40
9999.0
 49
9999.0
 49
0.0
  0
LTYPE
  2
AM_ISO08W050X2
 70
     0
  3
__ . __ . __ . __ . __ . __
 72
    65
 73
     4
 40
9.0
 49
6.0
 49
-0.75
 49
1.5
 49
-0.75
  0
LTYPE
  2
AM_ISO02W050X2
 70
     0
  3
 _ _ _ _ _ _ _ _ _ _ _ _
 72
    65
 73
     2
 40
3.75
 49
3.0
 49
-0.75
  0
LTYPE
  2
AMZIGZAG
 70
     0
  3
/\/-/\/-/\/-/\/-/\/-/\/
 72
    65
 73
     2
 40
11.000099999999991
 49
0.0001
 49
-11.0
  0
LTYPE
  2
ACISOWELD
 70
     0
  3
_ _ _ _ _
 72
    65
 73
     2
 40
2.0
 49
2.0
 49
-1.0
  0
LTYPE
  2
ACISOTGB
 70
     0
  3
__ . . __ . .
 72
    65
 73
     6
 40
9.0
 49
4.0
 49
-1.0
 49
1.0
 49
-1.0
 49
1.0
 49
-1.0
  0
LTYPE
  2
ACISOTGL
 70
     0
  3
_ _ _ _ _
 72
    65
 73
     2
 40
3.0
 49
2.0
 49
-1.0
  0
LTYPE
  2
CENTER
 70
     0
  3
__ . __
 72
    65
 73
     4
 40
7.0
 49
4.0
 49
-1.0
 49
1.0
 49
-1.0
  0
LTYPE
  2
PHANTOM2
 70
     0
  3
Phantom (.5x) ___ _ _ ___ _ _ ___ _ _ ___ _ _
 72
    65
 73
     6
 40
31.75
 49
15.875
 49
-3.174999999999998
 49
3.174999999999998
 49
-3.174999999999998
 49
3.174999999999998
 49
-3.174999999999998
  0
LTYPE
  2
ACANSTGBM
 70
     0
  3
__ . . __ . .
 72
    65
 73
     6
 40
9.0
 49
4.0
 49
-1.0
 49
1.0
 49
-1.0
 49
1.0
 49
-1.0
  0
LTYPE
  2
ACANSTGLM
 70
     0
  3
_ _ _ _ _
 72
    65
 73
     2
 40
3.0
 49
2.0
 49
-1.0
  0
LTYPE
  2
GEN7
 70
     0
  3
____ . ____ . ____ . ____ . ____ . ____ . ____
 72
    65
 73
     4
 40
14.25
 49
9.75
 49
-1.5
 49
1.5
 49
-1.5
  0
LTYPE
  2
GEN7A
 70
     0
  3
__ . __ . __
 72
    65
 73
     4
 40
7.375
 49
4.75
 49
-0.875
 49
0.875
 49
-0.875
  0
LTYPE
  2
ACJISTGB
 70
     0
  3
__ . . __ . .
 72
    65
 73
     6
 40
9.0
 49
4.0
 49
-1.0
 49
1.0
 49
-1.0
 49
1.0
 49
-1.0
  0
LTYPE
  2
ACJISTGL
 70
     0
  3
_ _ _ _ _
 72
    65
 73
     2
 40
3.0
 49
2.0
 49
-1.0
  0
LTYPE
  2
HIDDEN
 70
     0
  3
Hidden __ __ __ __ __ __ __ __ __ __ __ __ __ _
 72
    65
 73
     2
 40
0.375
 49
0.25
 49
-0.125
  0
LTYPE
  2
CENTER2
 70
     0
  3
Center (.5x) ___ _ ___ _ ___ _ ___ _ ___ _ ___
 72
    65
 73
     4
 40
1.125
 49
0.75
 49
-0.125
 49
0.125
 49
-0.125
  0
LTYPE
  2
HIDDEN2
 70
     0
  3
Hidden (.5x) _ _ _ _ _ _ _ _ _ _ _ _ _ _ _ _ _
 72
    65
 73
     2
 40
0.1875
 49
0.125
 49
-0.0625
  0
LTYPE
  2
AMZIGZAG2
 70
     0
  3
/\/-/\/-/\/-/\/-/\/-/\/
 72
    65
 73
     2
 40
0.4401
 49
0.0001
 49
-0.4400000000000002
  0
LTYPE
  2
ACANSTGB
 70
     0
  3
__ . . __ . .
 72
    65
 73
     6
 40
0.35433070866
 49
0.15748031496
 49
-0.03937007874
 49
0.03937007874
 49
-0.03937007874
 49
0.03937007874
 49
-0.03937007874
  0
LTYPE
  2
ACANSTGL
 70
     0
  3
_ _ _ _ _
 72
    65
 73
     2
 40
0.11811023622
 49
0.07874015748
 49
-0.03937007874
  0
ENDTAB
  0
TABLE
  2
LAYER
 70
     6
  0
LAYER
  2
0
 70
     0
 62
     7
  6
CONTINUOUS
  0
LAYER
  2
AM_0
 70
     0
 62
     7
  6
CONTINUOUS
  0
LAYER
  2
AM_5
 70
     0
 62
     2
  6
CONTINUOUS
  0
LAYER
  2
DEFPOINTS
 70
     0
 62
     7
  6
CONTINUOUS
  0
LAYER
  2
ﾁｭｳｼﾝｾﾝ
 70
     0
 62
     1
  6
GEN7
  0
LAYER
  2
ﾁｭｳｼﾝｾﾝ1
 70
     0
 62
     1
  6
GEN7A
  0
ENDTAB
  0
TABLE
  2
STYLE
 70
     9
  0
STYLE
  2
STANDARD
 70
     0
 40
0.0
 41
0.8299999999999999
 50
0.0
 71
     0
 42
2.5
  3
txt.shx
  4
bigfont.shx
  0
STYLE
  2
ANNOTATIVE
 70
     0
 40
0.0
 41
1.0
 50
0.0
 71
     0
 42
0.2
  3
txt
  4

  0
STYLE
  2

 70
     1
 40
0.0
 41
1.0
 50
0.0
 71
     0
 42
2.5
  3
ltypeshp.shx
  4

  0
STYLE
  2
ACISOTS
 70
     0
 40
1.0
 41
1.0
 50
0.0
 71
     0
 42
2.5
  3
isocp.shx
  4
extfont.shx
  0
STYLE
  2
ACISOGDT
 70
     0
 40
0.0
 41
1.0
 50
0.0
 71
     0
 42
2.5
  3
amgdt.shx
  4

  0
STYLE
  2
ACANSTS
 70
     0
 40
1.0
 41
1.0
 50
0.0
 71
     0
 42
2.5
  3
romans.shx
  4
bigfont.shx
  0
STYLE
  2
ACANSGDT
 70
     0
 40
0.0
 41
1.0
 50
0.0
 71
     0
 42
2.5
  3
amgdt.shx
  4

  0
STYLE
  2
ACJISTS
 70
     0
 40
1.0
 41
1.0
 50
0.0
 71
     0
 42
2.5
  3
isocp.shx
  4
bigfont.shx
  0
STYLE
  2
ACJISGDT
 70
     0
 40
0.0
 41
1.0
 50
0.0
 71
     0
 42
2.5
  3
amgdt.shx
  4

  0
ENDTAB
  0
TABLE
  2
VIEW
 70
     6
  0
VIEW
  2
AM_VIEW1
 70
     0
 40
462.5
 10
416.07965009208078
 20
693.75
 41
832.15930018416213
 11
0.0
 21
0.0
 31
1.0
 12
0.0
 22
0.0
 32
0.0
 42
50.0
 43
0.0
 44
0.0
 50
0.0
 71
     0
  0
VIEW
  2
AM_VIEW2
 70
     0
 40
462.5
 10
1006.420349907918
 20
693.75
 41
832.15930018416213
 11
0.0
 21
0.0
 31
1.0
 12
0.0
 22
0.0
 32
0.0
 42
50.0
 43
0.0
 44
0.0
 50
0.0
 71
     0
  0
VIEW
  2
AM_VIEW3
 70
     0
 40
462.5
 10
416.07965009208078
 20
231.25
 41
832.15930018416213
 11
0.0
 21
0.0
 31
1.0
 12
0.0
 22
0.0
 32
0.0
 42
50.0
 43
0.0
 44
0.0
 50
0.0
 71
     0
  0
VIEW
  2
AM_VIEW4
 70
     0
 40
462.5
 10
1006.420349907918
 20
231.25
 41
832.15930018416213
 11
0.0
 21
0.0
 31
1.0
 12
0.0
 22
0.0
 32
0.0
 42
50.0
 43
0.0
 44
0.0
 50
0.0
 71
     0
  0
VIEW
  2
AM_VIEW5
 70
     0
 40
462.5
 10
711.24999999999966
 20
462.5
 41
832.15930018416179
 11
0.0
 21
0.0
 31
1.0
 12
0.0
 22
0.0
 32
0.0
 42
50.0
 43
0.0
 44
0.0
 50
0.0
 71
     0
  0
VIEW
  2
AM_VIEW6
 70
     0
 40
924.99075000000005
 10
711.24999999999966
 20
462.5
 41
1664.3019571823199
 11
0.0
 21
0.0
 31
1.0
 12
0.0
 22
0.0
 32
0.0
 42
50.0
 43
0.0
 44
0.0
 50
0.0
 71
     0
  0
ENDTAB
  0
TABLE
  2
UCS
 70
     0
  0
ENDTAB
  0
TABLE
  2
APPID
 70
    95
  0
APPID
  2
ACAD
 70
     0
  0
APPID
  2
ACADANNOTATIVE
 70
     0
  0
APPID
  2
MCAD_NO_VIS
 70
     0
  0
APPID
  2
ACAD_TEMP_GRAPHIC
 70
     0
  0
APPID
  2
ACATTRIBSERVICES
 70
     0
  0
APPID
  2
GENIUS_GENREC_14
 70
     0
  0
APPID
  2
GENIUS_GENOBJ-N-REC_13
 70
     0
  0
APPID
  2
GENIUS_GENODEF_13
 70
     0
  0
APPID
  2
GENIUS_GENOLIS_13
 70
     0
  0
APPID
  2
GENIUS_GENOBJ-N-TIT_13
 70
     0
  0
APPID
  2
GENIUS_GENOENT_13
 70
     0
  0
APPID
  2
GENIUS_GENTITLE_13
 70
     0
  0
APPID
  2
GENIUS_GENOREF_13
 70
     0
  0
APPID
  2
GENIUS_GENSCREG_15
 70
     0
  0
APPID
  2
GENIUS_GENOBJ-N-SDF_13
 70
     0
  0
APPID
  2
GENIUS_GENFIL_13
 70
     0
  0
APPID
  2
GENIUS_GENOBJ-N-CHA_13
 70
     0
  0
APPID
  2
GENIUS_GENDTOL_13
 70
     0
  0
APPID
  2
GENIUS_GENOBJ-N-FIL_13
 70
     0
  0
APPID
  2
AD_DRAW
 70
     0
  0
APPID
  2
DESIGNERASSEMBLIES
 70
     0
  0
APPID
  2
ASURF_PCURVE_APPNAME
 70
     0
  0
APPID
  2
GENIUS_GE3SECT_13
 70
     0
  0
APPID
  2
GENIUS_GENCFG_13
 70
     0
  0
APPID
  2
GENIUS_GE3CFG0_13
 70
     0
  0
APPID
  2
GENIUS_GENCFG0_13
 70
     0
  0
APPID
  2
GENIUS_GENCFG1_13
 70
     0
  0
APPID
  2
GENIUS_GENCFG2_13
 70
     0
  0
APPID
  2
GENIUS_GENCFG3_13
 70
     0
  0
APPID
  2
GENIUS_GENCFG4_13
 70
     0
  0
APPID
  2
GENIUS_GEVCFG0_13
 70
     0
  0
APPID
  2
GENIUS_GENHINW_13
 70
     0
  0
APPID
  2
GENIUS_FIRSTVISTXT_14
 70
     0
  0
APPID
  2
GENIUS_GENOBJ-N-LEADER_13
 70
     0
  0
APPID
  2
GEV_VCCNULL_SWITCH_OFF
 70
     0
  0
APPID
  2
GENIUS_GEFCFG0_13
 70
     0
  0
APPID
  2
GENIUS_GENZVEED_13
 70
     0
  0
APPID
  2
GENIUS_GENSCREG_13
 70
     0
  0
APPID
  2
GENIUS_DUMCFG0_13
 70
     0
  0
APPID
  2
GEVID936201362
 70
     0
  0
APPID
  2
GEVDC
 70
     0
  0
APPID
  2
GEVCON
 70
     0
  0
APPID
  2
VCC
 70
     0
  0
APPID
  2
GEVPT
 70
     0
  0
APPID
  2
GEVIT
 70
     0
  0
APPID
  2
GENBH
 70
     0
  0
APPID
  2
GEVMK
 70
     0
  0
APPID
  2
GENIUS_GENBH_13
 70
     0
  0
APPID
  2
GENIUS_GENOBJ-NBEHI-BHF_13
 70
     0
  0
APPID
  2
GENIUS_GENOBJ-NBEHI-BHB_13
 70
     0
  0
APPID
  2
GENIUS_GENOBJ-F-DESC_13
 70
     0
  0
APPID
  2
GENIUS_GEFDESC_14
 70
     0
  0
APPID
  2
GENIUS_GENOBJ-F-PART_13
 70
     0
  0
APPID
  2
GENIUS_GEFSTDP_13
 70
     0
  0
APPID
  2
GENIUS_GEFPARTINS_13
 70
     0
  0
APPID
  2
GENIUS_GENTRA_14
 70
     0
  0
APPID
  2
GENIUS_GENINF13_13
 70
     0
  0
APPID
  2
GENIUS_GENOBJ-N-INFOPT_13
 70
     0
  0
APPID
  2
GENIUS_GENOBJ-N-RSSYM_13
 70
     0
  0
APPID
  2
GENIUS_GENSYMENT_13
 70
     0
  0
APPID
  2
GENIUS_GENSCSYM_13
 70
     0
  0
APPID
  2
GENIUS_GEFINFNAM_13
 70
     0
  0
APPID
  2
GENIUS_GENOBJ-N-CEN_13
 70
     0
  0
APPID
  2
GENIUS_GENOBJ-N-CRS_13
 70
     0
  0
APPID
  2
GENIUS_GENOBJ-N-CRC_13
 70
     0
  0
APPID
  2
GENIUS_GENCRC_14
 70
     0
  0
APPID
  2
GEVID942827039
 70
     0
  0
APPID
  2
GEVID942827040
 70
     0
  0
APPID
  2
GEVID942827041
 70
     0
  0
APPID
  2
GENIUS_GENOBJ-F-SCPASSM_13
 70
     0
  0
APPID
  2
GENIUS_GENDIMSH_14
 70
     0
  0
APPID
  2
GEVID942827042
 70
     0
  0
APPID
  2
GEVID946020473
 70
     0
  0
APPID
  2
GEVID946020474
 70
     0
  0
APPID
  2
GEVID946020475
 70
     0
  0
APPID
  2
GENIUS_GENOBJ-N-HTC_13
 70
     0
  0
APPID
  2
GENIUS_GENHATCH_13
 70
     0
  0
APPID
  2
GEVID948854295
 70
     0
  0
APPID
  2
GEVID939402019
 70
     0
  0
APPID
  2
GEVID952919491
 70
     0
  0
APPID
  2
GEVID952919492
 70
     0
  0
APPID
  2
GENIUS_GEFWELD_13
 70
     0
  0
APPID
  2
GENIUS_GENOBJ-F-WELS_13
 70
     0
  0
APPID
  2
GEVID952919493
 70
     0
  0
APPID
  2
GENIUS_GENOBJ-N-RSBK_13
 70
     0
  0
APPID
  2
GENIUS_GENOBJ-N-LIB_13
 70
     0
  0
APPID
  2
GENIUS_GENSCALE_13
 70
     0
  0
APPID
  2
GEVID986376691
 70
     0
  0
APPID
  2
DCO15
 70
     0
  0
APPID
  2
ACAD_DSTYLE_DIMBREAK
 70
     0
  0
APPID
  2
ACAD_DSTYLE_DIMJAG
 70
     0
  0
APPID
  2
ACAD_NAV_VCDISPLAY
 70
     0
  0
APPID
  2
ACADANNOPO
 70
     0
  0
APPID
  2
ACAD_EXEMPT_FROM_CAD_STANDARDS
 70
     0
  0
APPID
  2
ACAD_MLEADERVER
 70
     0
  0
ENDTAB
  0
TABLE
  2
DIMSTYLE
 70
    22
  0
DIMSTYLE
  2
STANDARD
 70
     0
  3

  4

  5

  6

  7

 40
1.0
 41
0.18
 42
0.0625
 43
0.38
 44
0.18
 45
0.0
 46
0.0
 47
0.0
 48
0.0
140
0.18
141
0.09
142
0.0
143
25.399999999999999
144
1.0
145
0.0
146
1.0
147
0.09
 71
     0
 72
     0
 73
     1
 74
     1
 75
     0
 76
     0
 77
     0
 78
     0
170
     0
171
     2
172
     0
173
     0
174
     0
175
     0
176
     0
177
     0
178
     0
  0
DIMSTYLE
  2
ANNOTATIVE
 70
     0
  3

  4

  5

  6

  7

 40
1.0
 41
0.18
 42
0.0625
 43
0.38
 44
0.18
 45
0.0
 46
0.0
 47
0.0
 48
0.0
140
0.18
141
0.09
142
0.0
143
25.399999999999999
144
1.0
145
0.0
146
1.0
147
0.09
 71
     0
 72
     0
 73
     1
 74
     1
 75
     0
 76
     0
 77
     0
 78
     0
170
     0
171
     2
172
     0
173
     0
174
     0
175
     0
176
     0
177
     0
178
     0
  0
DIMSTYLE
  2
AM_ISO
 70
     0
  3

  4
"
  5

  6

  7

 40
1.0
 41
2.5
 42
1.0
 43
8.0
 44
0.6
 45
0.0
 46
0.0
 47
0.1
 48
0.1
140
2.5
141
0.0
142
0.0
143
0.0393701
144
1.0
145
0.0
146
0.71
147
0.8
 71
     0
 72
     0
 73
     0
 74
     0
 75
     0
 76
     0
 77
     1
 78
     8
170
     0
171
     2
172
     1
173
     0
174
     0
175
     0
176
   256
177
   256
178
     4
  0
DIMSTYLE
  2
AM_ISO$3
 70
     0
  3

  4
"
  5

  6

  7

 40
1.0
 41
2.5
 42
1.0
 43
8.0
 44
0.6
 45
0.0
 46
0.0
 47
0.1
 48
0.1
140
2.5
141
0.0
142
0.0
143
0.0393701
144
1.0
145
0.0
146
0.71
147
0.8
 71
     0
 72
     0
 73
     0
 74
     1
 75
     0
 76
     0
 77
     1
 78
     8
170
     0
171
     2
172
     0
173
     0
174
     0
175
     0
176
   256
177
   256
178
     4
  0
DIMSTYLE
  2
AM_ISO$4
 70
     0
  3

  4
"
  5

  6

  7

 40
1.0
 41
2.5
 42
1.0
 43
8.0
 44
0.6
 45
0.0
 46
0.0
 47
0.1
 48
0.1
140
2.5
141
0.0
142
0.0
143
0.0393701
144
1.0
145
0.0
146
0.71
147
0.8
 71
     0
 72
     0
 73
     0
 74
     1
 75
     0
 76
     0
 77
     1
 78
     8
170
     0
171
     2
172
     0
173
     0
174
     0
175
     0
176
   256
177
   256
178
     4
  0
DIMSTYLE
  2
AM_ISO$6
 70
     0
  3

  4
"
  5

  6

  7

 40
1.0
 41
2.5
 42
1.0
 43
8.0
 44
0.6
 45
0.0
 46
0.0
 47
0.1
 48
0.1
140
2.5
141
0.0
142
0.0
143
0.0393701
144
1.0
145
0.0
146
0.71
147
0.8
 71
     0
 72
     0
 73
     0
 74
     0
 75
     0
 76
     0
 77
     0
 78
     8
170
     0
171
     2
172
     1
173
     0
174
     0
175
     0
176
   256
177
   256
178
     4
  0
DIMSTYLE
  2
AM_ISO$7
 70
     0
  3

  4
"
  5

  6

  7

 40
1.0
 41
2.5
 42
1.0
 43
8.0
 44
0.6
 45
0.0
 46
0.0
 47
0.1
 48
0.1
140
2.5
141
0.0
142
0.0
143
0.0393701
144
1.0
145
0.0
146
0.71
147
0.8
 71
     0
 72
     0
 73
     0
 74
     0
 75
     0
 76
     0
 77
     1
 78
     8
170
     0
171
     2
172
     1
173
     0
174
     0
175
     0
176
   256
177
   256
178
     4
  0
DIMSTYLE
  2
AM_ISO$SF
 70
     0
  3

  4
"
  5

  6

  7

 40
1.0
 41
2.5
 42
1.0
 43
10.0
 44
1.0
 45
0.0
 46
0.0
 47
0.1
 48
0.1
140
3.5
141
0.0
142
0.0
143
0.0393701
144
1.0
145
0.0
146
0.71
147
1.5
 71
     0
 72
     0
 73
     0
 74
     0
 75
     1
 76
     1
 77
     1
 78
     8
170
     0
171
     2
172
     1
173
     0
174
     0
175
     0
176
   256
177
   256
178
     2
  0
DIMSTYLE
  2
AM_ISO$SH
 70
     0
  3

  4
"
  5

  6

  7

 40
1.0
 41
2.5
 42
1.0
 43
10.0
 44
1.0
 45
0.0
 46
0.0
 47
0.1
 48
0.1
140
3.5
141
0.0
142
0.0
143
0.0393701
144
2.0
145
0.0
146
0.71
147
1.5
 71
     0
 72
     0
 73
     0
 74
     0
 75
     1
 76
     1
 77
     1
 78
     8
170
     0
171
     2
172
     1
173
     1
174
     0
175
     0
176
   256
177
   256
178
     2
  0
DIMSTYLE
  2
AM_JIS
 70
     0
  3

  4
"
  5

  6

  7

 40
1.0
 41
2.5
 42
1.0
 43
7.0
 44
1.0
 45
0.0
 46
0.0
 47
0.1
 48
0.1000000001
140
2.5
141
0.0
142
0.0
143
0.0393701
144
1.0
145
0.0
146
0.71
147
1.0
 71
     0
 72
     0
 73
     0
 74
     0
 75
     0
 76
     0
 77
     3
 78
     8
170
     0
171
     2
172
     1
173
     0
174
     0
175
     0
176
   256
177
   256
178
     4
  0
DIMSTYLE
  2
AM_JIS$3
 70
     0
  3

  4
"
  5

  6

  7

 40
1.0
 41
2.5
 42
1.0
 43
7.0
 44
1.0
 45
0.0
 46
0.0
 47
0.1
 48
0.1000000001
140
2.5
141
0.0
142
0.0
143
0.0393701
144
1.0
145
0.0
146
0.71
147
1.0
 71
     0
 72
     0
 73
     0
 74
     1
 75
     0
 76
     0
 77
     3
 78
     8
170
     0
171
     2
172
     0
173
     0
174
     0
175
     0
176
   256
177
   256
178
     4
  0
DIMSTYLE
  2
AM_JIS$4
 70
     0
  3

  4
"
  5

  6

  7

 40
1.0
 41
2.5
 42
1.0
 43
7.0
 44
1.0
 45
0.0
 46
0.0
 47
0.1
 48
0.1000000001
140
2.5
141
0.0
142
0.0
143
0.0393701
144
1.0
145
0.0
146
0.71
147
1.0
 71
     0
 72
     0
 73
     0
 74
     0
 75
     0
 76
     0
 77
     3
 78
     8
170
     0
171
     2
172
     0
173
     0
174
     0
175
     0
176
   256
177
   256
178
     4
  0
DIMSTYLE
  2
AM_JIS$6
 70
     0
  3

  4
"
  5

  6

  7

 40
1.0
 41
2.5
 42
1.0
 43
7.0
 44
1.0
 45
0.0
 46
0.0
 47
0.1
 48
0.1000000001
140
2.5
141
0.0
142
0.0
143
0.0393701
144
1.0
145
0.0
146
0.71
147
1.0
 71
     0
 72
     0
 73
     0
 74
     0
 75
     0
 76
     0
 77
     0
 78
     8
170
     0
171
     2
172
     1
173
     0
174
     0
175
     0
176
   256
177
   256
178
     4
  0
DIMSTYLE
  2
AM_JIS$7
 70
     0
  3

  4
"
  5

  6

  7

 40
1.0
 41
2.5
 42
1.0
 43
7.0
 44
1.0
 45
0.0
 46
0.0
 47
0.1
 48
0.1000000001
140
2.5
141
0.0
142
0.0
143
0.0393701
144
1.0
145
0.0
146
0.71
147
1.0
 71
     0
 72
     0
 73
     0
 74
     0
 75
     0
 76
     0
 77
     3
 78
     8
170
     0
171
     2
172
     1
173
     0
174
     0
175
     0
176
   256
177
   256
178
     4
  0
DIMSTYLE
  2
AM_JIS$SF
 70
     0
  3

  4
"
  5

  6

  7

 40
1.0
 41
2.5
 42
1.0
 43
10.0
 44
1.0
 45
0.0
 46
0.0
 47
0.1
 48
0.1
140
3.5
141
0.0
142
0.0
143
0.0393701
144
1.0
145
0.0
146
0.71
147
1.5
 71
     0
 72
     0
 73
     0
 74
     0
 75
     1
 76
     1
 77
     3
 78
     8
170
     0
171
     2
172
     1
173
     0
174
     0
175
     0
176
   256
177
   256
178
     4
  0
DIMSTYLE
  2
AM_JIS$SH
 70
     0
  3

  4
"
  5

  6

  7

 40
1.0
 41
2.5
 42
1.0
 43
10.0
 44
1.0
 45
0.0
 46
0.0
 47
0.1
 48
0.1
140
3.5
141
0.0
142
0.0
143
0.0393701
144
1.0
145
0.0
146
0.71
147
1.5
 71
     0
 72
     0
 73
     0
 74
     0
 75
     1
 76
     0
 77
     3
 78
     8
170
     0
171
     2
172
     1
173
     1
174
     0
175
     0
176
   256
177
   256
178
     4
  0
DIMSTYLE
  2
AM_ANSI
 70
     0
  3

  4
mm
  5

  6

  7

 40
1.0
 41
0.1
 42
0.05
 43
0.5
 44
0.1
 45
0.0
 46
0.0
 47
0.1
 48
0.1
140
0.12
141
0.0
142
0.0
143
25.399999999999999
144
1.0
145
0.0
146
0.71
147
0.06
 71
     0
 72
     0
 73
     1
 74
     1
 75
     0
 76
     0
 77
     0
 78
     7
170
     0
171
     2
172
     0
173
     0
174
     0
175
     0
176
   256
177
   256
178
     2
  0
DIMSTYLE
  2
AM_ANSI$3
 70
     0
  3

  4
mm
  5

  6

  7

 40
1.0
 41
0.1
 42
0.05
 43
0.5
 44
0.1
 45
0.0
 46
0.0
 47
0.1
 48
0.1
140
0.12
141
0.0
142
0.0
143
25.399999999999999
144
1.0
145
0.0
146
0.71
147
0.06
 71
     0
 72
     0
 73
     1
 74
     1
 75
     0
 76
     0
 77
     0
 78
     7
170
     0
171
     2
172
     0
173
     0
174
     0
175
     0
176
   256
177
   256
178
     2
  0
DIMSTYLE
  2
AM_ANSI$4
 70
     0
  3

  4
mm
  5

  6

  7

 40
1.0
 41
0.1
 42
0.05
 43
0.5
 44
0.1
 45
0.0
 46
0.0
 47
0.1
 48
0.1
140
0.12
141
0.0
142
0.0
143
25.399999999999999
144
1.0
145
0.0
146
0.71
147
0.06
 71
     0
 72
     0
 73
     1
 74
     1
 75
     0
 76
     0
 77
     0
 78
     7
170
     0
171
     2
172
     0
173
     0
174
     0
175
     0
176
   256
177
   256
178
     2
  0
DIMSTYLE
  2
AM_ANSI$7
 70
     0
  3

  4
mm
  5

  6

  7

 40
1.0
 41
0.1
 42
0.05
 43
0.5
 44
0.1
 45
0.0
 46
0.0
 47
0.1
 48
0.1
140
0.24
141
0.0
142
0.0
143
25.399999999999999
144
1.0
145
0.0
146
0.71
147
0.06
 71
     0
 72
     0
 73
     1
 74
     1
 75
     0
 76
     0
 77
     0
 78
     7
170
     0
171
     2
172
     0
173
     0
174
     0
175
     0
176
   256
177
   256
178
     2
  0
DIMSTYLE
  2
AM_ANSI$SF
 70
     0
  3

  4
mm
  5

  6

  7

 40
1.0
 41
0.1
 42
0.05
 43
0.5
 44
0.1
 45
0.0
 46
0.0
 47
0.1
 48
0.1
140
0.12
141
0.0
142
0.0
143
25.399999999999999
144
1.0
145
0.0
146
0.71
147
0.06
 71
     0
 72
     0
 73
     1
 74
     1
 75
     1
 76
     1
 77
     0
 78
     7
170
     0
171
     2
172
     0
173
     0
174
     0
175
     0
176
   256
177
   256
178
     2
  0
DIMSTYLE
  2
AM_ANSI$SH
 70
     0
  3

  4
mm
  5

  6

  7

 40
1.0
 41
0.1
 42
0.05
 43
0.5
 44
0.1
 45
0.0
 46
0.0
 47
0.1
 48
0.1
140
0.12
141
0.0
142
0.0
143
25.399999999999999
144
1.0
145
0.0
146
0.71
147
0.06
 71
     0
 72
     0
 73
     1
 74
     1
 75
     1
 76
     1
 77
     0
 78
     7
170
     0
171
     2
172
     0
173
     1
174
     0
175
     0
176
   256
177
   256
178
     2
  0
ENDTAB
  0
ENDSEC
  0
SECTION
  2
BLOCKS
  0
BLOCK
  8
0
  2
$MODEL_SPACE
 70
     0
 10
0.0
 20
0.0
 30
0.0
  3
$MODEL_SPACE
  1

  0
ENDBLK
  5
2D8D
  8
0
  0
BLOCK
 67
     1
  8
0
  2
$PAPER_SPACE
 70
     0
 10
0.0
 20
0.0
 30
0.0
  3
$PAPER_SPACE
  1

  0
ENDBLK
  5
2D89
 67
     1
  8
0
  0
BLOCK
  8
0
  2
GENAXEH
 70
     0
 10
0.0
 20
0.0
 30
0.0
  3
GENAXEH
  1

  0
LINE
  5
2B89
  8
0
 10
-1.0
 20
0.0
 30
0.0
 11
1.0
 21
0.0
 31
0.0
  0
ENDBLK
  5
2B8A
  8
0
  0
BLOCK
  8
0
  2
_OPEN30
 70
     0
 10
0.0
 20
0.0
 30
0.0
  3
_OPEN30
  1

  0
LINE
  5
2B8D
  8
0
 62
     0
 10
-1.0
 20
0.26794919
 30
0.0
 11
0.0
 21
0.0
 31
0.0
  0
LINE
  5
2B8E
  8
0
 62
     0
 10
0.0
 20
0.0
 30
0.0
 11
-1.0
 21
-0.26794919
 31
0.0
  0
LINE
  5
2B8F
  8
0
 62
     0
 10
0.0
 20
0.0
 30
0.0
 11
-1.0
 21
0.0
 31
0.0
  0
ENDBLK
  5
2B90
  8
0
  0
BLOCK
  8
0
  2
_NONE
 70
     0
 10
0.0
 20
0.0
 30
0.0
  3
_NONE
  1

  0
ENDBLK
  5
2B93
  8
0
  0
BLOCK
  8
0
  2
_ACMFILLEDHALF
 70
     0
 10
0.0
 20
0.0
 30
0.0
  3
_ACMFILLEDHALF
  1

  0
TRACE
  5
2E83
  8
AM_0
 62
     0
 10
-0.8
 20
0.0
 30
0.0
 11
-1.0
 21
0.166666666
 31
0.0
 12
0.0
 22
0.0
 32
0.0
 13
0.0
 23
0.0
 33
0.0
  0
LINE
  5
2E84
  8
AM_0
 62
     0
 10
-1.0
 20
0.0
 30
0.0
 11
-0.8
 21
0.0
 31
0.0
  0
ENDBLK
  5
2E82
  8
0
  0
ENDSEC
  0
SECTION
  2
ENTITIES
  0
LINE
  5
2B95
  8
ﾁｭｳｼﾝｾﾝ
 10
324.23133912997082
 20
833.6054441964169
 30
0.0
 11
650.36422158017115
 21
833.6054441964169
 31
0.0
  0
POLYLINE
  5
2B96
  8
AM_0
 66
     1
 10
0.0
 20
0.0
 30
0.0
  0
VERTEX
  5
2B97
  8
AM_0
 10
523.71445158017127
 20
885.16993419641699
 30
0.0
 42
0.030646501
  0
VERTEX
  5
2B98
  8
AM_0
 10
519.3049015801713
 20
850.88653419641651
 30
0.0
 42
0.064801596
  0
VERTEX
  5
2B99
  8
AM_0
 10
523.71445158017127
 20
782.04091419641691
 30
0.0
  0
SEQEND
  5
2B9A
  8
AM_0
  0
ARC
  5
2B9B
  8
AM_0
 10
428.8501815801713
 20
817.73093419641702
 30
0.0
 40
5.0
 50
0.0
 51
82.818802999995938
  0
LINE
  5
2B9C
  8
AM_0
 10
566.85018158017124
 20
713.60544419641678
 30
0.0
 11
566.85018158017124
 21
953.60538419641705
 31
0.0
  0
LINE
  5
2B9D
  8
AM_0
 10
552.85018158017124
 20
722.64811419641694
 30
0.0
 11
552.85018158017124
 21
944.56272419641675
 31
0.0
  0
LINE
  5
2B9E
  8
AM_0
 10
562.85018158017124
 20
691.1054441964169
 30
0.0
 11
562.85018158017124
 21
976.10538419641682
 31
0.0
  0
LINE
  5
2B9F
  8
AM_0
 10
544.85025158017106
 20
694.6144141964171
 30
0.0
 11
544.85025158017106
 21
972.57981419641726
 31
0.0
  0
LINE
  5
2BA0
  8
AM_0
 10
638.85022158017136
 20
812.60544419641656
 30
0.0
 11
638.85022158017136
 21
854.6054441964169
 31
0.0
  0
LINE
  5
2BA1
  8
AM_0
 10
568.85025158017129
 20
811.1054441964169
 30
0.0
 11
568.85025158017129
 21
856.10544419641656
 31
0.0
  0
LINE
  5
2BA2
  8
AM_0
 10
417.85025158017129
 20
747.60544419641747
 30
0.0
 11
417.85025158017129
 21
829.6054441964169
 31
0.0
  0
LINE
  5
2BA3
  8
AM_0
 10
446.85025158017129
 20
693.86747419641688
 30
0.0
 11
446.85025158017129
 21
829.6054441964169
 31
0.0
  0
LINE
  5
2BA4
  8
AM_0
 10
433.8501815801713
 20
697.39566419641699
 30
0.0
 11
433.8501815801713
 21
824.06601419641697
 31
0.0
  0
LINE
  5
2BA5
  8
AM_0
 10
446.85025158017129
 20
782.04087419641667
 30
0.0
 11
544.85025158017106
 21
782.04087419641667
 31
0.0
  0
LINE
  5
2BA6
  8
AM_0
 10
446.85025158017129
 20
756.0396541964169
 30
0.0
 11
498.64596158017122
 21
756.0396541964169
 31
0.0
  0
LINE
  5
2BA7
  8
AM_0
 10
446.8501815801713
 20
693.86747419641688
 30
0.0
 11
547.78378158017131
 21
691.63181419641694
 31
0.0
  0
LINE
  5
2BA8
  8
AM_0
 10
446.85025158017129
 20
704.47507419641693
 30
0.0
 11
544.85025158017106
 21
701.05283419641694
 31
0.0
  0
LINE
  5
2BA9
  8
AM_0
 10
446.85025158017129
 20
693.86747419641688
 30
0.0
 11
436.69320158017132
 21
694.39975419641689
 31
0.0
  0
LINE
  5
2BAA
  8
AM_0
 10
435.78048158017128
 20
704.86167419641697
 30
0.0
 11
446.85031158017142
 21
704.47507419641693
 31
0.0
  0
ARC
  5
2BAB
  8
AM_0
 10
436.8501815801713
 20
697.39566419641699
 30
0.0
 40
3.0
 50
180.00001000000091
 51
266.99999000000008
  0
ARC
  5
2BAC
  8
AM_0
 10
435.85025158017118
 20
706.86051419641694
 30
0.0
 40
2.0
 50
179.9999899999988
 51
268.00000999999861
  0
LINE
  5
2BAD
  8
AM_0
 10
429.98983158017109
 20
746.82145419641711
 30
0.0
 11
419.8503715801711
 21
747.17551419641711
 31
0.0
  0
LINE
  5
2BAE
  8
AM_0
 10
429.98977158017118
 20
749.18155419641698
 30
0.0
 11
417.85031158017142
 21
749.60550419641697
 31
0.0
  0
LINE
  5
2BAF
  8
AM_0
 10
419.85031158017119
 20
749.53556419641711
 30
0.0
 11
419.85031158017119
 21
747.17545419641692
 31
0.0
  0
ARC
  5
2BB0
  8
AM_0
 10
429.8501815801713
 20
745.18399419641673
 30
0.0
 40
4.0
 50
0.0
 51
87.999999999996248
  0
ARC
  5
2BB1
  8
AM_0
 10
429.8501815801713
 20
742.82389419641709
 30
0.0
 40
4.0
 50
0.0
 51
87.999999999996248
  0
LINE
  5
2BB2
  8
AM_0
 10
433.8501815801713
 20
782.04093419641663
 30
0.0
 11
446.85025158017129
 21
782.04093419641663
 31
0.0
  0
LINE
  5
2BB3
  8
AM_0
 10
433.8501815801713
 20
756.0396541964169
 30
0.0
 11
446.85025158017129
 21
756.0396541964169
 31
0.0
  0
ARC
  5
2BB4
  8
AM_0
 10
547.85018158017124
 20
694.63102419641689
 30
0.0
 40
3.0
 50
179.9999899999988
 51
268.00000999999861
  0
LINE
  5
2BB5
  8
AM_0
 10
568.85025158017129
 20
812.60544419641656
 30
0.0
 11
638.85022158017136
 21
812.60544419641656
 31
0.0
  0
ARC
  5
2BB6
  8
AM_0
 10
498.64596158017122
 20
753.0396541964169
 30
0.0
 40
3.0
 50
59.11902300000196
 51
90.00000299999769
  0
ARC
  5
2BB7
  8
AM_0
 10
502.53775158017129
 20
757.70334419641711
 30
0.0
 40
3.0
 50
90.00000299999769
 51
239.11901999999981
  0
LINE
  5
2BB8
  8
AM_0
 10
542.70285158017145
 20
736.60178419641693
 30
0.0
 11
510.20010158017129
 21
756.0396541964169
 31
0.0
  0
LINE
  5
2BB9
  8
AM_0
 10
534.71884158017133
 20
760.70334419641665
 30
0.0
 11
544.85025158017106
 21
753.14524419641691
 31
0.0
  0
LINE
  5
2BBA
  8
AM_0
 10
542.41653158017129
 20
730.35880419641694
 30
0.0
 11
500.9979515801711
 21
755.12857419641693
 31
0.0
  0
POLYLINE
  5
2BBB
  8
AM_0
 66
     1
 10
0.0
 20
0.0
 30
0.0
  0
VERTEX
  5
2BBC
  8
AM_0
 10
537.19135158017139
 20
733.48346419641712
 30
0.0
 42
0.0052467293
  0
VERTEX
  5
2BBD
  8
AM_0
 10
539.61157158017124
 20
727.07363419641695
 30
0.0
 42
0.0052066122
  0
VERTEX
  5
2BBE
  8
AM_0
 10
542.16524158017126
 20
720.71580419641691
 30
0.0
 42
0.0051740405
  0
VERTEX
  5
2BBF
  8
AM_0
 10
544.85025158017106
 20
714.41257419641693
 30
0.0
  0
SEQEND
  5
2BC0
  8
AM_0
  0
LINE
  5
2BC1
  8
AM_0
 10
547.74551158017152
 20
691.63285419641693
 30
0.0
 11
562.85018158017124
 21
691.10538419641694
 31
0.0
  0
ARC
  5
2BC2
  8
AM_0
 10
547.85018158017124
 20
722.64811419641694
 30
0.0
 40
5.0
 50
267.99999999999631
 51
0.0
  0
LINE
  5
2BC3
  8
AM_0
 10
562.85018158017124
 20
713.60544419641678
 30
0.0
 11
566.85018158017124
 21
713.60544419641678
 31
0.0
  0
ARC
  5
2BC4
  8
AM_0
 10
539.85025158017129
 20
726.06760419641694
 30
0.0
 40
5.0
 50
0.0
 51
59.11901699999779
  0
LINE
  5
2BC5
  8
AM_0
 10
502.53775158017129
 20
760.70334419641665
 30
0.0
 11
544.85025158017106
 21
760.70334419641665
 31
0.0
  0
ARC
  5
2BC6
  8
AM_0
 10
549.85025158017106
 20
767.47098419641691
 30
0.0
 40
5.0
 50
90.00000299999769
 51
180.00001000000091
  0
LINE
  5
2BC7
  8
AM_0
 10
566.85018158017124
 20
811.1054441964169
 30
0.0
 11
568.85025158017129
 21
811.1054441964169
 31
0.0
  0
LINE
  5
2BC8
  8
AM_0
 10
446.85025158017129
 20
885.1699641964168
 30
0.0
 11
544.85025158017106
 21
885.1699641964168
 31
0.0
  0
LINE
  5
2BC9
  8
AM_0
 10
446.85025158017129
 20
962.73581419641721
 30
0.0
 11
544.85025158017106
 21
966.15799419641678
 31
0.0
  0
LINE
  5
2BCA
  8
AM_0
 10
446.8501815801713
 20
973.34336419641681
 30
0.0
 11
547.78378158017131
 21
975.57907419641674
 31
0.0
  0
LINE
  5
2BCB
  8
AM_0
 10
446.85025158017129
 20
911.17118419641668
 30
0.0
 11
498.64596158017122
 21
911.17118419641668
 31
0.0
  0
LINE
  5
2BCC
  8
AM_0
 10
433.8501815801713
 20
843.14487419641694
 30
0.0
 11
433.8501815801713
 21
969.81522419641681
 31
0.0
  0
LINE
  5
2BCD
  8
AM_0
 10
446.85025158017129
 20
837.60538419641705
 30
0.0
 11
446.85025158017129
 21
973.34342419641678
 31
0.0
  0
LINE
  5
2BCE
  8
AM_0
 10
414.35031158017131
 20
837.60538419641705
 30
0.0
 11
447.35031158017142
 21
837.60538419641705
 31
0.0
  0
LINE
  5
2BCF
  8
AM_0
 10
414.35031158017131
 20
829.6054441964169
 30
0.0
 11
447.35031158017142
 21
829.6054441964169
 31
0.0
  0
ARC
  5
2BD0
  8
AM_0
 10
414.35031158017131
 20
833.6054441964169
 30
0.0
 40
3.9999962
 50
90.00000299999769
 51
270.0
  0
LINE
  5
2BD1
  8
AM_0
 10
417.85025158017129
 20
837.60538419641705
 30
0.0
 11
417.85025158017129
 21
919.60544419641724
 31
0.0
  0
ARC
  5
2BD2
  8
AM_0
 10
430.85031158017131
 20
833.6054441964169
 30
0.0
 40
10.0
 50
203.5782699999985
 51
336.4217200000013
  0
ARC
  5
2BD3
  8
AM_0
 10
430.85031158017131
 20
833.6054441964169
 30
0.0
 40
10.0
 50
23.57803699999776
 51
156.42196000000081
  0
ARC
  5
2BD4
  8
AM_0
 10
430.85031158017131
 20
833.6054441964169
 30
0.0
 40
11.0
 50
201.32377999999761
 51
262.81880000000041
  0
ARC
  5
2BD5
  8
AM_0
 10
430.85031158017131
 20
833.6054441964169
 30
0.0
 40
11.0
 50
97.181195000004124
 51
158.67647999999841
  0
ARC
  5
2BD6
  8
AM_0
 10
428.8501815801713
 20
849.47995419641666
 30
0.0
 40
5.0
 50
277.18119999999942
 51
0.0
  0
ARC
  5
2BD7
  8
AM_0
 10
447.35031158017142
 20
833.6054441964169
 30
0.0
 40
3.9999962
 50
270.0
 51
90.00000299999769
  0
LINE
  5
2BD8
  8
AM_0
 10
433.8501815801713
 20
885.1699641964168
 30
0.0
 11
446.85025158017129
 21
885.1699641964168
 31
0.0
  0
ARC
  5
2BD9
  8
AM_0
 10
429.8501815801713
 20
922.02695419641668
 30
0.0
 40
4.0
 50
272.00000000000369
 51
0.0
  0
LINE
  5
2BDA
  8
AM_0
 10
419.85031158017119
 20
917.67527419641681
 30
0.0
 11
419.85031158017119
 21
920.03543419641676
 31
0.0
  0
LINE
  5
2BDB
  8
AM_0
 10
429.98977158017118
 20
918.02939419641689
 30
0.0
 11
417.85025158017129
 21
917.60544419641678
 31
0.0
  0
LINE
  5
2BDC
  8
AM_0
 10
433.8501815801713
 20
911.17124419641698
 30
0.0
 11
446.85025158017129
 21
911.17124419641698
 31
0.0
  0
LINE
  5
2BDD
  8
AM_0
 10
429.98983158017109
 20
920.38944419641678
 30
0.0
 11
419.85031158017119
 21
920.0353741964168
 31
0.0
  0
ARC
  5
2BDE
  8
AM_0
 10
429.8501815801713
 20
924.3870641964171
 30
0.0
 40
4.0
 50
272.00000000000369
 51
0.0
  0
LINE
  5
2BDF
  8
AM_0
 10
446.85025158017129
 20
973.34342419641678
 30
0.0
 11
436.69320158017132
 21
972.81113419641667
 31
0.0
  0
LINE
  5
2BE0
  8
AM_0
 10
435.78048158017128
 20
962.34922419641703
 30
0.0
 11
446.85025158017129
 21
962.73581419641721
 31
0.0
  0
ARC
  5
2BE1
  8
AM_0
 10
435.85025158017118
 20
960.35044419641724
 30
0.0
 40
2.0
 50
91.999998000000545
 51
180.00001000000091
  0
ARC
  5
2BE2
  8
AM_0
 10
436.8501815801713
 20
969.81522419641681
 30
0.0
 40
3.0
 50
92.999999000001679
 51
180.00001000000091
  0
POLYLINE
  5
2BE3
  8
AM_0
 66
     1
 10
0.0
 20
0.0
 30
0.0
  0
VERTEX
  5
2BE4
  8
AM_0
 10
544.85025158017106
 20
952.79825419641725
 30
0.0
  0
VERTEX
  5
2BE5
  8
AM_0
 10
537.19142158017132
 20
933.72756419641678
 30
0.0
 42
-1.0
  0
SEQEND
  5
2BE6
  8
AM_0
  0
ARC
  5
2BE7
  8
AM_0
 10
547.85018158017124
 20
944.56272419641675
 30
0.0
 40
5.0
 50
0.0
 51
91.999998000000545
  0
LINE
  5
2BE8
  8
AM_0
 10
568.85025158017129
 20
854.6054441964169
 30
0.0
 11
638.85022158017136
 21
854.6054441964169
 31
0.0
  0
LINE
  5
2BE9
  8
AM_0
 10
566.85018158017124
 20
856.10544419641656
 30
0.0
 11
568.85025158017129
 21
856.10544419641656
 31
0.0
  0
LINE
  5
2BEA
  8
AM_0
 10
534.71884158017133
 20
906.5075441964168
 30
0.0
 11
544.85018158017124
 21
914.06559419641667
 31
0.0
  0
LINE
  5
2BEB
  8
AM_0
 10
542.70285158017145
 20
930.60904419641724
 30
0.0
 11
510.20004158017122
 21
911.17124419641698
 31
0.0
  0
LINE
  5
2BEC
  8
AM_0
 10
542.41647158017145
 20
936.85202419641689
 30
0.0
 11
500.9979515801711
 21
912.08219419641705
 31
0.0
  0
LINE
  5
2BED
  8
AM_0
 10
502.53775158017129
 20
906.50748419641661
 30
0.0
 11
544.85025158017106
 21
906.50748419641661
 31
0.0
  0
ARC
  5
2BEE
  8
AM_0
 10
498.64596158017122
 20
914.17118419641679
 30
0.0
 40
3.0
 50
270.0
 51
300.88098000000002
  0
ARC
  5
2BEF
  8
AM_0
 10
502.53775158017129
 20
909.50748419641684
 30
0.0
 40
3.0
 50
120.8809700000043
 51
270.0
  0
ARC
  5
2BF0
  8
AM_0
 10
549.85025158017106
 20
899.73984419641681
 30
0.0
 40
5.0
 50
179.9999899999988
 51
270.0
  0
ARC
  5
2BF1
  8
AM_0
 10
539.85025158017129
 20
941.14322419641667
 30
0.0
 40
5.0
 50
300.88098000000002
 51
0.0
  0
LINE
  5
2BF2
  8
AM_0
 10
582.85025158017118
 20
827.60538419641682
 30
0.0
 11
638.85022158017136
 21
827.60538419641682
 31
0.0
  0
LINE
  5
2BF3
  8
AM_0
 10
582.85025158017118
 20
839.60538419641694
 30
0.0
 11
638.85022158017136
 21
839.60538419641694
 31
0.0
  0
ARC
  5
2BF4
  8
AM_0
 10
582.85025158017118
 20
833.60538419641694
 30
0.0
 40
6.0000037999999991
 50
90.00000299999769
 51
270.0
  0
LINE
  5
2BF5
  8
AM_0
 10
582.85025158017118
 20
839.60538419641694
 30
0.0
 11
582.85025158017118
 21
827.60538419641682
 31
0.0
  0
LINE
  5
2BF6
  8
AM_0
 10
547.74551158017152
 20
975.57798419641676
 30
0.0
 11
562.85018158017124
 21
976.1054441964169
 31
0.0
  0
ARC
  5
2BF7
  8
AM_0
 10
547.85018158017124
 20
972.57981419641726
 30
0.0
 40
3.0
 50
91.999998000000545
 51
180.00001000000091
  0
LINE
  5
2BF8
  8
AM_0
 10
562.85018158017124
 20
953.60538419641705
 30
0.0
 11
566.85018158017124
 21
953.60538419641705
 31
0.0
  0
LINE
  5
2BF9
  8
AM_0
 10
354.35025158017129
 20
957.60544419641724
 30
0.0
 11
354.35025158017129
 21
709.60544419641758
 31
0.0
  0
LINE
  5
2BFA
  8
AM_0
 10
338.35025158017118
 20
958.60544419641724
 30
0.0
 11
338.35025158017118
 21
708.60544419641735
 31
0.0
  0
LINE
  5
2BFB
  8
AM_0
 10
417.85025158017152
 20
747.60544419641747
 30
0.0
 11
357.08878432955828
 21
742.28950417449141
 31
0.0
  0
LINE
  5
2BFC
  8
AM_0
 10
416.85025158017191
 20
743.13716398045506
 30
0.0
 11
357.0887845801721
 21
737.90871298045454
 31
0.0
  0
LINE
  5
2BFD
  8
AM_0
 10
338.35025158017118
 20
708.60544419641735
 30
0.0
 11
353.35025158017129
 21
708.60544419641735
 31
0.0
  0
ARC
  5
2BFE
  8
AM_0
 10
353.35025158017129
 20
709.60544419641758
 30
0.0
 40
1.0
 50
270.0
 51
0.0
  0
ARC
  5
2BFF
  8
AM_0
 10
357.35025158017129
 20
739.30092008217366
 30
0.0
 40
3.0
 50
95.000000428873591
 51
180.0
1001
GENIUS_GENODEF_13
1002
{
1000
HIER
1070
     0
1002
}
1002
{
1000
MANEDIT
1070
     0
1002
}
1002
{
1000
NOSEL
1070
     0
1002
}
1002
{
1000
BEHIND
1070
     0
1002
}
1002
{
1000
OTHER
1070
     0
1002
}
1002
{
1000
REACTOR
1002
}
1001
GENIUS_GENOBJ-N-FIL_13
1002
{
1000
OWNER
1000
GEN
1002
}
  0
ARC
  5
2C00
  8
AM_0
 10
357.35025158017203
 20
734.92012898045471
 30
0.0
 40
3.0
 50
95.0
 51
180.0
  0
LINE
  5
2C01
  8
AM_0
 10
417.85025158017152
 20
919.60544419641747
 30
0.0
 11
357.08878432955828
 21
924.92138421834306
 31
0.0
  0
LINE
  5
2C02
  8
AM_0
 10
416.85025158017118
 20
924.07372441237987
 30
0.0
 11
357.08878458017142
 21
929.30217541238005
 31
0.0
  0
LINE
  5
2C03
  8
AM_0
 10
416.85025158017118
 20
841.10745419641751
 30
0.0
 11
354.35025158017129
 21
843.29000228965128
 31
0.0
  0
LINE
  5
2C04
  8
AM_0
 10
416.85025158017118
 20
844.57120419641785
 30
0.0
 11
354.35025158017129
 21
846.75375228965174
 31
0.0
  0
LINE
  5
2C05
  8
AM_0
 10
416.85025158017118
 20
822.63968419641697
 30
0.0
 11
354.35025158017129
 21
820.45713610318285
 31
0.0
  0
LINE
  5
2C06
  8
AM_0
 10
416.85025158017118
 20
826.10343419641674
 30
0.0
 11
354.35025158017129
 21
823.92088610318262
 31
0.0
  0
LINE
  5
2C07
  8
AM_0
 10
338.35025158017118
 20
958.60544419641724
 30
0.0
 11
353.35025158017129
 21
958.60544419641724
 31
0.0
  0
ARC
  5
2C08
  8
AM_0
 10
357.35025158017129
 20
932.29075941237988
 30
0.0
 40
3.0
 50
180.0
 51
265.0
  0
ARC
  5
2C09
  8
AM_0
 10
357.35025158017129
 20
927.90996831066116
 30
0.0
 40
3.0
 50
180.0
 51
264.9999995711263
1001
GENIUS_GENODEF_13
1002
{
1000
HIER
1070
     0
1002
}
1002
{
1000
MANEDIT
1070
     0
1002
}
1002
{
1000
NOSEL
1070
     0
1002
}
1002
{
1000
BEHIND
1070
     0
1002
}
1002
{
1000
OTHER
1070
     0
1002
}
1002
{
1000
REACTOR
1002
}
1001
GENIUS_GENOBJ-N-FIL_13
1002
{
1000
OWNER
1000
GEN
1002
}
  0
ARC
  5
2C0A
  8
AM_0
 10
353.35025158017129
 20
957.60544419641724
 30
0.0
 40
1.0
 50
0.0
 51
90.0
  0
LINE
  5
2C0B
  8
AM_0
 10
416.85025158017191
 20
747.51795552534895
 30
0.0
 11
416.85025158017191
 21
743.13716398045506
 31
0.0
  0
LINE
  5
2C0C
  8
AM_0
 10
416.85025158017118
 20
844.57120419641785
 30
0.0
 11
416.85025158017118
 21
837.60538419641705
 31
0.0
  0
LINE
  5
2C0D
  8
AM_0
 10
416.85025158017118
 20
919.69293286748598
 30
0.0
 11
416.85025158017118
 21
924.07372441237987
 31
0.0
  0
LINE
  5
2C0E
  8
AM_0
 10
416.85025158017118
 20
829.6054441964169
 30
0.0
 11
416.85025158017118
 21
822.63968419641697
 31
0.0
  0
LINE
  5
2C0F
  8
ﾁｭｳｼﾝｾﾝ
 10
422.69787158017118
 20
408.405375979935
 30
0.0
 11
646.79462158017111
 21
408.405375979935
 31
0.0
  0
LINE
  5
2C10
  8
AM_0
 10
582.85022158017125
 20
432.40540597993481
 30
0.0
 11
638.85022158017125
 21
432.40540597993481
 31
0.0
  0
LINE
  5
2C11
  8
AM_0
 10
568.85022158017125
 20
387.40540597993493
 30
0.0
 11
638.85022158017125
 21
387.40540597993493
 31
0.0
  0
LINE
  5
2C12
  8
AM_0
 10
568.85022158017125
 20
429.40540597993481
 30
0.0
 11
638.85022158017125
 21
429.40540597993481
 31
0.0
  0
LINE
  5
2C13
  8
AM_0
 10
417.85022158017051
 20
456.40540597993493
 30
0.0
 11
417.85022158017102
 21
284.40540597993493
 31
0.0
  0
LINE
  5
2C14
  8
AM_0
 10
354.35022158017102
 20
494.40540597993481
 30
0.0
 11
354.35022158017102
 21
246.40540597993501
 31
0.0
  0
LINE
  5
2C15
  8
AM_0
 10
338.35022158017102
 20
495.4054059799351
 30
0.0
 11
338.35022158017102
 21
245.40540597993501
 31
0.0
  0
LINE
  5
2C16
  8
AM_0
 10
433.85022158017108
 20
242.79075097993501
 30
0.0
 11
433.85022158017108
 21
498.02007097993493
 31
0.0
  0
LINE
  5
2C17
  8
AM_0
 10
446.85027158017112
 20
240.40539097993491
 30
0.0
 11
446.85027158017112
 21
500.405420979935
 31
0.0
  0
LINE
  5
2C18
  8
AM_0
 10
544.85027158017078
 20
429.89225597993487
 30
0.0
 11
544.85027158017078
 21
547.37972097993475
 31
0.0
  0
LINE
  5
2C19
  8
AM_0
 10
562.85022158017125
 20
265.905375979935
 30
0.0
 11
562.85022158017125
 21
550.90537097993513
 31
0.0
  0
LINE
  5
2C1A
  8
AM_0
 10
543.71572158017113
 20
426.75834097993493
 30
0.0
 11
527.46277158017097
 21
475.89436097993502
 31
0.0
  0
LINE
  5
2C1B
  8
AM_0
 10
552.85022158017125
 20
408.405375979935
 30
0.0
 11
552.85022158017125
 21
519.36267097993505
 31
0.0
  0
LINE
  5
2C1C
  8
AM_0
 10
566.85027158017056
 20
408.405375979935
 30
0.0
 11
566.85027158017056
 21
528.40537097993501
 31
0.0
  0
LINE
  5
2C1D
  8
AM_0
 10
414.85022158017102
 20
308.48650597993492
 30
0.0
 11
354.35022158017102
 21
308.48650597993492
 31
0.0
  0
LINE
  5
2C1E
  8
AM_0
 10
417.85022158017102
 20
284.40540597993493
 30
0.0
 11
357.08875458017098
 21
279.08946597993503
 31
0.0
  0
LINE
  5
2C1F
  8
ﾁｭｳｼﾝｾﾝ
 10
324.23133912997082
 20
370.40540597993493
 30
0.0
 11
440.883678524446
 21
370.40540597993493
 31
0.0
  0
LINE
  5
2C20
  8
AM_0
 10
354.35022158017102
 20
334.467267979935
 30
0.0
 11
414.85022158017102
 21
334.467267979935
 31
0.0
  0
LINE
  5
2C21
  8
AM_0
 10
354.35022158017102
 20
344.65849997993507
 30
0.0
 11
414.15392358017078
 21
344.65849997993507
 31
0.0
  0
ARC
  5
2C22
  8
AM_0
 10
357.35022158017102
 20
276.10088197993502
 30
0.0
 40
3.0
 50
94.99999999999973
 51
180.0
  0
LINE
  5
2C23
  8
AM_0
 10
338.35022158017102
 20
245.40540597993501
 30
0.0
 11
353.35022158017102
 21
245.40540597993501
 31
0.0
  0
ARC
  5
2C24
  8
AM_0
 10
353.35022158017102
 20
246.40540597993501
 30
0.0
 40
1.0
 50
270.0
 51
0.0
  0
LINE
  5
2C25
  8
AM_0
 10
544.85027158017078
 20
268.383400979935
 30
0.0
 11
544.85027158017078
 21
316.89854097993509
 31
0.0
  0
LINE
  5
2C26
  8
AM_0
 10
566.85027158017056
 20
408.405375979935
 30
0.0
 11
566.85027158017056
 21
288.40537597993489
 31
0.0
  0
ARC
  5
2C27
  8
AM_0
 10
474.85027158017112
 20
297.322275979935
 30
0.0
 40
9.7211409999999994
 50
90.00000299999769
 51
270.0
  0
LINE
  5
2C28
  8
AM_0
 10
474.85027158017112
 20
289.44779597993488
 30
0.0
 11
474.85027158017112
 21
305.547800979935
 31
0.0
  0
ARC
  5
2C29
  8
AM_0
 10
547.85022158017125
 20
297.44810097993508
 30
0.0
 40
5.0
 50
268.0000000000029
 51
0.0
  0
LINE
  5
2C2A
  8
AM_0
 10
474.85027158017112
 20
287.60114597993493
 30
0.0
 11
544.85027158017078
 21
287.60114597993493
 31
0.0
  0
LINE
  5
2C2B
  8
AM_0
 10
433.85022158017108
 20
248.68812097993509
 30
0.0
 11
523.6338715801711
 21
248.68812097993509
 31
0.0
  0
LINE
  5
2C2C
  8
AM_0
 10
433.85022158017108
 20
263.144905979935
 30
0.0
 11
548.67377158017132
 21
263.144905979935
 31
0.0
  0
LINE
  5
2C2D
  8
AM_0
 10
506.57877158017101
 20
238.84133097993501
 30
0.0
 11
552.8502715801709
 21
265.55616097993487
 31
0.0
  0
LINE
  5
2C2E
  8
AM_0
 10
446.85022158017102
 20
240.40540597993501
 30
0.0
 11
506.57877158017101
 21
238.84136597993501
 31
0.0
  0
LINE
  5
2C2F
  8
AM_0
 10
435.78042158017092
 20
240.79194097993491
 30
0.0
 11
446.85022158017102
 21
240.40537597993489
 31
0.0
  0
ARC
  5
2C30
  8
AM_0
 10
435.85027158017112
 20
242.79075097993501
 30
0.0
 40
2.0000000500000001
 50
179.9999899999988
 51
268.00000999999861
  0
LINE
  5
2C31
  8
AM_0
 10
417.85022158017102
 20
286.905375979935
 30
0.0
 11
430.95492158017112
 21
286.44776597993501
 31
0.0
  0
ARC
  5
2C32
  8
AM_0
 10
430.85027158017112
 20
283.449595979935
 30
0.0
 40
3.0000000500000001
 50
0.0
 51
88.000000000002899
  0
LINE
  5
2C33
  8
AM_0
 10
547.95492158017112
 20
265.38523097993487
 30
0.0
 11
562.85027158017056
 21
265.905375979935
 31
0.0
  0
ARC
  5
2C34
  8
AM_0
 10
547.85022158017125
 20
268.383400979935
 30
0.0
 40
3.0000000500000001
 50
179.9999899999988
 51
271.99999000000139
  0
LINE
  5
2C35
  8
AM_0
 10
562.85022158017125
 20
288.40537597993489
 30
0.0
 11
566.85027158017056
 21
288.40537597993489
 31
0.0
  0
LINE
  5
2C36
  8
AM_0
 10
474.85027158017112
 20
307.04343597993488
 30
0.0
 11
544.85027158017078
 21
307.04343597993488
 31
0.0
  0
LINE
  5
2C37
  8
AM_0
 10
433.85022158017108
 20
360.42439097993508
 30
0.0
 11
552.85022158017125
 21
360.42439097993508
 31
0.0
  0
LINE
  5
2C38
  8
AM_0
 10
433.85022158017108
 20
380.38639597993478
 30
0.0
 11
552.85022158017125
 21
380.38639597993478
 31
0.0
  0
LINE
  5
2C39
  8
AM_0
 10
416.85022158017091
 20
344.65849997993507
 30
0.0
 11
416.85022158017091
 21
310.48650597993492
 31
0.0
  0
LINE
  5
2C3A
  8
AM_0
 10
419.85027158017112
 20
339.29496097993501
 30
0.0
 11
419.85027158017112
 21
314.55247097993492
 31
0.0
  0
ARC
  5
2C3B
  8
AM_0
 10
414.85022158017102
 20
310.48650597993492
 30
0.0
 40
2.0
 50
270.0
 51
0.0
  0
LINE
  5
2C3C
  8
AM_0
 10
419.85027158017112
 20
327.54285597993493
 30
0.0
 11
433.85022158017108
 21
327.54285597993493
 31
0.0
  0
LINE
  5
2C3D
  8
AM_0
 10
419.85027158017112
 20
314.55247097993492
 30
0.0
 11
433.85022158017108
 21
314.55247097993492
 31
0.0
  0
LINE
  5
2C3E
  8
AM_0
 10
419.85027158017112
 20
339.29496097993501
 30
0.0
 11
433.85022158017108
 21
339.29496097993501
 31
0.0
  0
ARC
  5
2C3F
  8
AM_0
 10
414.85022158017102
 20
336.467267979935
 30
0.0
 40
2.0
 50
270.0
 51
0.0
  0
LINE
  5
2C40
  8
AM_0
 10
552.85022158017125
 20
408.405375979935
 30
0.0
 11
552.85022158017125
 21
297.44810097993508
 31
0.0
  0
ARC
  5
2C41
  8
AM_0
 10
549.85027158017056
 20
316.89854097993509
 30
0.0
 40
5.0
 50
90.00000299999769
 51
180.00001000000091
  0
LINE
  5
2C42
  8
AM_0
 10
568.85022158017125
 20
385.90537597993489
 30
0.0
 11
568.85022158017125
 21
430.90537597993512
 31
0.0
  0
LINE
  5
2C43
  8
AM_0
 10
566.85027158017056
 20
385.90537597993489
 30
0.0
 11
568.85022158017125
 21
385.90537597993489
 31
0.0
  0
LINE
  5
2C44
  8
AM_0
 10
548.46282158017118
 20
423.32856597993481
 30
0.0
 11
552.85022158017125
 21
423.32856597993481
 31
0.0
  0
ARC
  5
2C45
  8
AM_0
 10
548.46282158017118
 20
428.32856597993509
 30
0.0
 40
5.0
 50
198.30292000000031
 51
270.0
  0
LINE
  5
2C46
  8
AM_0
 10
566.85027158017056
 20
430.90537597993512
 30
0.0
 11
568.85022158017125
 21
430.90537597993512
 31
0.0
  0
LINE
  5
2C47
  8
AM_0
 10
582.85022158017125
 20
432.40540597993481
 30
0.0
 11
582.85022158017125
 21
429.40540597993481
 31
0.0
  0
ARC
  5
2C48
  8
AM_0
 10
430.85027158017112
 20
520.9053709799349
 30
0.0
 40
20.500000499999992
 50
304.61364000000401
 51
235.3863500000021
  0
LINE
  5
2C49
  8
AM_0
 10
416.85022158017091
 20
469.40540597993481
 30
0.0
 11
357.08875458017098
 21
474.6338569799351
 31
0.0
  0
LINE
  5
2C4A
  8
AM_0
 10
415.85022158017102
 20
456.340962979935
 30
0.0
 11
354.35022158017102
 21
456.340962979935
 31
0.0
  0
ARC
  5
2C4B
  8
AM_0
 10
357.35022158017102
 20
477.62244097993482
 30
0.0
 40
3.0
 50
180.0
 51
265.00000000000028
  0
LINE
  5
2C4C
  8
AM_0
 10
338.35022158017102
 20
495.4054059799351
 30
0.0
 11
353.35022158017102
 21
495.4054059799351
 31
0.0
  0
ARC
  5
2C4D
  8
AM_0
 10
353.35022158017102
 20
494.40540597993481
 30
0.0
 40
1.0
 50
0.0
 51
90.0
  0
LINE
  5
2C4E
  8
AM_0
 10
520.14312158017106
 20
503.69817097993479
 30
0.0
 11
543.38577158017131
 21
526.94092097993484
 31
0.0
  0
LINE
  5
2C4F
  8
AM_0
 10
498.35027158017112
 20
475.89433097993481
 30
0.0
 11
525.80327158017133
 21
475.89433097993481
 31
0.0
  0
LINE
  5
2C50
  8
AM_0
 10
542.41647158017111
 20
511.65202097993512
 30
0.0
 11
505.35757158017111
 21
489.48942597993482
 31
0.0
  0
LINE
  5
2C51
  8
AM_0
 10
542.70287158017095
 20
505.40902097993501
 30
0.0
 11
500.94482158017109
 21
480.43620097993482
 31
0.0
  0
CIRCLE
  5
2C52
  8
AM_0
 10
430.85027158017112
 20
520.9053709799349
 30
0.0
 40
12.5
  0
LINE
  5
2C53
  8
AM_0
 10
433.85022158017108
 20
477.66590597993491
 30
0.0
 11
495.91172158017082
 21
477.66590597993491
 31
0.0
  0
LINE
  5
2C54
  8
AM_0
 10
446.85027158017112
 20
500.405420979935
 30
0.0
 11
516.73842158017101
 21
502.23552097993502
 31
0.0
  0
LINE
  5
2C55
  8
AM_0
 10
433.85022158017108
 20
492.12269597993509
 30
0.0
 11
509.76077158017051
 21
492.12269597993509
 31
0.0
  0
LINE
  5
2C56
  8
AM_0
 10
419.85027158017112
 20
453.97523097993502
 30
0.0
 11
419.85027158017112
 21
498.40537097993513
 31
0.0
  0
ARC
  5
2C57
  8
AM_0
 10
430.85027158017112
 20
457.36118597993482
 30
0.0
 40
3.0000000500000001
 50
271.99999999999687
 51
0.0
  0
LINE
  5
2C58
  8
AM_0
 10
416.85022158017091
 20
456.40540597993493
 30
0.0
 11
416.85022158017091
 21
469.40540597993481
 31
0.0
  0
LINE
  5
2C59
  8
AM_0
 10
419.85027158017112
 20
453.97523097993502
 30
0.0
 11
430.95492158017112
 21
454.36302097993502
 31
0.0
  0
LINE
  5
2C5A
  8
AM_0
 10
417.85022158017102
 20
453.90537597993512
 30
0.0
 11
419.85027158017112
 21
453.97523097993502
 31
0.0
  0
LINE
  5
2C5B
  8
AM_0
 10
416.85022158017091
 20
456.40540597993493
 30
0.0
 11
417.85022158017051
 21
456.40540597993493
 31
0.0
  0
LINE
  5
2C5C
  8
AM_0
 10
430.85022158017119
 20
508.40537097993501
 30
0.0
 11
438.35362158017108
 21
507.02002097993511
 31
0.0
  0
LINE
  5
2C5D
  8
AM_0
 10
435.78042158017092
 20
500.01882097993507
 30
0.0
 11
446.85022158017102
 21
500.40537097993501
 31
0.0
  0
LINE
  5
2C5E
  8
AM_0
 10
423.03312158017098
 20
506.90537097993513
 30
0.0
 11
438.66732158017112
 21
506.90537097993513
 31
0.0
  0
LINE
  5
2C5F
  8
AM_0
 10
423.34672158017088
 20
507.0200709799351
 30
0.0
 11
430.85012158017099
 21
508.40542097993517
 31
0.0
  0
LINE
  5
2C60
  8
AM_0
 10
420.52737158017118
 20
499.905420979935
 30
0.0
 11
435.18282158017109
 21
499.905420979935
 31
0.0
  0
LINE
  5
2C61
  8
AM_0
 10
420.85027158017112
 20
499.90537097993501
 30
0.0
 11
422.56247158017112
 21
506.29552097993479
 31
0.0
  0
ARC
  5
2C62
  8
AM_0
 10
423.52842158017103
 20
506.03667097993502
 30
0.0
 40
1.0
 50
100.4607200000025
 51
164.99999000000179
  0
ARC
  5
2C63
  8
AM_0
 10
421.85027158017112
 20
498.40537097993513
 30
0.0
 40
2.0000000500000001
 50
131.4096200000032
 51
180.00001000000091
  0
ARC
  5
2C64
  8
AM_0
 10
416.93327158017109
 20
500.74187097993479
 30
0.0
 40
4.000000049999997
 50
347.9293300000017
 51
55.386359000001512
  0
ARC
  5
2C65
  8
AM_0
 10
435.85027158017112
 20
498.02007097993493
 30
0.0
 40
2.0000000500000001
 50
91.999998000000545
 51
180.00001000000091
  0
ARC
  5
2C66
  8
AM_0
 10
444.76717158017101
 20
500.74187097993479
 30
0.0
 40
4.000000049999997
 50
124.6136499999977
 51
187.8682199999983
  0
ARC
  5
2C67
  8
AM_0
 10
438.17212158017111
 20
506.03667097993502
 30
0.0
 40
1.0
 50
15.000000000000741
 51
79.539281000002589
  0
LINE
  5
2C68
  8
AM_0
 10
440.77312158017088
 20
500.19317097993479
 30
0.0
 11
439.1379715801711
 21
506.29547097993509
 31
0.0
  0
ARC
  5
2C69
  8
AM_0
 10
477.05002158017101
 20
502.20052097993482
 30
0.0
 40
30.946884499999999
 50
307.55230999999719
 51
335.59612999999888
  0
ARC
  5
2C6A
  8
AM_0
 10
498.35027158017112
 20
480.89433097993492
 30
0.0
 40
5.0
 50
229.76332999999909
 51
270.0
  0
LINE
  5
2C6B
  8
AM_0
 10
520.05792158017107
 20
498.2807209799351
 30
0.0
 11
518.73252158017101
 21
502.2877209799347
 31
0.0
  0
ARC
  5
2C6C
  8
AM_0
 10
516.60752158017101
 20
507.23377097993477
 30
0.0
 40
5.0
 50
271.50000000000261
 51
315.0
  0
LINE
  5
2C6D
  8
AM_0
 10
528.79302158017094
 20
476.88664097993501
 30
0.0
 11
544.85027158017078
 21
488.86546097993522
 31
0.0
  0
ARC
  5
2C6E
  8
AM_0
 10
525.80327158017133
 20
480.89433097993492
 30
0.0
 40
5.0
 50
270.0
 51
306.72320999999818
  0
ARC
  5
2C6F
  8
AM_0
 10
547.85022158017125
 20
519.36267097993505
 30
0.0
 40
5.0
 50
0.0
 51
91.999998000000545
  0
ARC
  5
2C70
  8
AM_0
 10
539.8502715801709
 20
530.47647097993513
 30
0.0
 40
5.0
 50
315.0
 51
0.0
  0
ARC
  5
2C71
  8
AM_0
 10
539.8502715801709
 20
515.94317097993485
 30
0.0
 40
5.0
 50
300.88098000000002
 51
0.0
  0
LINE
  5
2C72
  8
AM_0
 10
562.85022158017125
 20
528.40537097993501
 30
0.0
 11
566.85027158017056
 21
528.40537097993501
 31
0.0
  0
LINE
  5
2C73
  8
AM_0
 10
547.74552158017138
 20
550.37792097993497
 30
0.0
 11
562.85027158017056
 21
550.90537097993513
 31
0.0
  0
ARC
  5
2C74
  8
AM_0
 10
547.85022158017125
 20
547.37972097993475
 30
0.0
 40
3.0000000500000001
 50
91.999998000000545
 51
180.00001000000091
  0
CIRCLE
  5
2C75
  8
AM_0
 10
929.76468417138994
 20
408.405375979935
 30
0.0
 40
120.0
  0
CIRCLE
  5
2C76
  8
AM_0
 10
929.76468417138994
 20
408.405375979935
 30
0.0
 40
113.0
  0
ARC
  5
2C77
  8
AM_0
 10
929.76468417138994
 20
370.40540597993493
 30
0.0
 40
122.0
 50
22.571981999999569
 51
55.326819999998243
  0
ARC
  5
2C78
  8
AM_0
 10
929.76468417138994
 20
370.40540597993493
 30
0.0
 40
122.0
 50
124.67318000000159
 51
157.4280199999998
  0
LINE
  5
2C79
  8
ﾁｭｳｼﾝｾﾝ
 10
929.76468417138994
 20
558.49783546929484
 30
0.0
 11
929.76468417138994
 21
232.43580097993501
 31
0.0
  0
LINE
  5
2C7A
  8
AM_0
 10
787.26468917139005
 20
458.405375979935
 30
0.0
 11
787.26468917139005
 21
408.405375979935
 31
0.0
  0
LINE
  5
2C7B
  8
AM_0
 10
1072.2646691713901
 20
458.405375979935
 30
0.0
 11
1072.2646691713901
 21
408.405375979935
 31
0.0
  0
CIRCLE
  5
2C7C
  8
AM_0
 10
929.76468417138994
 20
408.405375979935
 30
0.0
 40
41.000000499999992
  0
ARC
  5
2C7D
  8
AM_0
 10
929.76468417138994
 20
408.405375979935
 30
0.0
 40
61.999994999999998
 50
143.58112451768011
 51
180.00001000000091
  0
ARC
  5
2C7E
  8
AM_0
 10
929.76468417138994
 20
408.405375979935
 30
0.0
 40
61.999994999999998
 50
0.0
 51
36.416318000003159
  0
LINE
  5
2C7F
  8
AM_0
 10
1051.4364991713901
 20
268.40821097993501
 30
0.0
 11
979.7646841713904
 21
265.90540597993493
 31
0.0
  0
LINE
  5
2C80
  8
ﾁｭｳｼﾝｾﾝ
 10
778.58221534947984
 20
408.405375979935
 30
0.0
 11
1077.621877003957
 21
408.405375979935
 31
0.0
  0
LINE
  5
2C81
  8
AM_0
 10
1035.2871791713901
 20
380.40540597993493
 30
0.0
 11
999.76468417139029
 21
380.40540597993493
 31
0.0
  0
ARC
  5
2C82
  8
AM_0
 10
808.75592417139012
 20
287.39667597993508
 30
0.0
 40
19.000000499999999
 50
182.0000000000004
 51
268.0000000000029
  0
LINE
  5
2C83
  8
AM_0
 10
789.7675391713899
 20
286.73356097993508
 30
0.0
 11
787.26468917139005
 21
358.40543597993508
 31
0.0
  0
LINE
  5
2C84
  8
AM_0
 10
638.85022158017125
 20
387.40540597993493
 30
0.0
 11
638.85022158017125
 21
432.40540597993481
 31
0.0
  0
LINE
  5
2C85
  8
AM_0
 10
787.26468917139005
 20
358.405375979935
 30
0.0
 11
787.26468917139005
 21
408.405375979935
 31
0.0
  0
CIRCLE
  5
2C86
  8
AM_0
 10
809.55652417139015
 20
288.19724597993508
 30
0.0
 40
9.5
  0
ARC
  5
2C87
  8
ﾁｭｳｼﾝｾﾝ1
 10
929.76468417138653
 20
408.40537597993222
 30
0.0
 40
170.0000049999955
 50
218.85865324382189
 51
231.01461
  0
LINE
  5
2C88
  8
ﾁｭｳｼﾝｾﾝ1
 10
797.59068881653263
 20
276.2313465761323
 30
0.0
 11
822.20019087651315
 21
300.8408522016353
 31
0.0
  0
ARC
  5
2C89
  8
AM_0
 10
929.76468417138994
 20
370.40540597993493
 30
0.0
 40
130.0
 50
246.6310400000028
 51
293.36895999999689
  0
LINE
  5
2C8A
  8
AM_0
 10
879.76468417138983
 20
265.905375979935
 30
0.0
 11
929.76468417138994
 21
265.905375979935
 31
0.0
  0
LINE
  5
2C8B
  8
AM_0
 10
808.09286917139025
 20
268.40824097993499
 30
0.0
 11
879.76471417139044
 21
265.90540597993493
 31
0.0
  0
LINE
  5
2C8C
  8
AM_0
 10
855.10541417139007
 20
255.23389597993491
 30
0.0
 11
851.98608917138995
 21
266.87540597993501
 31
0.0
  0
LINE
  5
2C8D
  8
AM_0
 10
867.35287917138999
 20
248.16282097993491
 30
0.0
 11
878.20007917139026
 21
251.069315979935
 31
0.0
  0
ARC
  5
2C8E
  8
AM_0
 10
864.76468417139029
 20
257.82209097993501
 30
0.0
 40
10.0
 50
195.0000099999981
 51
285.00000000000148
  0
LINE
  5
2C8F
  8
AM_0
 10
979.7646841713904
 20
265.905375979935
 30
0.0
 11
929.76468417138994
 21
265.905375979935
 31
0.0
  0
LINE
  5
2C90
  8
AM_0
 10
1004.42392417139
 20
255.23389597993491
 30
0.0
 11
1007.54324917139
 21
266.87543597993488
 31
0.0
  0
LINE
  5
2C91
  8
AM_0
 10
992.17645917138998
 20
248.16282097993491
 30
0.0
 11
981.32922917139035
 21
251.06934597993489
 31
0.0
  0
ARC
  5
2C92
  8
AM_0
 10
994.7646841713904
 20
257.82209097993501
 30
0.0
 40
10.0
 50
254.99999999999821
 51
344.99999999999909
  0
LINE
  5
2C93
  8
ﾁｭｳｼﾝｾﾝ
 10
867.7646841713904
 20
370.40540597993493
 30
0.0
 11
991.76468417139029
 21
370.40540597993493
 31
0.0
  0
LINE
  5
2C94
  8
AM_0
 10
824.24218917139012
 20
380.40540597993493
 30
0.0
 11
859.7646841713904
 21
380.40540597993493
 31
0.0
  0
ARC
  5
2C95
  8
AM_0
 10
824.24218917139012
 20
385.40540597993493
 30
0.0
 40
5.0
 50
192.29603999999881
 51
270.0
  0
LINE
  5
2C96
  8
AM_0
 10
867.7646841713904
 20
408.405375979935
 30
0.0
 11
867.7646841713904
 21
388.405375979935
 31
0.0
  0
ARC
  5
2C97
  8
AM_0
 10
859.7646841713904
 20
388.405375979935
 30
0.0
 40
8.0
 50
270.0
 51
0.0
  0
ARC
  5
2C98
  8
AM_0
 10
929.76468417138994
 20
408.405375979935
 30
0.0
 40
20.9999985
 50
106.6015499999988
 51
73.398451999997818
  0
CIRCLE
  5
2C99
  8
AM_5
 10
929.76468417138994
 20
408.405375979935
 30
0.0
 40
5.0
  0
CIRCLE
  5
2C9A
  8
AM_0
 10
929.76468417138994
 20
408.405375979935
 30
0.0
 40
3.5000000500000001
  0
LINE
  5
2C9B
  8
AM_0
 10
923.76468417139029
 20
432.40540597993481
 30
0.0
 11
935.76468417139006
 21
432.40540597993481
 31
0.0
  0
LINE
  5
2C9C
  8
AM_0
 10
923.76468417139029
 20
424.40540597993481
 30
0.0
 11
935.76468417139006
 21
424.40540597993481
 31
0.0
  0
LINE
  5
2C9D
  8
AM_0
 10
923.76468417139029
 20
432.40540597993481
 30
0.0
 11
923.76468417139029
 21
424.40540597993481
 31
0.0
  0
LINE
  5
2C9E
  8
AM_0
 10
935.76468417139006
 20
432.40540597993481
 30
0.0
 11
935.76468417139006
 21
424.40540597993481
 31
0.0
  0
LINE
  5
2C9F
  8
AM_0
 10
991.76465417139025
 20
408.405375979935
 30
0.0
 11
991.76465417139025
 21
388.405375979935
 31
0.0
  0
ARC
  5
2CA0
  8
AM_0
 10
999.76468417139029
 20
388.405375979935
 30
0.0
 40
8.0
 50
179.9999899999988
 51
270.0
  0
LINE
  5
2CA1
  8
AM_0
 10
1069.7618491713899
 20
286.733590979935
 30
0.0
 11
1072.2646691713901
 21
358.405375979935
 31
0.0
  0
CIRCLE
  5
2CA2
  8
AM_0
 10
1049.97282917139
 20
288.19724597993508
 30
0.0
 40
9.5
  0
ARC
  5
2CA3
  8
AM_0
 10
1050.77341417139
 20
287.39667597993508
 30
0.0
 40
19.000000499999999
 50
271.99999999999687
 51
357.9999999999992
  0
LINE
  5
2CA4
  8
AM_0
 10
1072.2646691713901
 20
358.405375979935
 30
0.0
 11
1072.2646691713901
 21
408.405375979935
 31
0.0
  0
ARC
  5
2CA5
  8
AM_0
 10
1035.2871791713901
 20
385.40540597993493
 30
0.0
 40
5.0
 50
270.0
 51
347.70395000000082
  0
ARC
  5
2CA6
  8
AM_0
 10
1012.87518917139
 20
477.37379097993482
 30
0.0
 40
5.0
 50
39.687223999999532
 51
135.0
  0
LINE
  5
2CA7
  8
AM_0
 10
1051.4364991713901
 20
548.40257097993504
 30
0.0
 11
979.76471417139044
 21
550.90537097993513
 31
0.0
  0
ARC
  5
2CA8
  8
AM_0
 10
808.75592417139012
 20
529.41417097993485
 30
0.0
 40
19.000000499999999
 50
91.999998000000545
 51
177.9999999999994
  0
LINE
  5
2CA9
  8
AM_0
 10
789.7675391713899
 20
530.07727097993518
 30
0.0
 11
787.26468917139005
 21
458.405375979935
 31
0.0
  0
ARC
  5
2CAA
  8
AM_0
 10
929.76468417138994
 20
408.405375979935
 30
0.0
 40
61.999994999999998
 50
53.583681000000588
 51
126.41631999999819
  0
LINE
  5
2CAB
  8
AM_0
 10
879.76468417138983
 20
550.90537097993513
 30
0.0
 11
929.76468417138994
 21
550.90537097993513
 31
0.0
  0
ARC
  5
2CAC
  8
AM_0
 10
846.65414917139015
 20
477.37379097993482
 30
0.0
 40
5.0
 50
45.00000100000149
 51
140.31278000000091
  0
LINE
  5
2CAD
  8
AM_0
 10
850.18969917138998
 20
480.909315979935
 30
0.0
 11
879.38366917139024
 21
451.71534597993508
 31
0.0
  0
LINE
  5
2CAE
  8
AM_0
 10
857.26077917139025
 20
487.98039097993501
 30
0.0
 11
886.45474917139006
 21
458.7864209799348
 31
0.0
  0
ARC
  5
2CAF
  8
AM_0
 10
875.84814917138965
 20
448.17982097993507
 30
0.0
 40
5.0
 50
323.58368000000172
 51
45.00000100000149
  0
ARC
  5
2CB0
  8
AM_0
 10
889.99026917139042
 20
462.3219709799348
 30
0.0
 40
5.0
 50
225.0
 51
306.41631999999822
  0
ARC
  5
2CB1
  8
AM_0
 10
929.76468417138994
 20
370.40537597993591
 30
0.0
 40
122.0
 50
93.837626000003567
 51
119.8569400000037
  0
ARC
  5
2CB2
  8
AM_0
 10
860.79629917139005
 20
491.51594097993501
 30
0.0
 40
5.0
 50
129.6872200000015
 51
225.0
  0
LINE
  5
2CB3
  8
AM_0
 10
808.09286917139025
 20
548.40262097993445
 30
0.0
 11
879.76471417139044
 21
550.90542097993512
 31
0.0
  0
CIRCLE
  5
2CB4
  8
AM_0
 10
809.55652417139015
 20
528.61357097993505
 30
0.0
 40
9.5
  0
LINE
  5
2CB5
  8
AM_0
 10
926.26468417138994
 20
516.07037097993475
 30
0.0
 11
926.26468417138994
 21
497.12067097993508
 31
0.0
  0
LINE
  5
2CB6
  8
AM_0
 10
933.26468417138994
 20
516.07037097993475
 30
0.0
 11
933.26468417138994
 21
497.12067097993508
 31
0.0
  0
ARC
  5
2CB7
  8
AM_0
 10
929.76468417138994
 20
370.40540597993493
 30
0.0
 40
122.0
 50
60.143060000003558
 51
86.162371999997163
  0
ARC
  5
2CB8
  8
AM_0
 10
921.26468417139029
 20
497.12067097993508
 30
0.0
 40
5.0
 50
273.83763000000209
 51
0.0
  0
ARC
  5
2CB9
  8
AM_0
 10
938.26468417139051
 20
497.12067097993508
 30
0.0
 40
5.0
 50
179.9999899999988
 51
266.16236000000072
  0
LINE
  5
2CBA
  8
AM_0
 10
1009.33969917139
 20
480.909315979935
 30
0.0
 11
980.14572917139049
 21
451.7153159799351
 31
0.0
  0
LINE
  5
2CBB
  8
AM_0
 10
1002.26862417139
 20
487.98036097993509
 30
0.0
 11
973.07465417139019
 21
458.78639097993482
 31
0.0
  0
ARC
  5
2CBC
  8
AM_0
 10
983.68124917139028
 20
448.17982097993507
 30
0.0
 40
5.0
 50
135.0
 51
216.41631999999831
  0
ARC
  5
2CBD
  8
AM_0
 10
969.53909917139026
 20
462.3219709799348
 30
0.0
 40
5.0
 50
233.58368000000161
 51
315.0
  0
ARC
  5
2CBE
  8
AM_0
 10
998.73309917139022
 20
491.51594097993501
 30
0.0
 40
5.0
 50
315.0
 51
50.312775000000542
  0
LINE
  5
2CBF
  8
AM_0
 10
979.7646841713904
 20
550.90537097993513
 30
0.0
 11
929.76468417138994
 21
550.90537097993513
 31
0.0
  0
ARC
  5
2CC0
  8
AM_0
 10
921.26468417139029
 20
516.07037097993475
 30
0.0
 40
5.0
 50
0.0
 51
94.514061000000083
  0
ARC
  5
2CC1
  8
AM_0
 10
938.26468417139051
 20
516.07037097993475
 30
0.0
 40
5.0
 50
85.485944000000941
 51
180.00001000000091
  0
LINE
  5
2CC2
  8
AM_0
 10
1069.7618341713901
 20
530.07727097993518
 30
0.0
 11
1072.2646691713901
 21
458.40540597993481
 31
0.0
  0
ARC
  5
2CC3
  8
AM_0
 10
1050.77341417139
 20
529.41417097993485
 30
0.0
 40
19.000000499999999
 50
2.0000000000004712
 51
88.000000000002899
  0
ARC
  5
2CC4
  8
ﾁｭｳｼﾝｾﾝ1
 10
929.76468417138165
 20
408.40537597992648
 30
0.0
 40
170.00000500001201
 50
38.62024717870765
 51
51.014604000000709
  0
LINE
  5
2CC5
  8
ﾁｭｳｼﾝｾﾝ1
 10
1061.8145661825281
 20
540.45524571090755
 30
0.0
 11
1037.6352022984911
 21
516.27589708202891
 31
0.0
  0
CIRCLE
  5
2CC6
  8
AM_0
 10
1049.97282917139
 20
528.61357097993505
 30
0.0
 40
9.5
  0
ARC
  5
2CC7
  8
ﾁｭｳｼﾝｾﾝ1
 10
929.76468417139836
 20
408.40537597992648
 30
0.0
 40
170.00000500001201
 50
128.98539599999961
 51
141.3797528212925
  0
LINE
  5
2CC8
  8
ﾁｭｳｼﾝｾﾝ1
 10
797.71480216025134
 20
540.45524571090709
 30
0.0
 11
821.89416604428834
 21
516.27589708202822
 31
0.0
  0
ARC
  5
2CC9
  8
ﾁｭｳｼﾝｾﾝ1
 10
929.76468417139324
 20
408.40537597993222
 30
0.0
 40
170.0000049999955
 50
308.98539000000028
 51
321.14134675617822
  0
LINE
  5
2CCA
  8
ﾁｭｳｼﾝｾﾝ1
 10
1061.938679526246
 20
276.23134657613281
 30
0.0
 11
1037.3291774662671
 21
300.84085220163593
 31
0.0
  0
TEXT
  5
2EA8
  8
AM_0
 10
803.30114467495014
 20
878.13927280192684
 30
0.0
 40
15.0
  1
VX22-025AF~VX22-030AF
  0
ENDSEC
  0
EOF
