  0
SECTION
  2
HEADER
  9
$ACADVER
  1
AC1009
  9
$INSBASE
 10
0.0
 20
0.0
 30
0.0
  9
$EXTMIN
 10
308.28503022119958
 20
244.40984076519501
 30
-0.0000000000112498
  9
$EXTMAX
 10
1225.4563171695399
 20
960.36155216290706
 30
0.0000000000002956
  9
$LIMMIN
 10
0.0
 20
0.0
  9
$LIMMAX
 10
1422.5
 20
925.0
  9
$ORTHOMODE
 70
     0
  9
$REGENMODE
 70
     1
  9
$FILLMODE
 70
     1
  9
$QTEXTMODE
 70
     0
  9
$MIRRTEXT
 70
     1
  9
$DRAGMODE
 70
     2
  9
$LTSCALE
 40
5.0
  9
$OSMODE
 70
   551
  9
$ATTMODE
 70
     1
  9
$TEXTSIZE
 40
2.5
  9
$TRACEWID
 40
1.0
  9
$TEXTSTYLE
  7
STANDARD
  9
$CLAYER
  8
AM_0
  9
$CELTYPE
  6
BYLAYER
  9
$CECOLOR
 62
   256
  9
$DIMSCALE
 40
1.0
  9
$DIMASZ
 40
2.5
  9
$DIMEXO
 40
1.0
  9
$DIMDLI
 40
8.0
  9
$DIMRND
 40
0.0
  9
$DIMDLE
 40
0.0
  9
$DIMEXE
 40
0.6
  9
$DIMTP
 40
0.1
  9
$DIMTM
 40
0.1
  9
$DIMTXT
 40
2.5
  9
$DIMCEN
 40
0.0
  9
$DIMTSZ
 40
0.0
  9
$DIMTOL
 70
     0
  9
$DIMLIM
 70
     0
  9
$DIMTIH
 70
     0
  9
$DIMTOH
 70
     0
  9
$DIMSE1
 70
     0
  9
$DIMSE2
 70
     0
  9
$DIMTAD
 70
     1
  9
$DIMZIN
 70
     8
  9
$DIMBLK
  1

  9
$DIMASO
 70
     1
  9
$DIMSHO
 70
     1
  9
$DIMPOST
  1

  9
$DIMAPOST
  1
"
  9
$DIMALT
 70
     0
  9
$DIMALTD
 70
     2
  9
$DIMALTF
 40
0.0393701
  9
$DIMLFAC
 40
1.0
  9
$DIMTOFL
 70
     1
  9
$DIMTVP
 40
0.0
  9
$DIMTIX
 70
     0
  9
$DIMSOXD
 70
     0
  9
$DIMSAH
 70
     0
  9
$DIMBLK1
  1

  9
$DIMBLK2
  1

  9
$DIMSTYLE
  2
AM_ISO
  9
$DIMCLRD
 70
   256
  9
$DIMCLRE
 70
   256
  9
$DIMCLRT
 70
     4
  9
$DIMTFAC
 40
0.71
  9
$DIMGAP
 40
0.8
  9
$LUNITS
 70
     2
  9
$LUPREC
 70
     2
  9
$SKETCHINC
 40
1.0
  9
$FILLETRAD
 40
25.0
  9
$AUNITS
 70
     0
  9
$AUPREC
 70
     0
  9
$MENU
  1
.
  9
$ELEVATION
 40
0.0
  9
$PELEVATION
 40
0.0
  9
$THICKNESS
 40
0.0
  9
$LIMCHECK
 70
     0
  9
$BLIPMODE
 70
     0
  9
$CHAMFERA
 40
10.0
  9
$CHAMFERB
 40
5.0
  9
$SKPOLY
 70
     0
  9
$TDCREATE
 40
2452066.6416127658
  9
$TDUPDATE
 40
2458541.549308368
  9
$TDINDWG
 40
0.1766171875
  9
$TDUSRTIMER
 40
0.1766171644
  9
$USRTIMER
 70
     1
  9
$ANGBASE
 50
0.0
  9
$ANGDIR
 70
     0
  9
$PDMODE
 70
     0
  9
$PDSIZE
 40
0.0
  9
$PLINEWID
 40
0.0
  9
$COORDS
 70
     1
  9
$SPLFRAME
 70
     0
  9
$SPLINETYPE
 70
     6
  9
$SPLINESEGS
 70
     8
  9
$ATTDIA
 70
     1
  9
$ATTREQ
 70
     1
  9
$HANDLING
 70
     1
  9
$HANDSEED
  5
30BB
  9
$SURFTAB1
 70
     6
  9
$SURFTAB2
 70
     6
  9
$SURFTYPE
 70
     6
  9
$SURFU
 70
     6
  9
$SURFV
 70
     6
  9
$UCSNAME
  2

  9
$UCSORG
 10
0.0
 20
0.0
 30
0.0
  9
$UCSXDIR
 10
1.0
 20
0.0
 30
0.0
  9
$UCSYDIR
 10
0.0
 20
1.0
 30
0.0
  9
$PUCSNAME
  2

  9
$PUCSORG
 10
0.0
 20
0.0
 30
0.0
  9
$PUCSXDIR
 10
1.0
 20
0.0
 30
0.0
  9
$PUCSYDIR
 10
0.0
 20
1.0
 30
0.0
  9
$USERI1
 70
     0
  9
$USERI2
 70
     0
  9
$USERI3
 70
     0
  9
$USERI4
 70
     0
  9
$USERI5
 70
     0
  9
$USERR1
 40
0.0
  9
$USERR2
 40
0.0
  9
$USERR3
 40
0.0
  9
$USERR4
 40
0.0
  9
$USERR5
 40
0.0
  9
$WORLDVIEW
 70
     1
  9
$SHADEDGE
 70
     3
  9
$SHADEDIF
 70
    70
  9
$TILEMODE
 70
     1
  9
$MAXACTVP
 70
    64
  9
$PLIMCHECK
 70
     0
  9
$PEXTMIN
 10
1.0000000000000000E+020
 20
1.0000000000000000E+020
 30
1.0000000000000000E+020
  9
$PEXTMAX
 10
-1.0000000000000000E+020
 20
-1.0000000000000000E+020
 30
-1.0000000000000000E+020
  9
$PLIMMIN
 10
0.0
 20
0.0
  9
$PLIMMAX
 10
420.0
 20
297.0
  9
$UNITMODE
 70
     0
  9
$VISRETAIN
 70
     1
  9
$PLINEGEN
 70
     0
  9
$PSLTSCALE
 70
     1
  0
ENDSEC
  0
SECTION
  2
TABLES
  0
TABLE
  2
VPORT
 70
     1
  0
VPORT
  2
*ACTIVE
 70
     0
 10
0.0
 20
0.0
 11
1.0
 21
1.0
 12
766.87067369536999
 22
602.38569646405097
 13
0.0
 23
0.0
 14
12.5
 24
12.5
 15
50.0
 25
50.0
 16
0.0
 26
0.0
 36
1.0
 17
0.0
 27
0.0
 37
0.0
 40
720.8667117047903
 41
1.7571592210767459
 42
50.0
 43
0.0
 44
0.0
 50
0.0
 51
0.0
 71
     0
 72
   100
 73
     1
 74
     3
 75
     0
 76
     0
 77
     0
 78
     0
  0
ENDTAB
  0
TABLE
  2
LTYPE
 70
    26
  0
LTYPE
  2
CONTINUOUS
 70
     0
  3
Solid line
 72
    65
 73
     0
 40
0.0
  0
LTYPE
  2
AM_ISO02W050
 70
     0
  3
__ __ __ __ __ __ __ __ __ __ __ __ __ __ __
 72
    65
 73
     2
 40
7.5
 49
6.0
 49
-1.5
  0
LTYPE
  2
AM_ISO08W050
 70
     0
  3
____ . ____ . ____ . ____ . ____ . ____ . ____
 72
    65
 73
     4
 40
18.0
 49
12.0
 49
-1.5
 49
3.0
 49
-1.5
  0
LTYPE
  2
AM_ISO09W050
 70
     0
  3
_____ . . _____ . . _____ . . ____ .. ____
 72
    65
 73
     6
 40
22.5
 49
12.0
 49
-1.5
 49
3.0
 49
-1.5
 49
3.0
 49
-1.5
  0
LTYPE
  2
AMCONSTR
 70
     0
  3
_______________________
 72
    65
 73
     2
 40
9999.0
 49
9999.0
 49
0.0
  0
LTYPE
  2
AM_ISO08W050X2
 70
     0
  3
__ . __ . __ . __ . __ . __
 72
    65
 73
     4
 40
9.0
 49
6.0
 49
-0.75
 49
1.5
 49
-0.75
  0
LTYPE
  2
AM_ISO02W050X2
 70
     0
  3
 _ _ _ _ _ _ _ _ _ _ _ _
 72
    65
 73
     2
 40
3.75
 49
3.0
 49
-0.75
  0
LTYPE
  2
AMZIGZAG
 70
     0
  3
/\/-/\/-/\/-/\/-/\/-/\/
 72
    65
 73
     2
 40
11.000099999999991
 49
0.0001
 49
-11.0
  0
LTYPE
  2
ACISOWELD
 70
     0
  3
_ _ _ _ _
 72
    65
 73
     2
 40
2.0
 49
2.0
 49
-1.0
  0
LTYPE
  2
ACISOTGB
 70
     0
  3
__ . . __ . .
 72
    65
 73
     6
 40
9.0
 49
4.0
 49
-1.0
 49
1.0
 49
-1.0
 49
1.0
 49
-1.0
  0
LTYPE
  2
ACISOTGL
 70
     0
  3
_ _ _ _ _
 72
    65
 73
     2
 40
3.0
 49
2.0
 49
-1.0
  0
LTYPE
  2
CENTER
 70
     0
  3
__ . __
 72
    65
 73
     4
 40
7.0
 49
4.0
 49
-1.0
 49
1.0
 49
-1.0
  0
LTYPE
  2
PHANTOM2
 70
     0
  3
Phantom (.5x) ___ _ _ ___ _ _ ___ _ _ ___ _ _
 72
    65
 73
     6
 40
31.75
 49
15.875
 49
-3.174999999999998
 49
3.174999999999998
 49
-3.174999999999998
 49
3.174999999999998
 49
-3.174999999999998
  0
LTYPE
  2
ACANSTGBM
 70
     0
  3
__ . . __ . .
 72
    65
 73
     6
 40
9.0
 49
4.0
 49
-1.0
 49
1.0
 49
-1.0
 49
1.0
 49
-1.0
  0
LTYPE
  2
ACANSTGLM
 70
     0
  3
_ _ _ _ _
 72
    65
 73
     2
 40
3.0
 49
2.0
 49
-1.0
  0
LTYPE
  2
GEN7
 70
     0
  3
____ . ____ . ____ . ____ . ____ . ____ . ____
 72
    65
 73
     4
 40
14.25
 49
9.75
 49
-1.5
 49
1.5
 49
-1.5
  0
LTYPE
  2
GEN7A
 70
     0
  3
__ . __ . __
 72
    65
 73
     4
 40
7.375
 49
4.75
 49
-0.875
 49
0.875
 49
-0.875
  0
LTYPE
  2
ACJISTGB
 70
     0
  3
__ . . __ . .
 72
    65
 73
     6
 40
9.0
 49
4.0
 49
-1.0
 49
1.0
 49
-1.0
 49
1.0
 49
-1.0
  0
LTYPE
  2
ACJISTGL
 70
     0
  3
_ _ _ _ _
 72
    65
 73
     2
 40
3.0
 49
2.0
 49
-1.0
  0
LTYPE
  2
HIDDEN
 70
     0
  3
Hidden __ __ __ __ __ __ __ __ __ __ __ __ __ _
 72
    65
 73
     2
 40
0.375
 49
0.25
 49
-0.125
  0
LTYPE
  2
CENTER2
 70
     0
  3
Center (.5x) ___ _ ___ _ ___ _ ___ _ ___ _ ___
 72
    65
 73
     4
 40
1.125
 49
0.75
 49
-0.125
 49
0.125
 49
-0.125
  0
LTYPE
  2
HIDDEN2
 70
     0
  3
Hidden (.5x) _ _ _ _ _ _ _ _ _ _ _ _ _ _ _ _ _
 72
    65
 73
     2
 40
0.1875
 49
0.125
 49
-0.0625
  0
LTYPE
  2
AMZIGZAG2
 70
     0
  3
/\/-/\/-/\/-/\/-/\/-/\/
 72
    65
 73
     2
 40
0.4401
 49
0.0001
 49
-0.4400000000000002
  0
LTYPE
  2
ACANSTGB
 70
     0
  3
__ . . __ . .
 72
    65
 73
     6
 40
0.35433070866
 49
0.15748031496
 49
-0.03937007874
 49
0.03937007874
 49
-0.03937007874
 49
0.03937007874
 49
-0.03937007874
  0
LTYPE
  2
ACANSTGL
 70
     0
  3
_ _ _ _ _
 72
    65
 73
     2
 40
0.11811023622
 49
0.07874015748
 49
-0.03937007874
  0
ENDTAB
  0
TABLE
  2
LAYER
 70
     6
  0
LAYER
  2
0
 70
     0
 62
     7
  6
CONTINUOUS
  0
LAYER
  2
AM_0
 70
     0
 62
     7
  6
CONTINUOUS
  0
LAYER
  2
AM_5
 70
     0
 62
     2
  6
CONTINUOUS
  0
LAYER
  2
DEFPOINTS
 70
     0
 62
     7
  6
CONTINUOUS
  0
LAYER
  2
ﾁｭｳｼﾝｾﾝ
 70
     0
 62
     1
  6
GEN7
  0
LAYER
  2
ﾁｭｳｼﾝｾﾝ1
 70
     0
 62
     1
  6
GEN7A
  0
ENDTAB
  0
TABLE
  2
STYLE
 70
     9
  0
STYLE
  2
STANDARD
 70
     0
 40
0.0
 41
0.8299999999999999
 50
0.0
 71
     0
 42
2.5
  3
txt.shx
  4
bigfont.shx
  0
STYLE
  2
ANNOTATIVE
 70
     0
 40
0.0
 41
1.0
 50
0.0
 71
     0
 42
0.2
  3
txt
  4

  0
STYLE
  2

 70
     1
 40
0.0
 41
1.0
 50
0.0
 71
     0
 42
2.5
  3
ltypeshp.shx
  4

  0
STYLE
  2
ACISOTS
 70
     0
 40
1.0
 41
1.0
 50
0.0
 71
     0
 42
2.5
  3
isocp.shx
  4
extfont.shx
  0
STYLE
  2
ACISOGDT
 70
     0
 40
0.0
 41
1.0
 50
0.0
 71
     0
 42
2.5
  3
amgdt.shx
  4

  0
STYLE
  2
ACANSTS
 70
     0
 40
1.0
 41
1.0
 50
0.0
 71
     0
 42
2.5
  3
romans.shx
  4
bigfont.shx
  0
STYLE
  2
ACANSGDT
 70
     0
 40
0.0
 41
1.0
 50
0.0
 71
     0
 42
2.5
  3
amgdt.shx
  4

  0
STYLE
  2
ACJISTS
 70
     0
 40
1.0
 41
1.0
 50
0.0
 71
     0
 42
2.5
  3
isocp.shx
  4
bigfont.shx
  0
STYLE
  2
ACJISGDT
 70
     0
 40
0.0
 41
1.0
 50
0.0
 71
     0
 42
2.5
  3
amgdt.shx
  4

  0
ENDTAB
  0
TABLE
  2
VIEW
 70
     6
  0
VIEW
  2
AM_VIEW1
 70
     0
 40
462.5
 10
416.07965009208078
 20
693.75
 41
832.15930018416213
 11
0.0
 21
0.0
 31
1.0
 12
0.0
 22
0.0
 32
0.0
 42
50.0
 43
0.0
 44
0.0
 50
0.0
 71
     0
  0
VIEW
  2
AM_VIEW2
 70
     0
 40
462.5
 10
1006.420349907918
 20
693.75
 41
832.15930018416213
 11
0.0
 21
0.0
 31
1.0
 12
0.0
 22
0.0
 32
0.0
 42
50.0
 43
0.0
 44
0.0
 50
0.0
 71
     0
  0
VIEW
  2
AM_VIEW3
 70
     0
 40
462.5
 10
416.07965009208078
 20
231.25
 41
832.15930018416213
 11
0.0
 21
0.0
 31
1.0
 12
0.0
 22
0.0
 32
0.0
 42
50.0
 43
0.0
 44
0.0
 50
0.0
 71
     0
  0
VIEW
  2
AM_VIEW4
 70
     0
 40
462.5
 10
1006.420349907918
 20
231.25
 41
832.15930018416213
 11
0.0
 21
0.0
 31
1.0
 12
0.0
 22
0.0
 32
0.0
 42
50.0
 43
0.0
 44
0.0
 50
0.0
 71
     0
  0
VIEW
  2
AM_VIEW5
 70
     0
 40
462.5
 10
711.24999999999966
 20
462.5
 41
832.15930018416179
 11
0.0
 21
0.0
 31
1.0
 12
0.0
 22
0.0
 32
0.0
 42
50.0
 43
0.0
 44
0.0
 50
0.0
 71
     0
  0
VIEW
  2
AM_VIEW6
 70
     0
 40
924.99075000000005
 10
711.24999999999966
 20
462.5
 41
1664.3019571823199
 11
0.0
 21
0.0
 31
1.0
 12
0.0
 22
0.0
 32
0.0
 42
50.0
 43
0.0
 44
0.0
 50
0.0
 71
     0
  0
ENDTAB
  0
TABLE
  2
UCS
 70
     0
  0
ENDTAB
  0
TABLE
  2
APPID
 70
    95
  0
APPID
  2
ACAD
 70
     0
  0
APPID
  2
ACADANNOTATIVE
 70
     0
  0
APPID
  2
MCAD_NO_VIS
 70
     0
  0
APPID
  2
ACAD_TEMP_GRAPHIC
 70
     0
  0
APPID
  2
ACATTRIBSERVICES
 70
     0
  0
APPID
  2
GENIUS_GENREC_14
 70
     0
  0
APPID
  2
GENIUS_GENOBJ-N-REC_13
 70
     0
  0
APPID
  2
GENIUS_GENODEF_13
 70
     0
  0
APPID
  2
GENIUS_GENOLIS_13
 70
     0
  0
APPID
  2
GENIUS_GENOBJ-N-TIT_13
 70
     0
  0
APPID
  2
GENIUS_GENOENT_13
 70
     0
  0
APPID
  2
GENIUS_GENTITLE_13
 70
     0
  0
APPID
  2
GENIUS_GENOREF_13
 70
     0
  0
APPID
  2
GENIUS_GENSCREG_15
 70
     0
  0
APPID
  2
GENIUS_GENOBJ-N-SDF_13
 70
     0
  0
APPID
  2
GENIUS_GENFIL_13
 70
     0
  0
APPID
  2
GENIUS_GENOBJ-N-CHA_13
 70
     0
  0
APPID
  2
GENIUS_GENDTOL_13
 70
     0
  0
APPID
  2
GENIUS_GENOBJ-N-FIL_13
 70
     0
  0
APPID
  2
AD_DRAW
 70
     0
  0
APPID
  2
DESIGNERASSEMBLIES
 70
     0
  0
APPID
  2
ASURF_PCURVE_APPNAME
 70
     0
  0
APPID
  2
GENIUS_GE3SECT_13
 70
     0
  0
APPID
  2
GENIUS_GENCFG_13
 70
     0
  0
APPID
  2
GENIUS_GE3CFG0_13
 70
     0
  0
APPID
  2
GENIUS_GENCFG0_13
 70
     0
  0
APPID
  2
GENIUS_GENCFG1_13
 70
     0
  0
APPID
  2
GENIUS_GENCFG2_13
 70
     0
  0
APPID
  2
GENIUS_GENCFG3_13
 70
     0
  0
APPID
  2
GENIUS_GENCFG4_13
 70
     0
  0
APPID
  2
GENIUS_GEVCFG0_13
 70
     0
  0
APPID
  2
GENIUS_GENHINW_13
 70
     0
  0
APPID
  2
GENIUS_FIRSTVISTXT_14
 70
     0
  0
APPID
  2
GENIUS_GENOBJ-N-LEADER_13
 70
     0
  0
APPID
  2
GEV_VCCNULL_SWITCH_OFF
 70
     0
  0
APPID
  2
GENIUS_GEFCFG0_13
 70
     0
  0
APPID
  2
GENIUS_GENZVEED_13
 70
     0
  0
APPID
  2
GENIUS_GENSCREG_13
 70
     0
  0
APPID
  2
GENIUS_DUMCFG0_13
 70
     0
  0
APPID
  2
GEVID936201362
 70
     0
  0
APPID
  2
GEVDC
 70
     0
  0
APPID
  2
GEVCON
 70
     0
  0
APPID
  2
VCC
 70
     0
  0
APPID
  2
GEVPT
 70
     0
  0
APPID
  2
GEVIT
 70
     0
  0
APPID
  2
GENBH
 70
     0
  0
APPID
  2
GEVMK
 70
     0
  0
APPID
  2
GENIUS_GENBH_13
 70
     0
  0
APPID
  2
GENIUS_GENOBJ-NBEHI-BHF_13
 70
     0
  0
APPID
  2
GENIUS_GENOBJ-NBEHI-BHB_13
 70
     0
  0
APPID
  2
GENIUS_GENOBJ-F-DESC_13
 70
     0
  0
APPID
  2
GENIUS_GEFDESC_14
 70
     0
  0
APPID
  2
GENIUS_GENOBJ-F-PART_13
 70
     0
  0
APPID
  2
GENIUS_GEFSTDP_13
 70
     0
  0
APPID
  2
GENIUS_GEFPARTINS_13
 70
     0
  0
APPID
  2
GENIUS_GENTRA_14
 70
     0
  0
APPID
  2
GENIUS_GENINF13_13
 70
     0
  0
APPID
  2
GENIUS_GENOBJ-N-INFOPT_13
 70
     0
  0
APPID
  2
GENIUS_GENOBJ-N-RSSYM_13
 70
     0
  0
APPID
  2
GENIUS_GENSYMENT_13
 70
     0
  0
APPID
  2
GENIUS_GENSCSYM_13
 70
     0
  0
APPID
  2
GENIUS_GEFINFNAM_13
 70
     0
  0
APPID
  2
GENIUS_GENOBJ-N-CEN_13
 70
     0
  0
APPID
  2
GENIUS_GENOBJ-N-CRS_13
 70
     0
  0
APPID
  2
GENIUS_GENOBJ-N-CRC_13
 70
     0
  0
APPID
  2
GENIUS_GENCRC_14
 70
     0
  0
APPID
  2
GEVID942827039
 70
     0
  0
APPID
  2
GEVID942827040
 70
     0
  0
APPID
  2
GEVID942827041
 70
     0
  0
APPID
  2
GENIUS_GENOBJ-F-SCPASSM_13
 70
     0
  0
APPID
  2
GENIUS_GENDIMSH_14
 70
     0
  0
APPID
  2
GEVID942827042
 70
     0
  0
APPID
  2
GEVID946020473
 70
     0
  0
APPID
  2
GEVID946020474
 70
     0
  0
APPID
  2
GEVID946020475
 70
     0
  0
APPID
  2
GENIUS_GENOBJ-N-HTC_13
 70
     0
  0
APPID
  2
GENIUS_GENHATCH_13
 70
     0
  0
APPID
  2
GEVID948854295
 70
     0
  0
APPID
  2
GEVID939402019
 70
     0
  0
APPID
  2
GEVID952919491
 70
     0
  0
APPID
  2
GEVID952919492
 70
     0
  0
APPID
  2
GENIUS_GEFWELD_13
 70
     0
  0
APPID
  2
GENIUS_GENOBJ-F-WELS_13
 70
     0
  0
APPID
  2
GEVID952919493
 70
     0
  0
APPID
  2
GENIUS_GENOBJ-N-RSBK_13
 70
     0
  0
APPID
  2
GENIUS_GENOBJ-N-LIB_13
 70
     0
  0
APPID
  2
GENIUS_GENSCALE_13
 70
     0
  0
APPID
  2
GEVID986376691
 70
     0
  0
APPID
  2
DCO15
 70
     0
  0
APPID
  2
ACAD_DSTYLE_DIMBREAK
 70
     0
  0
APPID
  2
ACAD_DSTYLE_DIMJAG
 70
     0
  0
APPID
  2
ACAD_NAV_VCDISPLAY
 70
     0
  0
APPID
  2
ACADANNOPO
 70
     0
  0
APPID
  2
ACAD_EXEMPT_FROM_CAD_STANDARDS
 70
     0
  0
APPID
  2
ACAD_MLEADERVER
 70
     0
  0
ENDTAB
  0
TABLE
  2
DIMSTYLE
 70
    22
  0
DIMSTYLE
  2
STANDARD
 70
     0
  3

  4

  5

  6

  7

 40
1.0
 41
0.18
 42
0.0625
 43
0.38
 44
0.18
 45
0.0
 46
0.0
 47
0.0
 48
0.0
140
0.18
141
0.09
142
0.0
143
25.399999999999999
144
1.0
145
0.0
146
1.0
147
0.09
 71
     0
 72
     0
 73
     1
 74
     1
 75
     0
 76
     0
 77
     0
 78
     0
170
     0
171
     2
172
     0
173
     0
174
     0
175
     0
176
     0
177
     0
178
     0
  0
DIMSTYLE
  2
ANNOTATIVE
 70
     0
  3

  4

  5

  6

  7

 40
1.0
 41
0.18
 42
0.0625
 43
0.38
 44
0.18
 45
0.0
 46
0.0
 47
0.0
 48
0.0
140
0.18
141
0.09
142
0.0
143
25.399999999999999
144
1.0
145
0.0
146
1.0
147
0.09
 71
     0
 72
     0
 73
     1
 74
     1
 75
     0
 76
     0
 77
     0
 78
     0
170
     0
171
     2
172
     0
173
     0
174
     0
175
     0
176
     0
177
     0
178
     0
  0
DIMSTYLE
  2
AM_ISO
 70
     0
  3

  4
"
  5

  6

  7

 40
1.0
 41
2.5
 42
1.0
 43
8.0
 44
0.6
 45
0.0
 46
0.0
 47
0.1
 48
0.1
140
2.5
141
0.0
142
0.0
143
0.0393701
144
1.0
145
0.0
146
0.71
147
0.8
 71
     0
 72
     0
 73
     0
 74
     0
 75
     0
 76
     0
 77
     1
 78
     8
170
     0
171
     2
172
     1
173
     0
174
     0
175
     0
176
   256
177
   256
178
     4
  0
DIMSTYLE
  2
AM_ISO$3
 70
     0
  3

  4
"
  5

  6

  7

 40
1.0
 41
2.5
 42
1.0
 43
8.0
 44
0.6
 45
0.0
 46
0.0
 47
0.1
 48
0.1
140
2.5
141
0.0
142
0.0
143
0.0393701
144
1.0
145
0.0
146
0.71
147
0.8
 71
     0
 72
     0
 73
     0
 74
     1
 75
     0
 76
     0
 77
     1
 78
     8
170
     0
171
     2
172
     0
173
     0
174
     0
175
     0
176
   256
177
   256
178
     4
  0
DIMSTYLE
  2
AM_ISO$4
 70
     0
  3

  4
"
  5

  6

  7

 40
1.0
 41
2.5
 42
1.0
 43
8.0
 44
0.6
 45
0.0
 46
0.0
 47
0.1
 48
0.1
140
2.5
141
0.0
142
0.0
143
0.0393701
144
1.0
145
0.0
146
0.71
147
0.8
 71
     0
 72
     0
 73
     0
 74
     1
 75
     0
 76
     0
 77
     1
 78
     8
170
     0
171
     2
172
     0
173
     0
174
     0
175
     0
176
   256
177
   256
178
     4
  0
DIMSTYLE
  2
AM_ISO$6
 70
     0
  3

  4
"
  5

  6

  7

 40
1.0
 41
2.5
 42
1.0
 43
8.0
 44
0.6
 45
0.0
 46
0.0
 47
0.1
 48
0.1
140
2.5
141
0.0
142
0.0
143
0.0393701
144
1.0
145
0.0
146
0.71
147
0.8
 71
     0
 72
     0
 73
     0
 74
     0
 75
     0
 76
     0
 77
     0
 78
     8
170
     0
171
     2
172
     1
173
     0
174
     0
175
     0
176
   256
177
   256
178
     4
  0
DIMSTYLE
  2
AM_ISO$7
 70
     0
  3

  4
"
  5

  6

  7

 40
1.0
 41
2.5
 42
1.0
 43
8.0
 44
0.6
 45
0.0
 46
0.0
 47
0.1
 48
0.1
140
2.5
141
0.0
142
0.0
143
0.0393701
144
1.0
145
0.0
146
0.71
147
0.8
 71
     0
 72
     0
 73
     0
 74
     0
 75
     0
 76
     0
 77
     1
 78
     8
170
     0
171
     2
172
     1
173
     0
174
     0
175
     0
176
   256
177
   256
178
     4
  0
DIMSTYLE
  2
AM_ISO$SF
 70
     0
  3

  4
"
  5

  6

  7

 40
1.0
 41
2.5
 42
1.0
 43
10.0
 44
1.0
 45
0.0
 46
0.0
 47
0.1
 48
0.1
140
3.5
141
0.0
142
0.0
143
0.0393701
144
1.0
145
0.0
146
0.71
147
1.5
 71
     0
 72
     0
 73
     0
 74
     0
 75
     1
 76
     1
 77
     1
 78
     8
170
     0
171
     2
172
     1
173
     0
174
     0
175
     0
176
   256
177
   256
178
     2
  0
DIMSTYLE
  2
AM_ISO$SH
 70
     0
  3

  4
"
  5

  6

  7

 40
1.0
 41
2.5
 42
1.0
 43
10.0
 44
1.0
 45
0.0
 46
0.0
 47
0.1
 48
0.1
140
3.5
141
0.0
142
0.0
143
0.0393701
144
2.0
145
0.0
146
0.71
147
1.5
 71
     0
 72
     0
 73
     0
 74
     0
 75
     1
 76
     1
 77
     1
 78
     8
170
     0
171
     2
172
     1
173
     1
174
     0
175
     0
176
   256
177
   256
178
     2
  0
DIMSTYLE
  2
AM_JIS
 70
     0
  3

  4
"
  5

  6

  7

 40
1.0
 41
2.5
 42
1.0
 43
7.0
 44
1.0
 45
0.0
 46
0.0
 47
0.1
 48
0.1000000001
140
2.5
141
0.0
142
0.0
143
0.0393701
144
1.0
145
0.0
146
0.71
147
1.0
 71
     0
 72
     0
 73
     0
 74
     0
 75
     0
 76
     0
 77
     3
 78
     8
170
     0
171
     2
172
     1
173
     0
174
     0
175
     0
176
   256
177
   256
178
     4
  0
DIMSTYLE
  2
AM_JIS$3
 70
     0
  3

  4
"
  5

  6

  7

 40
1.0
 41
2.5
 42
1.0
 43
7.0
 44
1.0
 45
0.0
 46
0.0
 47
0.1
 48
0.1000000001
140
2.5
141
0.0
142
0.0
143
0.0393701
144
1.0
145
0.0
146
0.71
147
1.0
 71
     0
 72
     0
 73
     0
 74
     1
 75
     0
 76
     0
 77
     3
 78
     8
170
     0
171
     2
172
     0
173
     0
174
     0
175
     0
176
   256
177
   256
178
     4
  0
DIMSTYLE
  2
AM_JIS$4
 70
     0
  3

  4
"
  5

  6

  7

 40
1.0
 41
2.5
 42
1.0
 43
7.0
 44
1.0
 45
0.0
 46
0.0
 47
0.1
 48
0.1000000001
140
2.5
141
0.0
142
0.0
143
0.0393701
144
1.0
145
0.0
146
0.71
147
1.0
 71
     0
 72
     0
 73
     0
 74
     0
 75
     0
 76
     0
 77
     3
 78
     8
170
     0
171
     2
172
     0
173
     0
174
     0
175
     0
176
   256
177
   256
178
     4
  0
DIMSTYLE
  2
AM_JIS$6
 70
     0
  3

  4
"
  5

  6

  7

 40
1.0
 41
2.5
 42
1.0
 43
7.0
 44
1.0
 45
0.0
 46
0.0
 47
0.1
 48
0.1000000001
140
2.5
141
0.0
142
0.0
143
0.0393701
144
1.0
145
0.0
146
0.71
147
1.0
 71
     0
 72
     0
 73
     0
 74
     0
 75
     0
 76
     0
 77
     0
 78
     8
170
     0
171
     2
172
     1
173
     0
174
     0
175
     0
176
   256
177
   256
178
     4
  0
DIMSTYLE
  2
AM_JIS$7
 70
     0
  3

  4
"
  5

  6

  7

 40
1.0
 41
2.5
 42
1.0
 43
7.0
 44
1.0
 45
0.0
 46
0.0
 47
0.1
 48
0.1000000001
140
2.5
141
0.0
142
0.0
143
0.0393701
144
1.0
145
0.0
146
0.71
147
1.0
 71
     0
 72
     0
 73
     0
 74
     0
 75
     0
 76
     0
 77
     3
 78
     8
170
     0
171
     2
172
     1
173
     0
174
     0
175
     0
176
   256
177
   256
178
     4
  0
DIMSTYLE
  2
AM_JIS$SF
 70
     0
  3

  4
"
  5

  6

  7

 40
1.0
 41
2.5
 42
1.0
 43
10.0
 44
1.0
 45
0.0
 46
0.0
 47
0.1
 48
0.1
140
3.5
141
0.0
142
0.0
143
0.0393701
144
1.0
145
0.0
146
0.71
147
1.5
 71
     0
 72
     0
 73
     0
 74
     0
 75
     1
 76
     1
 77
     3
 78
     8
170
     0
171
     2
172
     1
173
     0
174
     0
175
     0
176
   256
177
   256
178
     4
  0
DIMSTYLE
  2
AM_JIS$SH
 70
     0
  3

  4
"
  5

  6

  7

 40
1.0
 41
2.5
 42
1.0
 43
10.0
 44
1.0
 45
0.0
 46
0.0
 47
0.1
 48
0.1
140
3.5
141
0.0
142
0.0
143
0.0393701
144
1.0
145
0.0
146
0.71
147
1.5
 71
     0
 72
     0
 73
     0
 74
     0
 75
     1
 76
     0
 77
     3
 78
     8
170
     0
171
     2
172
     1
173
     1
174
     0
175
     0
176
   256
177
   256
178
     4
  0
DIMSTYLE
  2
AM_ANSI
 70
     0
  3

  4
mm
  5

  6

  7

 40
1.0
 41
0.1
 42
0.05
 43
0.5
 44
0.1
 45
0.0
 46
0.0
 47
0.1
 48
0.1
140
0.12
141
0.0
142
0.0
143
25.399999999999999
144
1.0
145
0.0
146
0.71
147
0.06
 71
     0
 72
     0
 73
     1
 74
     1
 75
     0
 76
     0
 77
     0
 78
     7
170
     0
171
     2
172
     0
173
     0
174
     0
175
     0
176
   256
177
   256
178
     2
  0
DIMSTYLE
  2
AM_ANSI$3
 70
     0
  3

  4
mm
  5

  6

  7

 40
1.0
 41
0.1
 42
0.05
 43
0.5
 44
0.1
 45
0.0
 46
0.0
 47
0.1
 48
0.1
140
0.12
141
0.0
142
0.0
143
25.399999999999999
144
1.0
145
0.0
146
0.71
147
0.06
 71
     0
 72
     0
 73
     1
 74
     1
 75
     0
 76
     0
 77
     0
 78
     7
170
     0
171
     2
172
     0
173
     0
174
     0
175
     0
176
   256
177
   256
178
     2
  0
DIMSTYLE
  2
AM_ANSI$4
 70
     0
  3

  4
mm
  5

  6

  7

 40
1.0
 41
0.1
 42
0.05
 43
0.5
 44
0.1
 45
0.0
 46
0.0
 47
0.1
 48
0.1
140
0.12
141
0.0
142
0.0
143
25.399999999999999
144
1.0
145
0.0
146
0.71
147
0.06
 71
     0
 72
     0
 73
     1
 74
     1
 75
     0
 76
     0
 77
     0
 78
     7
170
     0
171
     2
172
     0
173
     0
174
     0
175
     0
176
   256
177
   256
178
     2
  0
DIMSTYLE
  2
AM_ANSI$7
 70
     0
  3

  4
mm
  5

  6

  7

 40
1.0
 41
0.1
 42
0.05
 43
0.5
 44
0.1
 45
0.0
 46
0.0
 47
0.1
 48
0.1
140
0.24
141
0.0
142
0.0
143
25.399999999999999
144
1.0
145
0.0
146
0.71
147
0.06
 71
     0
 72
     0
 73
     1
 74
     1
 75
     0
 76
     0
 77
     0
 78
     7
170
     0
171
     2
172
     0
173
     0
174
     0
175
     0
176
   256
177
   256
178
     2
  0
DIMSTYLE
  2
AM_ANSI$SF
 70
     0
  3

  4
mm
  5

  6

  7

 40
1.0
 41
0.1
 42
0.05
 43
0.5
 44
0.1
 45
0.0
 46
0.0
 47
0.1
 48
0.1
140
0.12
141
0.0
142
0.0
143
25.399999999999999
144
1.0
145
0.0
146
0.71
147
0.06
 71
     0
 72
     0
 73
     1
 74
     1
 75
     1
 76
     1
 77
     0
 78
     7
170
     0
171
     2
172
     0
173
     0
174
     0
175
     0
176
   256
177
   256
178
     2
  0
DIMSTYLE
  2
AM_ANSI$SH
 70
     0
  3

  4
mm
  5

  6

  7

 40
1.0
 41
0.1
 42
0.05
 43
0.5
 44
0.1
 45
0.0
 46
0.0
 47
0.1
 48
0.1
140
0.12
141
0.0
142
0.0
143
25.399999999999999
144
1.0
145
0.0
146
0.71
147
0.06
 71
     0
 72
     0
 73
     1
 74
     1
 75
     1
 76
     1
 77
     0
 78
     7
170
     0
171
     2
172
     0
173
     1
174
     0
175
     0
176
   256
177
   256
178
     2
  0
ENDTAB
  0
ENDSEC
  0
SECTION
  2
BLOCKS
  0
BLOCK
  8
0
  2
$MODEL_SPACE
 70
     0
 10
0.0
 20
0.0
 30
0.0
  3
$MODEL_SPACE
  1

  0
ENDBLK
  5
2F31
  8
0
  0
BLOCK
 67
     1
  8
0
  2
$PAPER_SPACE
 70
     0
 10
0.0
 20
0.0
 30
0.0
  3
$PAPER_SPACE
  1

  0
ENDBLK
  5
2F2D
 67
     1
  8
0
  0
BLOCK
  8
0
  2
GENAXEH
 70
     0
 10
0.0
 20
0.0
 30
0.0
  3
GENAXEH
  1

  0
LINE
  5
2D15
  8
0
 10
-1.0
 20
0.0
 30
0.0
 11
1.0
 21
0.0
 31
0.0
  0
ENDBLK
  5
2D16
  8
0
  0
BLOCK
  8
0
  2
_OPEN30
 70
     0
 10
0.0
 20
0.0
 30
0.0
  3
_OPEN30
  1

  0
LINE
  5
2D19
  8
0
 62
     0
 10
-1.0
 20
0.26794919
 30
0.0
 11
0.0
 21
0.0
 31
0.0
  0
LINE
  5
2D1A
  8
0
 62
     0
 10
0.0
 20
0.0
 30
0.0
 11
-1.0
 21
-0.26794919
 31
0.0
  0
LINE
  5
2D1B
  8
0
 62
     0
 10
0.0
 20
0.0
 30
0.0
 11
-1.0
 21
0.0
 31
0.0
  0
ENDBLK
  5
2D1C
  8
0
  0
BLOCK
  8
0
  2
_NONE
 70
     0
 10
0.0
 20
0.0
 30
0.0
  3
_NONE
  1

  0
ENDBLK
  5
2D1F
  8
0
  0
BLOCK
  8
0
  2
_ACMFILLEDHALF
 70
     0
 10
0.0
 20
0.0
 30
0.0
  3
_ACMFILLEDHALF
  1

  0
TRACE
  5
3027
  8
AM_0
 62
     0
 10
-0.8
 20
0.0
 30
0.0
 11
-1.0
 21
0.166666666
 31
0.0
 12
0.0
 22
0.0
 32
0.0
 13
0.0
 23
0.0
 33
0.0
  0
LINE
  5
3028
  8
AM_0
 62
     0
 10
-1.0
 20
0.0
 30
0.0
 11
-0.8
 21
0.0
 31
0.0
  0
ENDBLK
  5
3026
  8
0
  0
ENDSEC
  0
SECTION
  2
ENTITIES
  0
LINE
  5
2D21
  8
AM_0
 10
585.61479205058254
 20
838.78946204815395
 30
0.0
 11
655.6147620505825
 21
838.78946204815395
 31
0.0
  0
LINE
  5
2D22
  8
AM_0
 10
585.61479205058254
 20
796.78946204815372
 30
0.0
 11
655.6147620505825
 21
796.78946204815372
 31
0.0
  0
LINE
  5
2D23
  8
AM_0
 10
599.61479205058254
 20
823.78940204815399
 30
0.0
 11
655.6147620505825
 21
823.78940204815399
 31
0.0
  0
LINE
  5
2D24
  8
AM_0
 10
599.61479205058254
 20
811.7894020481541
 30
0.0
 11
655.6147620505825
 21
811.7894020481541
 31
0.0
  0
LINE
  5
2D25
  8
ﾁｭｳｼﾝｾﾝ
 10
308.33977869110453
 20
817.78946204815361
 30
0.0
 11
667.12873205058236
 21
817.78946204815361
 31
0.0
  0
POLYLINE
  5
2D26
  8
AM_0
 66
     1
 10
0.0
 20
0.0
 30
0.0
  0
VERTEX
  5
2D27
  8
AM_0
 10
540.47899205058252
 20
869.35395204815416
 30
0.0
 42
0.030646501
  0
VERTEX
  5
2D28
  8
AM_0
 10
536.06944205058267
 20
835.07055204815413
 30
0.0
 42
0.064801596
  0
VERTEX
  5
2D29
  8
AM_0
 10
540.47899205058252
 20
766.22494204815359
 30
0.0
  0
SEQEND
  5
2D2A
  8
AM_0
  0
ARC
  5
2D2B
  8
AM_0
 10
432.61479205058248
 20
801.73868204815415
 30
0.0
 40
4.0
 50
0.0
 51
87.999999999996248
  0
LINE
  5
2D2C
  8
AM_0
 10
585.61479205058254
 20
795.28946204815372
 30
0.0
 11
585.61479205058254
 21
840.28946204815384
 31
0.0
  0
LINE
  5
2D2D
  8
AM_0
 10
561.61479205058254
 20
678.79844204815413
 30
0.0
 11
561.61479205058254
 21
956.76383204815363
 31
0.0
  0
LINE
  5
2D2E
  8
AM_0
 10
579.61472205058226
 20
675.28946204815418
 30
0.0
 11
579.61472205058226
 21
960.28940204815399
 31
0.0
  0
LINE
  5
2D2F
  8
AM_0
 10
569.61472205058249
 20
706.83213204815399
 30
0.0
 11
569.61472205058249
 21
928.74674204815369
 31
0.0
  0
LINE
  5
2D30
  8
AM_0
 10
583.61472205058226
 20
697.78946204815395
 30
0.0
 11
583.61472205058226
 21
937.78940204815353
 31
0.0
  0
LINE
  5
2D31
  8
AM_0
 10
399.61479205058231
 20
731.78946204815441
 30
0.0
 11
399.61479205058248
 21
903.78946204815441
 31
0.0
  0
LINE
  5
2D32
  8
AM_0
 10
463.61479205058259
 20
678.05143204815408
 30
0.0
 11
463.61479205058259
 21
813.7894020481541
 31
0.0
  0
LINE
  5
2D33
  8
AM_0
 10
450.61466205058252
 20
681.57962204815419
 30
0.0
 11
450.61466205058252
 21
808.25003204815414
 31
0.0
  0
LINE
  5
2D34
  8
AM_0
 10
436.61479205058259
 20
703.68143204815385
 30
0.0
 11
436.61479205058259
 21
813.7894020481541
 31
0.0
  0
LINE
  5
2D35
  8
AM_0
 10
463.61479205058259
 20
688.65909204815375
 30
0.0
 11
561.61479205058254
 21
685.23685204815376
 31
0.0
  0
LINE
  5
2D36
  8
AM_0
 10
463.61472205058249
 20
678.05149204815405
 30
0.0
 11
564.54832205058256
 21
675.81583204815411
 31
0.0
  0
LINE
  5
2D37
  8
AM_0
 10
463.61479205058259
 20
740.2236720481543
 30
0.0
 11
515.41050205058264
 21
740.2236720481543
 31
0.0
  0
LINE
  5
2D38
  8
AM_0
 10
463.61479205058259
 20
766.22489204815372
 30
0.0
 11
561.61479205058254
 21
766.22489204815372
 31
0.0
  0
LINE
  5
2D39
  8
AM_0
 10
432.75437205058262
 20
730.27207204815409
 30
0.0
 11
401.61485205058273
 21
731.35953204815416
 31
0.0
  0
LINE
  5
2D3A
  8
AM_0
 10
432.75431205058271
 20
732.63218204815371
 30
0.0
 11
399.61479205058248
 21
733.7894020481541
 31
0.0
  0
LINE
  5
2D3B
  8
AM_0
 10
401.61479205058259
 20
733.71958204815371
 30
0.0
 11
401.61479205058259
 21
731.35947204815432
 31
0.0
  0
ARC
  5
2D3C
  8
AM_0
 10
447.61479205058259
 20
696.16172204815405
 30
0.0
 40
3.0
 50
0.0
 51
79.999998000001099
  0
ARC
  5
2D3D
  8
AM_0
 10
439.61479205058259
 20
703.66483204815415
 30
0.0
 40
3.0
 50
179.9999899999988
 51
260.00000000000119
  0
LINE
  5
2D3E
  8
AM_0
 10
439.09379205058258
 20
700.7104220481541
 30
0.0
 11
448.13572205058261
 21
699.11606204815405
 31
0.0
  0
ARC
  5
2D3F
  8
AM_0
 10
432.61479205058248
 20
726.2744520481541
 30
0.0
 40
4.0
 50
0.0
 51
87.999999999996248
  0
ARC
  5
2D40
  8
AM_0
 10
432.61479205058248
 20
728.63462204815414
 30
0.0
 40
4.0
 50
0.0
 51
87.999999999996248
  0
LINE
  5
2D41
  8
AM_0
 10
452.54496205058268
 20
689.04569204815402
 30
0.0
 11
463.61479205058259
 21
688.65909204815375
 31
0.0
  0
LINE
  5
2D42
  8
AM_0
 10
453.44474205058242
 20
678.58451204815412
 30
0.0
 11
463.61472205058249
 21
678.05149204815405
 31
0.0
  0
ARC
  5
2D43
  8
AM_0
 10
453.61466205058241
 20
681.57962204815419
 30
0.0
 40
3.0
 50
180.00001000000091
 51
266.99999000000008
  0
ARC
  5
2D44
  8
AM_0
 10
452.61479205058259
 20
691.04447204815415
 30
0.0
 40
2.0
 50
179.9999899999988
 51
268.00000999999861
  0
LINE
  5
2D45
  8
AM_0
 10
450.61466205058252
 20
740.2236720481543
 30
0.0
 11
463.61479205058259
 21
740.2236720481543
 31
0.0
  0
LINE
  5
2D46
  8
AM_0
 10
450.61466205058252
 20
766.22489204815372
 30
0.0
 11
463.61479205058259
 21
766.22489204815372
 31
0.0
  0
ARC
  5
2D47
  8
AM_0
 10
564.61472205058249
 20
678.81504204815406
 30
0.0
 40
3.0
 50
179.9999899999988
 51
268.00000999999861
  0
LINE
  5
2D48
  8
AM_0
 10
564.51005205058277
 20
675.81687204815421
 30
0.0
 11
579.61472205058226
 21
675.2894020481541
 31
0.0
  0
ARC
  5
2D49
  8
AM_0
 10
519.30229205058254
 20
741.88736204815359
 30
0.0
 40
3.0
 50
90.00000299999769
 51
239.11901999999981
  0
ARC
  5
2D4A
  8
AM_0
 10
515.41050205058264
 20
737.22367204815373
 30
0.0
 40
3.0
 50
59.11902300000196
 51
90.00000299999769
  0
LINE
  5
2D4B
  8
AM_0
 10
551.48338205058258
 20
744.8873620481537
 30
0.0
 11
561.61479205058254
 21
737.32926204815374
 31
0.0
  0
LINE
  5
2D4C
  8
AM_0
 10
559.4673920505827
 20
720.78580204815364
 30
0.0
 11
526.96458205058275
 21
740.2236720481543
 31
0.0
  0
LINE
  5
2D4D
  8
AM_0
 10
559.18101205058269
 20
714.54282204815411
 30
0.0
 11
517.76249205058252
 21
739.31266204815415
 31
0.0
  0
POLYLINE
  5
2D4E
  8
AM_0
 66
     1
 10
0.0
 20
0.0
 30
0.0
  0
VERTEX
  5
2D4F
  8
AM_0
 10
553.95589205058263
 20
717.66748204815406
 30
0.0
 42
0.0052467293
  0
VERTEX
  5
2D50
  8
AM_0
 10
556.37611205058261
 20
711.25765204815411
 30
0.0
 42
0.0052066122
  0
VERTEX
  5
2D51
  8
AM_0
 10
558.92978205058262
 20
704.89982204815419
 30
0.0
 42
0.0051740405
  0
VERTEX
  5
2D52
  8
AM_0
 10
561.61479205058254
 20
698.59659204815398
 30
0.0
  0
SEQEND
  5
2D53
  8
AM_0
  0
ARC
  5
2D54
  8
AM_0
 10
564.61472205058249
 20
706.83213204815399
 30
0.0
 40
5.0
 50
267.99999999999631
 51
0.0
  0
ARC
  5
2D55
  8
AM_0
 10
556.61479205058254
 20
710.2516220481541
 30
0.0
 40
5.0
 50
0.0
 51
59.11901699999779
  0
LINE
  5
2D56
  8
AM_0
 10
519.30229205058254
 20
744.8873620481537
 30
0.0
 11
561.61479205058254
 21
744.8873620481537
 31
0.0
  0
ARC
  5
2D57
  8
AM_0
 10
566.61479205058254
 20
751.6550020481543
 30
0.0
 40
5.0
 50
90.00000299999769
 51
180.00001000000091
  0
LINE
  5
2D58
  8
AM_0
 10
579.61472205058226
 20
697.78946204815395
 30
0.0
 11
583.61472205058226
 21
697.78946204815395
 31
0.0
  0
LINE
  5
2D59
  8
AM_0
 10
583.61472205058226
 20
795.28946204815372
 30
0.0
 11
585.61479205058254
 21
795.28946204815372
 31
0.0
  0
LINE
  5
2D5A
  8
AM_0
 10
463.61479205058259
 20
895.35520204815361
 30
0.0
 11
515.41050205058264
 21
895.35520204815361
 31
0.0
  0
LINE
  5
2D5B
  8
AM_0
 10
463.61472205058249
 20
957.52738204815364
 30
0.0
 11
564.54832205058256
 21
959.76310204815388
 31
0.0
  0
LINE
  5
2D5C
  8
AM_0
 10
463.61479205058259
 20
946.91983204815358
 30
0.0
 11
561.61479205058254
 21
950.34201204815372
 31
0.0
  0
LINE
  5
2D5D
  8
AM_0
 10
463.61479205058259
 20
869.35398204815385
 30
0.0
 11
561.61479205058254
 21
869.35398204815385
 31
0.0
  0
ARC
  5
2D5E
  8
AM_0
 10
439.61479205058259
 20
931.91397204815394
 30
0.0
 40
3.0
 50
99.999999999998593
 51
180.00001000000091
  0
LINE
  5
2D5F
  8
AM_0
 10
450.61466205058252
 20
827.32883204815369
 30
0.0
 11
450.61466205058252
 21
953.99918204815367
 31
0.0
  0
LINE
  5
2D60
  8
AM_0
 10
463.61479205058259
 20
821.7894020481541
 30
0.0
 11
463.61479205058259
 21
957.52738204815364
 31
0.0
  0
LINE
  5
2D61
  8
AM_0
 10
432.75437205058262
 20
809.19999204815372
 30
0.0
 11
401.61479205058259
 21
810.28739204815361
 31
0.0
  0
LINE
  5
2D62
  8
AM_0
 10
432.75437205058262
 20
805.73630204815424
 30
0.0
 11
401.61485205058273
 21
806.82370204815413
 31
0.0
  0
LINE
  5
2D63
  8
AM_0
 10
432.75443205058252
 20
829.84256204815415
 30
0.0
 11
401.61485205058273
 21
828.75516204815415
 31
0.0
  0
LINE
  5
2D64
  8
AM_0
 10
432.75437205058262
 20
826.37888204815363
 30
0.0
 11
401.61485205058273
 21
825.29142204815412
 31
0.0
  0
LINE
  5
2D65
  8
AM_0
 10
432.75443205058252
 20
905.30680204815371
 30
0.0
 11
401.61485205058273
 21
904.21939204815374
 31
0.0
  0
LINE
  5
2D66
  8
AM_0
 10
432.75437205058262
 20
902.94669204815375
 30
0.0
 11
399.61479205058248
 21
901.7894020481541
 31
0.0
  0
LINE
  5
2D67
  8
AM_0
 10
401.61479205058259
 20
806.82370204815413
 30
0.0
 11
401.61479205058259
 21
828.75516204815415
 31
0.0
  0
LINE
  5
2D68
  8
AM_0
 10
401.61479205058259
 20
901.85929204815409
 30
0.0
 11
401.61479205058259
 21
904.21939204815374
 31
0.0
  0
LINE
  5
2D69
  8
AM_0
 10
436.61479205058259
 20
821.7894020481541
 30
0.0
 11
436.61479205058259
 21
931.93058204815361
 31
0.0
  0
ARC
  5
2D6A
  8
AM_0
 10
447.61479205058259
 20
817.78946204815361
 30
0.0
 40
10.0
 50
203.5782699999985
 51
336.4217200000013
  0
ARC
  5
2D6B
  8
AM_0
 10
447.61479205058259
 20
817.78946204815361
 30
0.0
 40
10.0
 50
23.57803699999776
 51
156.42196000000081
  0
LINE
  5
2D6C
  8
AM_0
 10
431.11479205058259
 20
821.7894020481541
 30
0.0
 11
464.11479205058259
 21
821.7894020481541
 31
0.0
  0
LINE
  5
2D6D
  8
AM_0
 10
431.11479205058259
 20
813.7894020481541
 30
0.0
 11
464.11479205058259
 21
813.7894020481541
 31
0.0
  0
ARC
  5
2D6E
  8
AM_0
 10
431.11479205058259
 20
817.78940204815433
 30
0.0
 40
3.9999962
 50
90.00000299999769
 51
270.0
  0
ARC
  5
2D6F
  8
AM_0
 10
432.61479205058248
 20
805.20243204815415
 30
0.0
 40
4.0
 50
0.0
 51
87.999999999996248
  0
ARC
  5
2D70
  8
AM_0
 10
432.61479205058248
 20
830.37644204815399
 30
0.0
 40
4.0
 50
272.00000000000369
 51
0.0
  0
ARC
  5
2D71
  8
AM_0
 10
432.61479205058248
 20
833.84012204815383
 30
0.0
 40
4.0
 50
272.00000000000369
 51
0.0
  0
ARC
  5
2D72
  8
AM_0
 10
464.11479205058259
 20
817.78940204815433
 30
0.0
 40
3.9999962
 50
270.0
 51
90.00000299999769
  0
LINE
  5
2D73
  8
AM_0
 10
450.61466205058252
 20
869.35398204815385
 30
0.0
 11
463.61479205058259
 21
869.35398204815385
 31
0.0
  0
ARC
  5
2D74
  8
AM_0
 10
432.61479205058248
 20
909.30436204815373
 30
0.0
 40
4.0
 50
272.00000000000369
 51
0.0
  0
ARC
  5
2D75
  8
AM_0
 10
432.61479205058248
 20
906.944252048154
 30
0.0
 40
4.0
 50
272.00000000000369
 51
0.0
  0
LINE
  5
2D76
  8
AM_0
 10
450.61466205058252
 20
895.35520204815361
 30
0.0
 11
463.61479205058259
 21
895.35520204815361
 31
0.0
  0
ARC
  5
2D77
  8
AM_0
 10
447.61479205058259
 20
939.41715204815375
 30
0.0
 40
3.0
 50
280.00001000000128
 51
0.0
  0
LINE
  5
2D78
  8
AM_0
 10
439.09385205058271
 20
934.86844204815384
 30
0.0
 11
448.13572205058261
 21
936.46280204815389
 31
0.0
  0
LINE
  5
2D79
  8
AM_0
 10
452.54502205058259
 20
946.53324204815374
 30
0.0
 11
463.61479205058259
 21
946.91983204815358
 31
0.0
  0
ARC
  5
2D7A
  8
AM_0
 10
452.61479205058259
 20
944.53440204815399
 30
0.0
 40
2.0
 50
91.999998000000545
 51
180.00001000000091
  0
LINE
  5
2D7B
  8
AM_0
 10
453.4576820505826
 20
956.99509204815433
 30
0.0
 11
463.61479205058259
 21
957.52738204815364
 31
0.0
  0
ARC
  5
2D7C
  8
AM_0
 10
453.61466205058241
 20
953.99918204815367
 30
0.0
 40
3.0
 50
92.999999000001679
 51
180.00001000000091
  0
POLYLINE
  5
2D7D
  8
AM_0
 66
     1
 10
0.0
 20
0.0
 30
0.0
  0
VERTEX
  5
2D7E
  8
AM_0
 10
561.61479205058254
 20
936.98227204815419
 30
0.0
  0
VERTEX
  5
2D7F
  8
AM_0
 10
553.95596205058246
 20
917.91158204815383
 30
0.0
 42
-1.0
  0
SEQEND
  5
2D80
  8
AM_0
  0
ARC
  5
2D81
  8
AM_0
 10
564.61472205058249
 20
928.74674204815369
 30
0.0
 40
5.0
 50
0.0
 51
91.999998000000545
  0
LINE
  5
2D82
  8
AM_0
 10
519.30229205058254
 20
890.69150204815412
 30
0.0
 11
561.61479205058254
 21
890.69150204815412
 31
0.0
  0
LINE
  5
2D83
  8
AM_0
 10
559.18101205058269
 20
921.03605204815358
 30
0.0
 11
517.76249205058252
 21
896.2662120481541
 31
0.0
  0
LINE
  5
2D84
  8
AM_0
 10
559.4673920505827
 20
914.79306204815362
 30
0.0
 11
526.96458205058275
 21
895.35526204815415
 31
0.0
  0
ARC
  5
2D85
  8
AM_0
 10
519.30229205058254
 20
893.69150204815389
 30
0.0
 40
3.0
 50
120.8809700000043
 51
270.0
  0
ARC
  5
2D86
  8
AM_0
 10
515.41050205058264
 20
898.35520204815373
 30
0.0
 40
3.0
 50
270.0
 51
300.88098000000002
  0
ARC
  5
2D87
  8
AM_0
 10
566.61479205058254
 20
883.92386204815409
 30
0.0
 40
5.0
 50
179.9999899999988
 51
270.0
  0
LINE
  5
2D88
  8
AM_0
 10
551.48338205058258
 20
890.69156204815374
 30
0.0
 11
561.61472205058237
 21
898.24961204815372
 31
0.0
  0
ARC
  5
2D89
  8
AM_0
 10
556.61479205058254
 20
925.32724204815361
 30
0.0
 40
5.0
 50
300.88098000000002
 51
0.0
  0
ARC
  5
2D8A
  8
AM_0
 10
599.61479205058254
 20
817.78940204815433
 30
0.0
 40
6.0000037999999991
 50
90.00000299999769
 51
270.0
  0
LINE
  5
2D8B
  8
AM_0
 10
599.61479205058254
 20
823.78940204815399
 30
0.0
 11
599.61479205058254
 21
811.7894020481541
 31
0.0
  0
LINE
  5
2D8C
  8
AM_0
 10
583.61472205058226
 20
840.28946204815384
 30
0.0
 11
585.61479205058254
 21
840.28946204815384
 31
0.0
  0
LINE
  5
2D8D
  8
AM_0
 10
564.5099920505827
 20
959.76200204815393
 30
0.0
 11
579.61472205058226
 21
960.28946204815395
 31
0.0
  0
ARC
  5
2D8E
  8
AM_0
 10
564.61472205058249
 20
956.76383204815363
 30
0.0
 40
3.0
 50
91.999998000000545
 51
180.00001000000091
  0
LINE
  5
2D8F
  8
AM_0
 10
579.61472205058226
 20
937.78940204815353
 30
0.0
 11
583.61472205058226
 21
937.78940204815353
 31
0.0
  0
LINE
  5
2D90
  8
AM_0
 10
655.6147620505825
 20
796.78946204815372
 30
0.0
 11
655.6147620505825
 21
838.78946204815395
 31
0.0
  0
LINE
  5
2D91
  8
AM_0
 10
336.11479205058259
 20
941.78946204815429
 30
0.0
 11
336.11479205058259
 21
693.78946204815441
 31
0.0
  0
LINE
  5
2D92
  8
AM_0
 10
320.11479205058248
 20
942.78946204815429
 30
0.0
 11
320.11479205058248
 21
692.78946204815441
 31
0.0
  0
LINE
  5
2D93
  8
AM_0
 10
399.61479205058248
 20
731.78946204815441
 30
0.0
 11
338.8533247999693
 21
726.47352202622881
 31
0.0
  0
LINE
  5
2D94
  8
AM_0
 10
398.61479205058322
 20
727.32118183219211
 30
0.0
 11
338.85332505058312
 21
722.09273083219193
 31
0.0
  0
LINE
  5
2D95
  8
AM_0
 10
320.11479205058248
 20
692.78946204815441
 30
0.0
 11
335.11479205058242
 21
692.78946204815441
 31
0.0
  0
ARC
  5
2D96
  8
AM_0
 10
335.11479205058242
 20
693.78946204815441
 30
0.0
 40
1.0
 50
270.0
 51
0.0
  0
ARC
  5
2D97
  8
AM_0
 10
339.11479205058248
 20
723.48493793391071
 30
0.0
 40
3.0
 50
95.000000428873591
 51
180.0
1001
GENIUS_GENODEF_13
1002
{
1000
HIER
1070
     0
1002
}
1002
{
1000
MANEDIT
1070
     0
1002
}
1002
{
1000
NOSEL
1070
     0
1002
}
1002
{
1000
BEHIND
1070
     0
1002
}
1002
{
1000
OTHER
1070
     0
1002
}
1002
{
1000
REACTOR
1002
}
1001
GENIUS_GENOBJ-N-FIL_13
1002
{
1000
OWNER
1000
GEN
1002
}
  0
ARC
  5
2D98
  8
AM_0
 10
339.11479205058328
 20
719.10414683219187
 30
0.0
 40
3.0
 50
95.0
 51
180.0
  0
LINE
  5
2D99
  8
AM_0
 10
399.61479205058248
 20
903.78946204815441
 30
0.0
 11
338.8533247999693
 21
909.10540207008
 31
0.0
  0
LINE
  5
2D9A
  8
AM_0
 10
398.61479205058259
 20
908.25774226411681
 30
0.0
 11
338.8533250505825
 21
913.48619326411699
 31
0.0
  0
LINE
  5
2D9B
  8
AM_0
 10
398.61479205058259
 20
825.29147204815445
 30
0.0
 11
336.11479205058242
 21
827.47402014138868
 31
0.0
  0
LINE
  5
2D9C
  8
AM_0
 10
398.61479205058242
 20
828.75522204815434
 30
0.0
 11
336.11479205058231
 21
830.93777014138857
 31
0.0
  0
LINE
  5
2D9D
  8
AM_0
 10
398.61479205058242
 20
806.82370204815379
 30
0.0
 11
336.11479205058231
 21
804.6411539549199
 31
0.0
  0
LINE
  5
2D9E
  8
AM_0
 10
398.61479205058259
 20
810.28745204815357
 30
0.0
 11
336.11479205058242
 21
808.10490395491991
 31
0.0
  0
LINE
  5
2D9F
  8
AM_0
 10
320.11479205058248
 20
942.78946204815429
 30
0.0
 11
335.11479205058242
 21
942.78946204815429
 31
0.0
  0
ARC
  5
2DA0
  8
AM_0
 10
339.11479205058248
 20
916.47477726411694
 30
0.0
 40
3.0
 50
180.0
 51
265.0
  0
ARC
  5
2DA1
  8
AM_0
 10
339.11479205058248
 20
912.09398616239821
 30
0.0
 40
3.0
 50
180.0
 51
264.9999995711263
1001
GENIUS_GENODEF_13
1002
{
1000
HIER
1070
     0
1002
}
1002
{
1000
MANEDIT
1070
     0
1002
}
1002
{
1000
NOSEL
1070
     0
1002
}
1002
{
1000
BEHIND
1070
     0
1002
}
1002
{
1000
OTHER
1070
     0
1002
}
1002
{
1000
REACTOR
1002
}
1001
GENIUS_GENOBJ-N-FIL_13
1002
{
1000
OWNER
1000
GEN
1002
}
  0
ARC
  5
2DA2
  8
AM_0
 10
335.11479205058242
 20
941.78946204815429
 30
0.0
 40
1.0
 50
0.0
 51
90.0
  0
LINE
  5
2DA3
  8
AM_0
 10
398.61479205058288
 20
731.70197337708623
 30
0.0
 11
398.61479205058322
 21
727.32118183219211
 31
0.0
  0
LINE
  5
2DA4
  8
AM_0
 10
398.61479205058242
 20
828.75522204815434
 30
0.0
 11
398.61479205058242
 21
806.82370204815379
 31
0.0
  0
LINE
  5
2DA5
  8
AM_0
 10
398.61479205058259
 20
903.87695071922235
 30
0.0
 11
398.61479205058259
 21
908.25774226411681
 31
0.0
  0
LINE
  5
2DA6
  8
ﾁｭｳｼﾝｾﾝ
 10
426.26071205058241
 20
420.91826375293613
 30
0.0
 11
663.55921205058235
 21
420.91826375293613
 31
0.0
  0
LINE
  5
2DA7
  8
AM_0
 10
564.71951205058235
 20
277.89814875293632
 30
0.0
 11
579.6148120505826
 21
278.41829375293622
 31
0.0
  0
LINE
  5
2DA8
  8
AM_0
 10
564.51016205058227
 20
562.89078375293627
 30
0.0
 11
579.6148120505826
 21
563.4182837529363
 31
0.0
  0
LINE
  5
2DA9
  8
AM_0
 10
561.61481205058226
 20
442.40510875293609
 30
0.0
 11
561.61481205058226
 21
559.89263375293615
 31
0.0
  0
LINE
  5
2DAA
  8
AM_0
 10
569.61481205058226
 20
420.91826375293613
 30
0.0
 11
569.61481205058226
 21
531.87553375293612
 31
0.0
  0
LINE
  5
2DAB
  8
AM_0
 10
399.6148120505822
 20
468.9182637529363
 30
0.0
 11
399.61481205058249
 21
296.91826375293618
 31
0.0
  0
LINE
  5
2DAC
  8
AM_0
 10
320.1148120505826
 20
507.91826375293618
 30
0.0
 11
320.1148120505826
 21
257.91826375293618
 31
0.0
  0
LINE
  5
2DAD
  8
AM_0
 10
336.1148120505826
 20
506.91826375293641
 30
0.0
 11
336.1148120505826
 21
258.9182637529363
 31
0.0
  0
LINE
  5
2DAE
  8
AM_0
 10
436.61481205058232
 20
268.79371875293617
 30
0.0
 11
436.61481205058232
 21
481.5375887529363
 31
0.0
  0
LINE
  5
2DAF
  8
AM_0
 10
450.61476205058233
 20
255.3036237529362
 30
0.0
 11
450.61476205058233
 21
510.53293375293617
 31
0.0
  0
LINE
  5
2DB0
  8
AM_0
 10
463.61481205058209
 20
252.91827875293629
 30
0.0
 11
463.61481205058209
 21
512.9182837529363
 31
0.0
  0
LINE
  5
2DB1
  8
AM_0
 10
560.48031205058248
 20
439.2711987529363
 30
0.0
 11
544.22731205058233
 21
488.4072187529361
 31
0.0
  0
LINE
  5
2DB2
  8
AM_0
 10
336.1148120505826
 20
357.17135775293627
 30
0.0
 11
395.91851405058247
 21
357.17135775293627
 31
0.0
  0
LINE
  5
2DB3
  8
AM_0
 10
336.1148120505826
 20
346.98012575293632
 30
0.0
 11
396.61481205058271
 21
346.98012575293632
 31
0.0
  0
LINE
  5
2DB4
  8
AM_0
 10
396.61481205058271
 20
320.99936375293618
 30
0.0
 11
336.1148120505826
 21
320.99936375293618
 31
0.0
  0
LINE
  5
2DB5
  8
AM_0
 10
399.61481205058249
 20
296.91826375293618
 30
0.0
 11
338.8533450505825
 21
291.60232375293617
 31
0.0
  0
LINE
  5
2DB6
  8
ﾁｭｳｼﾝｾﾝ
 10
308.33977869110441
 20
382.91826375293618
 30
0.0
 11
444.23725876862687
 21
382.91826375293618
 31
0.0
  0
LINE
  5
2DB7
  8
AM_0
 10
320.1148120505826
 20
257.91826375293618
 30
0.0
 11
335.1148120505826
 21
257.91826375293618
 31
0.0
  0
ARC
  5
2DB8
  8
AM_0
 10
335.1148120505826
 20
258.9182637529363
 30
0.0
 40
1.0
 50
270.0
 51
0.0
  0
ARC
  5
2DB9
  8
AM_0
 10
339.1148120505826
 20
288.61373975293623
 30
0.0
 40
3.0
 50
94.99999999999973
 51
180.0
  0
LINE
  5
2DBA
  8
AM_0
 10
561.61481205058226
 20
280.8962887529363
 30
0.0
 11
561.61481205058226
 21
329.41142875293627
 31
0.0
  0
ARC
  5
2DBB
  8
AM_0
 10
564.61481205058249
 20
309.96095875293622
 30
0.0
 40
5.0
 50
268.0000000000029
 51
0.0
  0
LINE
  5
2DBC
  8
AM_0
 10
491.6148120505826
 20
301.96068375293618
 30
0.0
 11
491.6148120505826
 21
318.06068875293619
 31
0.0
  0
ARC
  5
2DBD
  8
AM_0
 10
491.6148120505826
 20
309.83516375293641
 30
0.0
 40
9.7211409999999994
 50
90.00000299999769
 51
270.0
  0
LINE
  5
2DBE
  8
AM_0
 10
450.61476205058233
 20
261.2009937529362
 30
0.0
 11
540.39851205058255
 21
261.2009937529362
 31
0.0
  0
LINE
  5
2DBF
  8
AM_0
 10
463.61476205058221
 20
252.9182637529363
 30
0.0
 11
523.34331205058209
 21
251.35421875293611
 31
0.0
  0
LINE
  5
2DC0
  8
AM_0
 10
450.61476205058233
 20
275.6577937529363
 30
0.0
 11
565.43831205058245
 21
275.6577937529363
 31
0.0
  0
LINE
  5
2DC1
  8
AM_0
 10
399.6147620505825
 20
299.41826375293618
 30
0.0
 11
432.7543620505823
 21
298.26100375293612
 31
0.0
  0
LINE
  5
2DC2
  8
AM_0
 10
439.0938120505823
 20
265.83931375293622
 30
0.0
 11
448.13581205058227
 21
264.24495375293623
 31
0.0
  0
ARC
  5
2DC3
  8
AM_0
 10
439.61481205058249
 20
268.79371875293617
 30
0.0
 40
3.0000000500000001
 50
179.9999899999988
 51
260.00000000000119
  0
LINE
  5
2DC4
  8
AM_0
 10
452.54491205058241
 20
253.30479875293631
 30
0.0
 11
463.61481205058209
 21
252.9182287529363
 31
0.0
  0
ARC
  5
2DC5
  8
AM_0
 10
447.61481205058237
 20
261.29055875293619
 30
0.0
 40
3.0000000500000001
 50
0.0
 51
79.999998000001099
  0
ARC
  5
2DC6
  8
AM_0
 10
452.61481205058237
 20
255.3036237529362
 30
0.0
 40
2.0000000500000001
 50
179.9999899999988
 51
268.00000999999861
  0
ARC
  5
2DC7
  8
AM_0
 10
432.6148120505822
 20
294.2634487529362
 30
0.0
 40
4.000000049999997
 50
0.0
 51
88.000000000002899
  0
LINE
  5
2DC8
  8
AM_0
 10
491.6148120505826
 20
300.11400375293613
 30
0.0
 11
561.61481205058226
 21
300.11400375293613
 31
0.0
  0
LINE
  5
2DC9
  8
AM_0
 10
523.34326205058255
 20
251.3542487529362
 30
0.0
 11
569.6147620505825
 21
278.06907875293632
 31
0.0
  0
ARC
  5
2DCA
  8
AM_0
 10
564.61481205058249
 20
280.8962887529363
 30
0.0
 40
3.0000000500000001
 50
179.9999899999988
 51
271.99999000000139
  0
LINE
  5
2DCB
  8
AM_0
 10
450.61476205058233
 20
372.93727375293622
 30
0.0
 11
569.61481205058226
 21
372.93727375293622
 31
0.0
  0
LINE
  5
2DCC
  8
AM_0
 10
450.61476205058233
 20
392.8992837529363
 30
0.0
 11
569.61481205058226
 21
392.8992837529363
 31
0.0
  0
LINE
  5
2DCD
  8
AM_0
 10
401.6148120505826
 20
340.0557137529363
 30
0.0
 11
436.61481205058232
 21
340.0557137529363
 31
0.0
  0
LINE
  5
2DCE
  8
AM_0
 10
401.6148120505826
 20
327.06535875293628
 30
0.0
 11
431.61481205058237
 21
327.06535875293628
 31
0.0
  0
LINE
  5
2DCF
  8
AM_0
 10
401.6148120505826
 20
351.80784875293631
 30
0.0
 11
431.61481205058237
 21
351.80784875293631
 31
0.0
  0
LINE
  5
2DD0
  8
AM_0
 10
398.61481205058271
 20
357.17135775293627
 30
0.0
 11
398.61481205058271
 21
322.99936375293618
 31
0.0
  0
LINE
  5
2DD1
  8
AM_0
 10
401.6148120505826
 20
327.06535875293628
 30
0.0
 11
401.6148120505826
 21
351.80784875293631
 31
0.0
  0
ARC
  5
2DD2
  8
AM_0
 10
396.61481205058271
 20
322.99936375293618
 30
0.0
 40
2.0
 50
270.0
 51
0.0
  0
ARC
  5
2DD3
  8
AM_0
 10
396.61481205058271
 20
348.98012575293632
 30
0.0
 40
2.0
 50
270.0
 51
0.0
  0
ARC
  5
2DD4
  8
AM_0
 10
431.61481205058237
 20
322.06535875293628
 30
0.0
 40
5.0
 50
0.0
 51
90.00000299999769
  0
ARC
  5
2DD5
  8
AM_0
 10
431.61481205058237
 20
356.8078487529362
 30
0.0
 40
5.0
 50
270.0
 51
0.0
  0
LINE
  5
2DD6
  8
AM_0
 10
569.61481205058226
 20
420.91826375293613
 30
0.0
 11
569.61481205058226
 21
309.96095875293622
 31
0.0
  0
LINE
  5
2DD7
  8
AM_0
 10
491.6148120505826
 20
319.55629375293631
 30
0.0
 11
561.61481205058226
 21
319.55629375293631
 31
0.0
  0
ARC
  5
2DD8
  8
AM_0
 10
566.6148120505826
 20
329.41142875293627
 30
0.0
 40
5.0
 50
90.00000299999769
 51
180.00001000000091
  0
ARC
  5
2DD9
  8
AM_0
 10
565.2273620505822
 20
440.8414537529361
 30
0.0
 40
5.0
 50
198.30292000000031
 51
270.0
  0
LINE
  5
2DDA
  8
AM_0
 10
565.2273620505822
 20
435.84145375293627
 30
0.0
 11
569.61481205058226
 21
435.84145375293627
 31
0.0
  0
LINE
  5
2DDB
  8
AM_0
 10
397.6148120505826
 20
468.85382075293609
 30
0.0
 11
336.1148120505826
 21
468.85382075293609
 31
0.0
  0
LINE
  5
2DDC
  8
AM_0
 10
398.61481205058271
 20
481.91826375293641
 30
0.0
 11
338.8533450505825
 21
487.14671475293642
 31
0.0
  0
ARC
  5
2DDD
  8
AM_0
 10
339.1148120505826
 20
490.13529875293631
 30
0.0
 40
3.0
 50
180.0
 51
265.00000000000028
  0
LINE
  5
2DDE
  8
AM_0
 10
320.1148120505826
 20
507.91826375293618
 30
0.0
 11
335.1148120505826
 21
507.91826375293618
 31
0.0
  0
ARC
  5
2DDF
  8
AM_0
 10
335.1148120505826
 20
506.91826375293641
 30
0.0
 40
1.0
 50
0.0
 51
90.0
  0
LINE
  5
2DE0
  8
AM_0
 10
463.61471205058228
 20
512.9182837529363
 30
0.0
 11
533.50296205058237
 21
514.74838375293621
 31
0.0
  0
LINE
  5
2DE1
  8
AM_0
 10
450.61476205058233
 20
504.635578752936
 30
0.0
 11
526.52536205058254
 21
504.635578752936
 31
0.0
  0
LINE
  5
2DE2
  8
AM_0
 10
450.61476205058233
 20
490.17879375293609
 30
0.0
 11
512.67636205058238
 21
490.17879375293609
 31
0.0
  0
ARC
  5
2DE3
  8
AM_0
 10
447.61481205058237
 20
533.4182837529363
 30
0.0
 40
20.500000499999992
 50
304.61364000000401
 51
235.3863500000021
  0
CIRCLE
  5
2DE4
  8
AM_0
 10
447.61481205058237
 20
533.4182837529363
 30
0.0
 40
12.5
  0
LINE
  5
2DE5
  8
AM_0
 10
401.6148120505826
 20
477.41823375293632
 30
0.0
 11
433.7195120505823
 21
478.53935875293621
 31
0.0
  0
LINE
  5
2DE6
  8
AM_0
 10
401.6148120505826
 20
466.48808875293622
 30
0.0
 11
432.75441205058212
 21
467.57548875293611
 31
0.0
  0
LINE
  5
2DE7
  8
AM_0
 10
401.6148120505826
 20
466.48811875293609
 30
0.0
 11
401.6148120505826
 21
477.41829375293611
 31
0.0
  0
LINE
  5
2DE8
  8
AM_0
 10
399.61481205058249
 20
466.41823375293609
 30
0.0
 11
401.6148120505826
 21
466.48808875293622
 31
0.0
  0
LINE
  5
2DE9
  8
AM_0
 10
398.61481205058271
 20
468.9182637529363
 30
0.0
 11
399.6148120505822
 21
468.9182637529363
 31
0.0
  0
LINE
  5
2DEA
  8
AM_0
 10
398.61481205058271
 20
468.9182637529363
 30
0.0
 11
398.61481205058271
 21
481.91826375293641
 31
0.0
  0
LINE
  5
2DEB
  8
AM_0
 10
436.61481205058232
 20
481.5375887529363
 30
0.0
 11
436.61481205058232
 21
510.91828375293608
 31
0.0
  0
ARC
  5
2DEC
  8
AM_0
 10
432.6148120505822
 20
471.57310875293609
 30
0.0
 40
4.000000049999997
 50
271.99999999999687
 51
0.0
  0
ARC
  5
2DED
  8
AM_0
 10
433.61481205058209
 20
481.5375887529363
 30
0.0
 40
3.0000000500000001
 50
271.99999999999687
 51
0.0
  0
LINE
  5
2DEE
  8
AM_0
 10
439.0938120505823
 20
499.9973337529363
 30
0.0
 11
448.13576205058217
 21
501.59166375293631
 31
0.0
  0
LINE
  5
2DEF
  8
AM_0
 10
437.29196205058241
 20
512.4182837529363
 30
0.0
 11
451.94741205058222
 21
512.4182837529363
 31
0.0
  0
ARC
  5
2DF0
  8
AM_0
 10
440.29296205058228
 20
518.54953375293621
 30
0.0
 40
1.0
 50
100.4607200000025
 51
164.99999000000179
  0
ARC
  5
2DF1
  8
AM_0
 10
439.61481205058249
 20
497.04283875293612
 30
0.0
 40
3.0000000500000001
 50
99.999999999998593
 51
180.00001000000091
  0
ARC
  5
2DF2
  8
AM_0
 10
438.61481205058209
 20
510.91828375293608
 30
0.0
 40
2.0000000500000001
 50
131.4096200000032
 51
180.00001000000091
  0
ARC
  5
2DF3
  8
AM_0
 10
433.69781205058251
 20
513.25478375293642
 30
0.0
 40
4.000000049999997
 50
347.9293300000017
 51
55.386359000001512
  0
LINE
  5
2DF4
  8
AM_0
 10
437.61481205058209
 20
512.4182837529363
 30
0.0
 11
439.32706205058253
 21
518.80838375293615
 31
0.0
  0
ARC
  5
2DF5
  8
AM_0
 10
447.61481205058237
 20
504.54601375293612
 30
0.0
 40
3.0000000500000001
 50
279.99999999999852
 51
0.0
  0
LINE
  5
2DF6
  8
AM_0
 10
452.5450620505822
 20
512.53168375293615
 30
0.0
 11
463.61476205058221
 21
512.9182837529363
 31
0.0
  0
LINE
  5
2DF7
  8
AM_0
 10
439.79766205058201
 20
519.41828375293608
 30
0.0
 11
455.43191205058213
 21
519.41828375293608
 31
0.0
  0
LINE
  5
2DF8
  8
AM_0
 10
447.61481205058237
 20
520.9182837529363
 30
0.0
 11
455.11826205058247
 21
519.53288375293619
 31
0.0
  0
LINE
  5
2DF9
  8
AM_0
 10
440.11146205058259
 20
519.53293375293595
 30
0.0
 11
447.61486205058219
 21
520.9182837529363
 31
0.0
  0
ARC
  5
2DFA
  8
AM_0
 10
452.61481205058237
 20
510.53293375293617
 30
0.0
 40
2.0000000500000001
 50
91.999998000000545
 51
180.00001000000091
  0
LINE
  5
2DFB
  8
AM_0
 10
457.5376120505822
 20
512.70603375293615
 30
0.0
 11
455.9025620505825
 21
518.80833375293605
 31
0.0
  0
ARC
  5
2DFC
  8
AM_0
 10
454.93666205058219
 20
518.54953375293621
 30
0.0
 40
1.0
 50
15.000000000000741
 51
79.539281000002589
  0
ARC
  5
2DFD
  8
AM_0
 10
461.53176205058219
 20
513.25478375293642
 30
0.0
 40
4.000000049999997
 50
124.6136499999977
 51
187.8682199999983
  0
LINE
  5
2DFE
  8
AM_0
 10
461.61481205058232
 20
512.9182837529363
 30
0.0
 11
463.61481205058209
 21
512.9182837529363
 31
0.0
  0
LINE
  5
2DFF
  8
AM_0
 10
559.18106205058245
 20
524.16483375293637
 30
0.0
 11
522.12216205058235
 21
502.0022487529364
 31
0.0
  0
LINE
  5
2E00
  8
AM_0
 10
536.9076620505823
 20
516.21108375293625
 30
0.0
 11
560.15036205058254
 21
539.45378375293615
 31
0.0
  0
LINE
  5
2E01
  8
AM_0
 10
559.46741205058231
 20
517.92188375293608
 30
0.0
 11
517.70936205058217
 21
492.94899375293608
 31
0.0
  0
LINE
  5
2E02
  8
AM_0
 10
515.11481205058237
 20
488.4072187529361
 30
0.0
 11
542.56781205058257
 21
488.4072187529361
 31
0.0
  0
ARC
  5
2E03
  8
AM_0
 10
493.81466205058251
 20
514.71338375293635
 30
0.0
 40
30.946884499999999
 50
307.55230999999719
 51
335.59612999999888
  0
ARC
  5
2E04
  8
AM_0
 10
515.11481205058237
 20
493.40721875293627
 30
0.0
 40
5.0
 50
229.76332999999909
 51
270.0
  0
LINE
  5
2E05
  8
AM_0
 10
545.55751205058255
 20
489.39961875293631
 30
0.0
 11
561.61471205058206
 21
501.37843875293612
 31
0.0
  0
ARC
  5
2E06
  8
AM_0
 10
542.56781205058257
 20
493.40721875293627
 30
0.0
 40
5.0
 50
270.0
 51
306.72320999999818
  0
ARC
  5
2E07
  8
AM_0
 10
533.37216205058246
 20
519.7466337529363
 30
0.0
 40
5.0
 50
271.50000000000261
 51
315.0
  0
LINE
  5
2E08
  8
AM_0
 10
536.82246205058232
 20
510.793583752936
 30
0.0
 11
535.4970620505818
 21
514.80058375293595
 31
0.0
  0
ARC
  5
2E09
  8
AM_0
 10
556.61481205058237
 20
542.98933375293586
 30
0.0
 40
5.0
 50
315.0
 51
0.0
  0
ARC
  5
2E0A
  8
AM_0
 10
564.61481205058249
 20
531.87553375293612
 30
0.0
 40
5.0
 50
0.0
 51
91.999998000000545
  0
ARC
  5
2E0B
  8
AM_0
 10
556.61481205058237
 20
528.45603375293615
 30
0.0
 40
5.0
 50
300.88098000000002
 51
0.0
  0
ARC
  5
2E0C
  8
AM_0
 10
564.61481205058249
 20
559.89263375293615
 30
0.0
 40
3.0000000500000001
 50
91.999998000000545
 51
180.00001000000091
  0
LINE
  5
2E0D
  8
AM_0
 10
579.6148120505826
 20
278.4182637529363
 30
0.0
 11
579.6148120505826
 21
563.4182837529363
 31
0.0
  0
LINE
  5
2E0E
  8
AM_0
 10
583.61481205058215
 20
420.91826375293613
 30
0.0
 11
583.61481205058215
 21
540.9182837529363
 31
0.0
  0
CIRCLE
  5
2E0F
  8
AM_0
 10
947.11987217844569
 20
420.39497438560761
 30
0.0
 40
120.0
  0
CIRCLE
  5
2E10
  8
AM_0
 10
947.11987217844569
 20
420.39497438560761
 30
0.0
 40
113.0
  0
ARC
  5
2E11
  8
AM_0
 10
947.11987217844569
 20
382.39500438560759
 30
0.0
 40
122.0
 50
22.571981999999569
 51
55.326819999998243
  0
ARC
  5
2E12
  8
AM_0
 10
947.11987217844569
 20
382.39500438560759
 30
0.0
 40
122.0
 50
124.67318000000159
 51
157.4280199999998
  0
LINE
  5
2E13
  8
ﾁｭｳｼﾝｾﾝ
 10
947.11987217844569
 20
570.48743387496745
 30
0.0
 11
947.11987217844569
 21
244.4253993856077
 31
0.0
  0
LINE
  5
2E14
  8
AM_0
 10
804.61987717844545
 20
470.39497438560761
 30
0.0
 11
804.61987717844545
 21
420.39497438560761
 31
0.0
  0
LINE
  5
2E15
  8
AM_0
 10
1089.619857178445
 20
470.39497438560761
 30
0.0
 11
1089.619857178445
 21
420.39497438560761
 31
0.0
  0
CIRCLE
  5
2E16
  8
AM_0
 10
947.11987217844569
 20
420.39497438560761
 30
0.0
 40
41.000000499999992
  0
ARC
  5
2E17
  8
AM_0
 10
947.11987217844569
 20
420.39497438560761
 30
0.0
 40
61.999994999999998
 50
143.58112451768011
 51
180.00001000000091
  0
ARC
  5
2E18
  8
AM_0
 10
947.11987217844569
 20
420.39497438560761
 30
0.0
 40
61.999994999999998
 50
0.0
 51
36.416318000003159
  0
LINE
  5
2E19
  8
AM_0
 10
1068.791687178445
 20
280.39780938560767
 30
0.0
 11
997.11987217844569
 21
277.89500438560771
 31
0.0
  0
LINE
  5
2E1A
  8
ﾁｭｳｼﾝｾﾝ
 10
795.93740335653536
 20
420.39497438560761
 30
0.0
 11
1094.977065011014
 21
420.39497438560761
 31
0.0
  0
LINE
  5
2E1B
  8
AM_0
 10
1009.531647178445
 20
260.15241938560757
 30
0.0
 11
998.68441717844564
 21
263.05894438560762
 31
0.0
  0
LINE
  5
2E1C
  8
ﾁｭｳｼﾝｾﾝ
 10
885.11987217844523
 20
382.39500438560759
 30
0.0
 11
1009.119872178444
 21
382.39500438560759
 31
0.0
  0
ARC
  5
2E1D
  8
AM_0
 10
1017.119872178444
 20
400.3949743856075
 30
0.0
 40
8.0
 50
179.9999899999988
 51
270.0
  0
LINE
  5
2E1E
  8
AM_0
 10
583.61481205058215
 20
420.91826375293613
 30
0.0
 11
583.61481205058215
 21
300.9182637529363
 31
0.0
  0
LINE
  5
2E1F
  8
AM_0
 10
579.6148120505826
 20
300.9182637529363
 30
0.0
 11
583.61481205058215
 21
300.9182637529363
 31
0.0
  0
LINE
  5
2E20
  8
AM_0
 10
585.6147620505825
 20
399.91829375293611
 30
0.0
 11
655.6147620505825
 21
399.91829375293611
 31
0.0
  0
LINE
  5
2E21
  8
AM_0
 10
585.6147620505825
 20
441.91829375293611
 30
0.0
 11
655.6147620505825
 21
441.91829375293611
 31
0.0
  0
LINE
  5
2E22
  8
AM_0
 10
599.6148120505826
 20
444.91829375293622
 30
0.0
 11
655.6147620505825
 21
444.91829375293622
 31
0.0
  0
LINE
  5
2E23
  8
AM_0
 10
585.6147620505825
 20
398.4182637529363
 30
0.0
 11
585.6147620505825
 21
443.4182637529363
 31
0.0
  0
LINE
  5
2E24
  8
AM_0
 10
583.61481205058215
 20
398.4182637529363
 30
0.0
 11
585.6147620505825
 21
398.4182637529363
 31
0.0
  0
LINE
  5
2E25
  8
AM_0
 10
583.61481205058215
 20
443.4182637529363
 30
0.0
 11
585.6147620505825
 21
443.4182637529363
 31
0.0
  0
LINE
  5
2E26
  8
AM_0
 10
599.6148120505826
 20
444.91829375293622
 30
0.0
 11
599.6148120505826
 21
441.91829375293611
 31
0.0
  0
LINE
  5
2E27
  8
AM_0
 10
655.6147620505825
 20
399.91829375293611
 30
0.0
 11
655.6147620505825
 21
444.91829375293622
 31
0.0
  0
LINE
  5
2E28
  8
AM_0
 10
807.12272717844542
 20
298.7231593856078
 30
0.0
 11
804.61987717844545
 21
370.39503438560791
 31
0.0
  0
CIRCLE
  5
2E29
  8
AM_0
 10
826.91171217844544
 20
300.1868443856078
 30
0.0
 40
9.5
  0
ARC
  5
2E2A
  8
ﾁｭｳｼﾝｾﾝ1
 10
947.11987217844205
 20
420.394974385605
 30
0.0
 40
170.0000049999955
 50
218.85865324382189
 51
231.01461
  0
LINE
  5
2E2B
  8
ﾁｭｳｼﾝｾﾝ1
 10
814.94587682358815
 20
288.22094498180508
 30
0.0
 11
839.55537888356855
 21
312.83045060730802
 31
0.0
  0
ARC
  5
2E2C
  8
AM_0
 10
947.11987217844569
 20
382.39500438560759
 30
0.0
 40
130.0
 50
246.6310400000028
 51
293.36895999999689
  0
LINE
  5
2E2D
  8
AM_0
 10
897.11987217844569
 20
277.89497438560761
 30
0.0
 11
947.11987217844569
 21
277.89497438560761
 31
0.0
  0
LINE
  5
2E2E
  8
AM_0
 10
825.44805717844531
 20
280.3978393856076
 30
0.0
 11
897.11990217844595
 21
277.89500438560771
 31
0.0
  0
ARC
  5
2E2F
  8
AM_0
 10
826.11111217844541
 20
299.38627438560769
 30
0.0
 40
19.000000499999999
 50
182.0000000000004
 51
268.0000000000029
  0
LINE
  5
2E30
  8
AM_0
 10
872.46060217844524
 20
267.22349438560781
 30
0.0
 11
869.34127717844547
 21
278.86500438560762
 31
0.0
  0
ARC
  5
2E31
  8
AM_0
 10
882.11987217844546
 20
269.81168938560762
 30
0.0
 40
10.0
 50
195.0000099999981
 51
285.00000000000148
  0
LINE
  5
2E32
  8
AM_0
 10
884.70806717844516
 20
260.15241938560757
 30
0.0
 11
895.55526717844543
 21
263.05891438560758
 31
0.0
  0
LINE
  5
2E33
  8
AM_0
 10
997.11987217844569
 20
277.89497438560761
 30
0.0
 11
947.11987217844569
 21
277.89497438560761
 31
0.0
  0
LINE
  5
2E34
  8
AM_0
 10
804.61987717844545
 20
370.39497438560761
 30
0.0
 11
804.61987717844545
 21
420.39497438560761
 31
0.0
  0
LINE
  5
2E35
  8
AM_0
 10
841.59737717844564
 20
392.39500438560771
 30
0.0
 11
877.11987217844523
 21
392.39500438560771
 31
0.0
  0
ARC
  5
2E36
  8
AM_0
 10
841.59737717844564
 20
397.39500438560771
 30
0.0
 40
5.0
 50
192.29603999999881
 51
270.0
  0
LINE
  5
2E37
  8
AM_0
 10
885.11987217844523
 20
420.39497438560761
 30
0.0
 11
885.11987217844523
 21
400.3949743856075
 31
0.0
  0
ARC
  5
2E38
  8
AM_0
 10
877.11987217844523
 20
400.3949743856075
 30
0.0
 40
8.0
 50
270.0
 51
0.0
  0
ARC
  5
2E39
  8
AM_0
 10
947.11987217844569
 20
420.39497438560761
 30
0.0
 40
20.9999985
 50
106.6015499999988
 51
73.398451999997818
  0
CIRCLE
  5
2E3A
  8
AM_5
 10
947.11987217844569
 20
420.39497438560761
 30
0.0
 40
5.0
  0
CIRCLE
  5
2E3B
  8
AM_0
 10
947.11987217844569
 20
420.39497438560761
 30
0.0
 40
3.5000000500000001
  0
LINE
  5
2E3C
  8
AM_0
 10
941.11987217844558
 20
444.39500438560771
 30
0.0
 11
953.11987217844569
 21
444.39500438560771
 31
0.0
  0
LINE
  5
2E3D
  8
AM_0
 10
941.11987217844558
 20
436.39500438560759
 30
0.0
 11
953.11987217844569
 21
436.39500438560759
 31
0.0
  0
LINE
  5
2E3E
  8
AM_0
 10
941.11987217844558
 20
444.39500438560771
 30
0.0
 11
941.11987217844558
 21
436.39500438560759
 31
0.0
  0
LINE
  5
2E3F
  8
AM_0
 10
953.11987217844569
 20
444.39500438560771
 30
0.0
 11
953.11987217844569
 21
436.39500438560759
 31
0.0
  0
LINE
  5
2E40
  8
AM_0
 10
1087.1170371784449
 20
298.72318938560778
 30
0.0
 11
1089.619857178445
 21
370.39497438560761
 31
0.0
  0
CIRCLE
  5
2E41
  8
AM_0
 10
1067.328017178444
 20
300.1868443856078
 30
0.0
 40
9.5
  0
LINE
  5
2E42
  8
AM_0
 10
1021.7791121784441
 20
267.22349438560781
 30
0.0
 11
1024.898437178445
 21
278.8650343856076
 31
0.0
  0
ARC
  5
2E43
  8
AM_0
 10
1012.119872178445
 20
269.81168938560762
 30
0.0
 40
10.0
 50
254.99999999999821
 51
344.99999999999909
  0
ARC
  5
2E44
  8
AM_0
 10
1068.1286021784449
 20
299.38627438560769
 30
0.0
 40
19.000000499999999
 50
271.99999999999687
 51
357.9999999999992
  0
LINE
  5
2E45
  8
AM_0
 10
1089.619857178445
 20
370.39497438560761
 30
0.0
 11
1089.619857178445
 21
420.39497438560761
 31
0.0
  0
LINE
  5
2E46
  8
AM_0
 10
1009.119842178445
 20
420.39497438560761
 30
0.0
 11
1009.119842178445
 21
400.3949743856075
 31
0.0
  0
LINE
  5
2E47
  8
AM_0
 10
1052.642367178446
 20
392.39500438560771
 30
0.0
 11
1017.119872178444
 21
392.39500438560771
 31
0.0
  0
ARC
  5
2E48
  8
AM_0
 10
1052.642367178446
 20
397.39500438560771
 30
0.0
 40
5.0
 50
270.0
 51
347.70395000000082
  0
LINE
  5
2E49
  8
AM_0
 10
1068.791687178445
 20
560.39216938560776
 30
0.0
 11
997.11990217844618
 21
562.89496938560774
 31
0.0
  0
ARC
  5
2E4A
  8
AM_0
 10
947.11987217844569
 20
382.39500438560759
 30
0.0
 40
122.0
 50
60.143060000003558
 51
86.162371999997163
  0
LINE
  5
2E4B
  8
AM_0
 10
1026.694887178445
 20
492.89891438560761
 30
0.0
 11
997.50091717844555
 21
463.70491438560782
 31
0.0
  0
LINE
  5
2E4C
  8
AM_0
 10
1019.623812178445
 20
499.96995938560752
 30
0.0
 11
990.42984217844548
 21
470.7759893856076
 31
0.0
  0
LINE
  5
2E4D
  8
AM_0
 10
579.6148120505826
 20
540.9182837529363
 30
0.0
 11
583.61481205058215
 21
540.9182837529363
 31
0.0
  0
LINE
  5
2E4E
  8
AM_0
 10
897.11987217844569
 20
562.89496938560774
 30
0.0
 11
947.11987217844569
 21
562.89496938560774
 31
0.0
  0
LINE
  5
2E4F
  8
AM_0
 10
874.61596717844543
 20
499.96998938560751
 30
0.0
 11
903.80993717844513
 21
470.77601938560781
 31
0.0
  0
ARC
  5
2E50
  8
AM_0
 10
893.20333717844539
 20
460.1694193856078
 30
0.0
 40
5.0
 50
323.58368000000172
 51
45.00000100000149
  0
LINE
  5
2E51
  8
AM_0
 10
807.12272717844542
 20
542.06686938560779
 30
0.0
 11
804.61987717844545
 21
470.39497438560761
 31
0.0
  0
LINE
  5
2E52
  8
AM_0
 10
867.54488717844549
 20
492.89891438560761
 30
0.0
 11
896.73885717844576
 21
463.70494438560769
 31
0.0
  0
ARC
  5
2E53
  8
AM_0
 10
864.00933717844543
 20
489.36338938560749
 30
0.0
 40
5.0
 50
45.00000100000149
 51
140.31278000000091
  0
ARC
  5
2E54
  8
AM_0
 10
878.15148717844545
 20
503.50553938560762
 30
0.0
 40
5.0
 50
129.6872200000015
 51
225.0
  0
LINE
  5
2E55
  8
AM_0
 10
825.44805717844531
 20
560.39221938560763
 30
0.0
 11
897.11990217844595
 21
562.89501938560784
 31
0.0
  0
ARC
  5
2E56
  8
AM_0
 10
826.11111217844541
 20
541.40376938560769
 30
0.0
 40
19.000000499999999
 50
91.999998000000545
 51
177.9999999999994
  0
CIRCLE
  5
2E57
  8
AM_0
 10
826.91171217844544
 20
540.60316938560766
 30
0.0
 40
9.5
  0
LINE
  5
2E58
  8
AM_0
 10
943.61987217844569
 20
528.0599693856077
 30
0.0
 11
943.61987217844569
 21
509.11026938560781
 31
0.0
  0
LINE
  5
2E59
  8
AM_0
 10
950.61987217844569
 20
528.0599693856077
 30
0.0
 11
950.61987217844569
 21
509.11026938560781
 31
0.0
  0
ARC
  5
2E5A
  8
AM_0
 10
947.11987217844569
 20
420.39497438560761
 30
0.0
 40
61.999994999999998
 50
53.583681000000588
 51
126.41631999999819
  0
ARC
  5
2E5B
  8
AM_0
 10
955.61987217844558
 20
509.11026938560781
 30
0.0
 40
5.0
 50
179.9999899999988
 51
266.16236000000072
  0
ARC
  5
2E5C
  8
AM_0
 10
907.3454571784456
 20
474.3115693856077
 30
0.0
 40
5.0
 50
225.0
 51
306.41631999999822
  0
ARC
  5
2E5D
  8
AM_0
 10
938.61987217844558
 20
509.11026938560781
 30
0.0
 40
5.0
 50
273.83763000000209
 51
0.0
  0
ARC
  5
2E5E
  8
AM_0
 10
947.11987217844285
 20
382.39497438563211
 30
0.0
 40
121.9999999999761
 50
93.837626000003567
 51
119.8569400000037
  0
ARC
  5
2E5F
  8
AM_0
 10
1001.036437178445
 20
460.1694193856078
 30
0.0
 40
5.0
 50
135.0
 51
216.41631999999831
  0
ARC
  5
2E60
  8
AM_0
 10
986.89428717844544
 20
474.3115693856077
 30
0.0
 40
5.0
 50
233.58368000000161
 51
315.0
  0
LINE
  5
2E61
  8
AM_0
 10
997.11987217844569
 20
562.89496938560774
 30
0.0
 11
947.11987217844569
 21
562.89496938560774
 31
0.0
  0
ARC
  5
2E62
  8
AM_0
 10
955.61987217844558
 20
528.0599693856077
 30
0.0
 40
5.0
 50
85.485944000000941
 51
180.00001000000091
  0
ARC
  5
2E63
  8
AM_0
 10
938.61987217844558
 20
528.0599693856077
 30
0.0
 40
5.0
 50
0.0
 51
94.514061000000083
  0
LINE
  5
2E64
  8
AM_0
 10
1087.1170221784459
 20
542.06686938560779
 30
0.0
 11
1089.619857178445
 21
470.39500438560748
 31
0.0
  0
ARC
  5
2E65
  8
AM_0
 10
1016.088287178444
 20
503.50553938560762
 30
0.0
 40
5.0
 50
315.0
 51
50.312775000000542
  0
ARC
  5
2E66
  8
AM_0
 10
1030.230377178445
 20
489.36338938560749
 30
0.0
 40
5.0
 50
39.687223999999532
 51
135.0
  0
ARC
  5
2E67
  8
ﾁｭｳｼﾝｾﾝ1
 10
947.11987217843705
 20
420.39497438559908
 30
0.0
 40
170.00000500001201
 50
38.62024717870765
 51
51.014604000000709
  0
LINE
  5
2E68
  8
ﾁｭｳｼﾝｾﾝ1
 10
1079.169754189583
 20
552.44484411658027
 30
0.0
 11
1054.9903903055449
 21
528.26549548770163
 31
0.0
  0
CIRCLE
  5
2E69
  8
AM_0
 10
1067.328017178444
 20
540.60316938560766
 30
0.0
 40
9.5
  0
ARC
  5
2E6A
  8
AM_0
 10
1068.1286021784449
 20
541.40376938560769
 30
0.0
 40
19.000000499999999
 50
2.0000000000004712
 51
88.000000000002899
  0
ARC
  5
2E6B
  8
ﾁｭｳｼﾝｾﾝ1
 10
947.11987217845444
 20
420.39497438559908
 30
0.0
 40
170.00000500001201
 50
128.98539599999941
 51
141.3797528212925
  0
LINE
  5
2E6C
  8
ﾁｭｳｼﾝｾﾝ1
 10
815.06999016730754
 20
552.44484411657982
 30
0.0
 11
839.24935405134374
 21
528.26549548770095
 31
0.0
  0
ARC
  5
2E6D
  8
ﾁｭｳｼﾝｾﾝ1
 10
947.11987217844921
 20
420.394974385605
 30
0.0
 40
170.0000049999955
 50
308.98539000000028
 51
321.14134675617822
  0
LINE
  5
2E6E
  8
ﾁｭｳｼﾝｾﾝ1
 10
1079.293867533303
 20
288.22094498180547
 30
0.0
 11
1054.684365473322
 21
312.83045060730859
 31
0.0
  0
TEXT
  5
304C
  8
AM_0
 10
812.07949157165547
 20
852.24208963812566
 30
0.0
 40
20.0
  1
VX22-040AF~VX22-050AF
  0
ENDSEC
  0
EOF
