  0
SECTION
  2
HEADER
  9
$ACADVER
  1
AC1009
  9
$INSBASE
 10
0.0
 20
0.0
 30
0.0
  9
$EXTMIN
 10
286.79645902919128
 20
257.15008562963158
 30
-0.0000000000112498
  9
$EXTMAX
 10
1278.8521607375601
 20
1069.7659014630251
 30
0.0000000000002956
  9
$LIMMIN
 10
0.0
 20
0.0
  9
$LIMMAX
 10
1422.5
 20
925.0
  9
$ORTHOMODE
 70
     0
  9
$REGENMODE
 70
     1
  9
$FILLMODE
 70
     1
  9
$QTEXTMODE
 70
     0
  9
$MIRRTEXT
 70
     1
  9
$DRAGMODE
 70
     2
  9
$LTSCALE
 40
5.0
  9
$OSMODE
 70
   551
  9
$ATTMODE
 70
     1
  9
$TEXTSIZE
 40
2.5
  9
$TRACEWID
 40
1.0
  9
$TEXTSTYLE
  7
STANDARD
  9
$CLAYER
  8
AM_0
  9
$CELTYPE
  6
BYLAYER
  9
$CECOLOR
 62
   256
  9
$DIMSCALE
 40
1.0
  9
$DIMASZ
 40
2.5
  9
$DIMEXO
 40
1.0
  9
$DIMDLI
 40
8.0
  9
$DIMRND
 40
0.0
  9
$DIMDLE
 40
0.0
  9
$DIMEXE
 40
0.6
  9
$DIMTP
 40
0.1
  9
$DIMTM
 40
0.1
  9
$DIMTXT
 40
2.5
  9
$DIMCEN
 40
0.0
  9
$DIMTSZ
 40
0.0
  9
$DIMTOL
 70
     0
  9
$DIMLIM
 70
     0
  9
$DIMTIH
 70
     0
  9
$DIMTOH
 70
     0
  9
$DIMSE1
 70
     0
  9
$DIMSE2
 70
     0
  9
$DIMTAD
 70
     1
  9
$DIMZIN
 70
     8
  9
$DIMBLK
  1

  9
$DIMASO
 70
     1
  9
$DIMSHO
 70
     1
  9
$DIMPOST
  1

  9
$DIMAPOST
  1
"
  9
$DIMALT
 70
     0
  9
$DIMALTD
 70
     2
  9
$DIMALTF
 40
0.0393701
  9
$DIMLFAC
 40
1.0
  9
$DIMTOFL
 70
     1
  9
$DIMTVP
 40
0.0
  9
$DIMTIX
 70
     0
  9
$DIMSOXD
 70
     0
  9
$DIMSAH
 70
     0
  9
$DIMBLK1
  1

  9
$DIMBLK2
  1

  9
$DIMSTYLE
  2
AM_ISO
  9
$DIMCLRD
 70
   256
  9
$DIMCLRE
 70
   256
  9
$DIMCLRT
 70
     4
  9
$DIMTFAC
 40
0.71
  9
$DIMGAP
 40
0.8
  9
$LUNITS
 70
     2
  9
$LUPREC
 70
     2
  9
$SKETCHINC
 40
1.0
  9
$FILLETRAD
 40
25.0
  9
$AUNITS
 70
     0
  9
$AUPREC
 70
     0
  9
$MENU
  1
.
  9
$ELEVATION
 40
0.0
  9
$PELEVATION
 40
0.0
  9
$THICKNESS
 40
0.0
  9
$LIMCHECK
 70
     0
  9
$BLIPMODE
 70
     0
  9
$CHAMFERA
 40
10.0
  9
$CHAMFERB
 40
5.0
  9
$SKPOLY
 70
     0
  9
$TDCREATE
 40
2452066.6640160191
  9
$TDUPDATE
 40
2458541.549773809
  9
$TDINDWG
 40
0.1981086111
  9
$TDUSRTIMER
 40
0.1981082292
  9
$USRTIMER
 70
     1
  9
$ANGBASE
 50
0.0
  9
$ANGDIR
 70
     0
  9
$PDMODE
 70
     0
  9
$PDSIZE
 40
0.0
  9
$PLINEWID
 40
0.0
  9
$COORDS
 70
     1
  9
$SPLFRAME
 70
     0
  9
$SPLINETYPE
 70
     6
  9
$SPLINESEGS
 70
     8
  9
$ATTDIA
 70
     1
  9
$ATTREQ
 70
     1
  9
$HANDLING
 70
     1
  9
$HANDSEED
  5
305E
  9
$SURFTAB1
 70
     6
  9
$SURFTAB2
 70
     6
  9
$SURFTYPE
 70
     6
  9
$SURFU
 70
     6
  9
$SURFV
 70
     6
  9
$UCSNAME
  2

  9
$UCSORG
 10
0.0
 20
0.0
 30
0.0
  9
$UCSXDIR
 10
1.0
 20
0.0
 30
0.0
  9
$UCSYDIR
 10
0.0
 20
1.0
 30
0.0
  9
$PUCSNAME
  2

  9
$PUCSORG
 10
0.0
 20
0.0
 30
0.0
  9
$PUCSXDIR
 10
1.0
 20
0.0
 30
0.0
  9
$PUCSYDIR
 10
0.0
 20
1.0
 30
0.0
  9
$USERI1
 70
     0
  9
$USERI2
 70
     0
  9
$USERI3
 70
     0
  9
$USERI4
 70
     0
  9
$USERI5
 70
     0
  9
$USERR1
 40
0.0
  9
$USERR2
 40
0.0
  9
$USERR3
 40
0.0
  9
$USERR4
 40
0.0
  9
$USERR5
 40
0.0
  9
$WORLDVIEW
 70
     1
  9
$SHADEDGE
 70
     3
  9
$SHADEDIF
 70
    70
  9
$TILEMODE
 70
     1
  9
$MAXACTVP
 70
    64
  9
$PLIMCHECK
 70
     0
  9
$PEXTMIN
 10
1.0000000000000000E+020
 20
1.0000000000000000E+020
 30
1.0000000000000000E+020
  9
$PEXTMAX
 10
-1.0000000000000000E+020
 20
-1.0000000000000000E+020
 30
-1.0000000000000000E+020
  9
$PLIMMIN
 10
0.0
 20
0.0
  9
$PLIMMAX
 10
420.0
 20
297.0
  9
$UNITMODE
 70
     0
  9
$VISRETAIN
 70
     1
  9
$PLINEGEN
 70
     0
  9
$PSLTSCALE
 70
     1
  0
ENDSEC
  0
SECTION
  2
TABLES
  0
TABLE
  2
VPORT
 70
     1
  0
VPORT
  2
*ACTIVE
 70
     0
 10
0.0
 20
0.0
 11
1.0
 21
1.0
 12
782.82430988337592
 22
663.45799354632845
 13
0.0
 23
0.0
 14
12.5
 24
12.5
 15
50.0
 25
50.0
 16
0.0
 26
0.0
 36
1.0
 17
0.0
 27
0.0
 37
0.0
 40
818.19441411142634
 41
1.7571592210767459
 42
50.0
 43
0.0
 44
0.0
 50
0.0
 51
0.0
 71
     0
 72
   100
 73
     1
 74
     3
 75
     0
 76
     0
 77
     0
 78
     0
  0
ENDTAB
  0
TABLE
  2
LTYPE
 70
    26
  0
LTYPE
  2
CONTINUOUS
 70
     0
  3
Solid line
 72
    65
 73
     0
 40
0.0
  0
LTYPE
  2
AM_ISO02W050
 70
     0
  3
__ __ __ __ __ __ __ __ __ __ __ __ __ __ __
 72
    65
 73
     2
 40
7.5
 49
6.0
 49
-1.5
  0
LTYPE
  2
AM_ISO08W050
 70
     0
  3
____ . ____ . ____ . ____ . ____ . ____ . ____
 72
    65
 73
     4
 40
18.0
 49
12.0
 49
-1.5
 49
3.0
 49
-1.5
  0
LTYPE
  2
AM_ISO09W050
 70
     0
  3
_____ . . _____ . . _____ . . ____ .. ____
 72
    65
 73
     6
 40
22.5
 49
12.0
 49
-1.5
 49
3.0
 49
-1.5
 49
3.0
 49
-1.5
  0
LTYPE
  2
AMCONSTR
 70
     0
  3
_______________________
 72
    65
 73
     2
 40
9999.0
 49
9999.0
 49
0.0
  0
LTYPE
  2
AM_ISO08W050X2
 70
     0
  3
__ . __ . __ . __ . __ . __
 72
    65
 73
     4
 40
9.0
 49
6.0
 49
-0.75
 49
1.5
 49
-0.75
  0
LTYPE
  2
AM_ISO02W050X2
 70
     0
  3
 _ _ _ _ _ _ _ _ _ _ _ _
 72
    65
 73
     2
 40
3.75
 49
3.0
 49
-0.75
  0
LTYPE
  2
AMZIGZAG
 70
     0
  3
/\/-/\/-/\/-/\/-/\/-/\/
 72
    65
 73
     2
 40
11.000099999999991
 49
0.0001
 49
-11.0
  0
LTYPE
  2
ACISOWELD
 70
     0
  3
_ _ _ _ _
 72
    65
 73
     2
 40
2.0
 49
2.0
 49
-1.0
  0
LTYPE
  2
ACISOTGB
 70
     0
  3
__ . . __ . .
 72
    65
 73
     6
 40
9.0
 49
4.0
 49
-1.0
 49
1.0
 49
-1.0
 49
1.0
 49
-1.0
  0
LTYPE
  2
ACISOTGL
 70
     0
  3
_ _ _ _ _
 72
    65
 73
     2
 40
3.0
 49
2.0
 49
-1.0
  0
LTYPE
  2
CENTER
 70
     0
  3
__ . __
 72
    65
 73
     4
 40
7.0
 49
4.0
 49
-1.0
 49
1.0
 49
-1.0
  0
LTYPE
  2
PHANTOM2
 70
     0
  3
Phantom (.5x) ___ _ _ ___ _ _ ___ _ _ ___ _ _
 72
    65
 73
     6
 40
31.75
 49
15.875
 49
-3.174999999999998
 49
3.174999999999998
 49
-3.174999999999998
 49
3.174999999999998
 49
-3.174999999999998
  0
LTYPE
  2
ACANSTGBM
 70
     0
  3
__ . . __ . .
 72
    65
 73
     6
 40
9.0
 49
4.0
 49
-1.0
 49
1.0
 49
-1.0
 49
1.0
 49
-1.0
  0
LTYPE
  2
ACANSTGLM
 70
     0
  3
_ _ _ _ _
 72
    65
 73
     2
 40
3.0
 49
2.0
 49
-1.0
  0
LTYPE
  2
GEN7
 70
     0
  3
____ . ____ . ____ . ____ . ____ . ____ . ____
 72
    65
 73
     4
 40
14.25
 49
9.75
 49
-1.5
 49
1.5
 49
-1.5
  0
LTYPE
  2
GEN7A
 70
     0
  3
__ . __ . __
 72
    65
 73
     4
 40
7.375
 49
4.75
 49
-0.875
 49
0.875
 49
-0.875
  0
LTYPE
  2
ACJISTGB
 70
     0
  3
__ . . __ . .
 72
    65
 73
     6
 40
9.0
 49
4.0
 49
-1.0
 49
1.0
 49
-1.0
 49
1.0
 49
-1.0
  0
LTYPE
  2
ACJISTGL
 70
     0
  3
_ _ _ _ _
 72
    65
 73
     2
 40
3.0
 49
2.0
 49
-1.0
  0
LTYPE
  2
HIDDEN
 70
     0
  3
Hidden __ __ __ __ __ __ __ __ __ __ __ __ __ _
 72
    65
 73
     2
 40
0.375
 49
0.25
 49
-0.125
  0
LTYPE
  2
CENTER2
 70
     0
  3
Center (.5x) ___ _ ___ _ ___ _ ___ _ ___ _ ___
 72
    65
 73
     4
 40
1.125
 49
0.75
 49
-0.125
 49
0.125
 49
-0.125
  0
LTYPE
  2
HIDDEN2
 70
     0
  3
Hidden (.5x) _ _ _ _ _ _ _ _ _ _ _ _ _ _ _ _ _
 72
    65
 73
     2
 40
0.1875
 49
0.125
 49
-0.0625
  0
LTYPE
  2
AMZIGZAG2
 70
     0
  3
/\/-/\/-/\/-/\/-/\/-/\/
 72
    65
 73
     2
 40
0.4401
 49
0.0001
 49
-0.4400000000000002
  0
LTYPE
  2
ACANSTGB
 70
     0
  3
__ . . __ . .
 72
    65
 73
     6
 40
0.35433070866
 49
0.15748031496
 49
-0.03937007874
 49
0.03937007874
 49
-0.03937007874
 49
0.03937007874
 49
-0.03937007874
  0
LTYPE
  2
ACANSTGL
 70
     0
  3
_ _ _ _ _
 72
    65
 73
     2
 40
0.11811023622
 49
0.07874015748
 49
-0.03937007874
  0
ENDTAB
  0
TABLE
  2
LAYER
 70
     6
  0
LAYER
  2
0
 70
     0
 62
     7
  6
CONTINUOUS
  0
LAYER
  2
AM_0
 70
     0
 62
     7
  6
CONTINUOUS
  0
LAYER
  2
AM_5
 70
     0
 62
     2
  6
CONTINUOUS
  0
LAYER
  2
DEFPOINTS
 70
     0
 62
     7
  6
CONTINUOUS
  0
LAYER
  2
ﾁｭｳｼﾝｾﾝ
 70
     0
 62
     1
  6
GEN7
  0
LAYER
  2
ﾁｭｳｼﾝｾﾝ1
 70
     0
 62
     1
  6
GEN7A
  0
ENDTAB
  0
TABLE
  2
STYLE
 70
     9
  0
STYLE
  2
STANDARD
 70
     0
 40
0.0
 41
0.8299999999999999
 50
0.0
 71
     0
 42
2.5
  3
txt.shx
  4
bigfont.shx
  0
STYLE
  2
ANNOTATIVE
 70
     0
 40
0.0
 41
1.0
 50
0.0
 71
     0
 42
0.2
  3
txt
  4

  0
STYLE
  2

 70
     1
 40
0.0
 41
1.0
 50
0.0
 71
     0
 42
2.5
  3
ltypeshp.shx
  4

  0
STYLE
  2
ACISOTS
 70
     0
 40
1.0
 41
1.0
 50
0.0
 71
     0
 42
2.5
  3
isocp.shx
  4
extfont.shx
  0
STYLE
  2
ACISOGDT
 70
     0
 40
0.0
 41
1.0
 50
0.0
 71
     0
 42
2.5
  3
amgdt.shx
  4

  0
STYLE
  2
ACANSTS
 70
     0
 40
1.0
 41
1.0
 50
0.0
 71
     0
 42
2.5
  3
romans.shx
  4
bigfont.shx
  0
STYLE
  2
ACANSGDT
 70
     0
 40
0.0
 41
1.0
 50
0.0
 71
     0
 42
2.5
  3
amgdt.shx
  4

  0
STYLE
  2
ACJISTS
 70
     0
 40
1.0
 41
1.0
 50
0.0
 71
     0
 42
2.5
  3
isocp.shx
  4
bigfont.shx
  0
STYLE
  2
ACJISGDT
 70
     0
 40
0.0
 41
1.0
 50
0.0
 71
     0
 42
2.5
  3
amgdt.shx
  4

  0
ENDTAB
  0
TABLE
  2
VIEW
 70
     6
  0
VIEW
  2
AM_VIEW1
 70
     0
 40
462.5
 10
416.07965009208078
 20
693.75
 41
832.15930018416213
 11
0.0
 21
0.0
 31
1.0
 12
0.0
 22
0.0
 32
0.0
 42
50.0
 43
0.0
 44
0.0
 50
0.0
 71
     0
  0
VIEW
  2
AM_VIEW2
 70
     0
 40
462.5
 10
1006.420349907918
 20
693.75
 41
832.15930018416213
 11
0.0
 21
0.0
 31
1.0
 12
0.0
 22
0.0
 32
0.0
 42
50.0
 43
0.0
 44
0.0
 50
0.0
 71
     0
  0
VIEW
  2
AM_VIEW3
 70
     0
 40
462.5
 10
416.07965009208078
 20
231.25
 41
832.15930018416213
 11
0.0
 21
0.0
 31
1.0
 12
0.0
 22
0.0
 32
0.0
 42
50.0
 43
0.0
 44
0.0
 50
0.0
 71
     0
  0
VIEW
  2
AM_VIEW4
 70
     0
 40
462.5
 10
1006.420349907918
 20
231.25
 41
832.15930018416213
 11
0.0
 21
0.0
 31
1.0
 12
0.0
 22
0.0
 32
0.0
 42
50.0
 43
0.0
 44
0.0
 50
0.0
 71
     0
  0
VIEW
  2
AM_VIEW5
 70
     0
 40
462.5
 10
711.24999999999966
 20
462.5
 41
832.15930018416179
 11
0.0
 21
0.0
 31
1.0
 12
0.0
 22
0.0
 32
0.0
 42
50.0
 43
0.0
 44
0.0
 50
0.0
 71
     0
  0
VIEW
  2
AM_VIEW6
 70
     0
 40
924.99075000000005
 10
711.24999999999966
 20
462.5
 41
1664.3019571823199
 11
0.0
 21
0.0
 31
1.0
 12
0.0
 22
0.0
 32
0.0
 42
50.0
 43
0.0
 44
0.0
 50
0.0
 71
     0
  0
ENDTAB
  0
TABLE
  2
UCS
 70
     0
  0
ENDTAB
  0
TABLE
  2
APPID
 70
    95
  0
APPID
  2
ACAD
 70
     0
  0
APPID
  2
ACADANNOTATIVE
 70
     0
  0
APPID
  2
MCAD_NO_VIS
 70
     0
  0
APPID
  2
ACAD_TEMP_GRAPHIC
 70
     0
  0
APPID
  2
ACATTRIBSERVICES
 70
     0
  0
APPID
  2
GENIUS_GENREC_14
 70
     0
  0
APPID
  2
GENIUS_GENOBJ-N-REC_13
 70
     0
  0
APPID
  2
GENIUS_GENODEF_13
 70
     0
  0
APPID
  2
GENIUS_GENOLIS_13
 70
     0
  0
APPID
  2
GENIUS_GENOBJ-N-TIT_13
 70
     0
  0
APPID
  2
GENIUS_GENOENT_13
 70
     0
  0
APPID
  2
GENIUS_GENTITLE_13
 70
     0
  0
APPID
  2
GENIUS_GENOREF_13
 70
     0
  0
APPID
  2
GENIUS_GENSCREG_15
 70
     0
  0
APPID
  2
GENIUS_GENOBJ-N-SDF_13
 70
     0
  0
APPID
  2
GENIUS_GENFIL_13
 70
     0
  0
APPID
  2
GENIUS_GENOBJ-N-CHA_13
 70
     0
  0
APPID
  2
GENIUS_GENDTOL_13
 70
     0
  0
APPID
  2
GENIUS_GENOBJ-N-FIL_13
 70
     0
  0
APPID
  2
AD_DRAW
 70
     0
  0
APPID
  2
DESIGNERASSEMBLIES
 70
     0
  0
APPID
  2
ASURF_PCURVE_APPNAME
 70
     0
  0
APPID
  2
GENIUS_GE3SECT_13
 70
     0
  0
APPID
  2
GENIUS_GENCFG_13
 70
     0
  0
APPID
  2
GENIUS_GE3CFG0_13
 70
     0
  0
APPID
  2
GENIUS_GENCFG0_13
 70
     0
  0
APPID
  2
GENIUS_GENCFG1_13
 70
     0
  0
APPID
  2
GENIUS_GENCFG2_13
 70
     0
  0
APPID
  2
GENIUS_GENCFG3_13
 70
     0
  0
APPID
  2
GENIUS_GENCFG4_13
 70
     0
  0
APPID
  2
GENIUS_GEVCFG0_13
 70
     0
  0
APPID
  2
GENIUS_GENHINW_13
 70
     0
  0
APPID
  2
GENIUS_FIRSTVISTXT_14
 70
     0
  0
APPID
  2
GENIUS_GENOBJ-N-LEADER_13
 70
     0
  0
APPID
  2
GEV_VCCNULL_SWITCH_OFF
 70
     0
  0
APPID
  2
GENIUS_GEFCFG0_13
 70
     0
  0
APPID
  2
GENIUS_GENZVEED_13
 70
     0
  0
APPID
  2
GENIUS_GENSCREG_13
 70
     0
  0
APPID
  2
GENIUS_DUMCFG0_13
 70
     0
  0
APPID
  2
GEVID936201362
 70
     0
  0
APPID
  2
GEVDC
 70
     0
  0
APPID
  2
GEVCON
 70
     0
  0
APPID
  2
VCC
 70
     0
  0
APPID
  2
GEVPT
 70
     0
  0
APPID
  2
GEVIT
 70
     0
  0
APPID
  2
GENBH
 70
     0
  0
APPID
  2
GEVMK
 70
     0
  0
APPID
  2
GENIUS_GENBH_13
 70
     0
  0
APPID
  2
GENIUS_GENOBJ-NBEHI-BHF_13
 70
     0
  0
APPID
  2
GENIUS_GENOBJ-NBEHI-BHB_13
 70
     0
  0
APPID
  2
GENIUS_GENOBJ-F-DESC_13
 70
     0
  0
APPID
  2
GENIUS_GEFDESC_14
 70
     0
  0
APPID
  2
GENIUS_GENOBJ-F-PART_13
 70
     0
  0
APPID
  2
GENIUS_GEFSTDP_13
 70
     0
  0
APPID
  2
GENIUS_GEFPARTINS_13
 70
     0
  0
APPID
  2
GENIUS_GENTRA_14
 70
     0
  0
APPID
  2
GENIUS_GENINF13_13
 70
     0
  0
APPID
  2
GENIUS_GENOBJ-N-INFOPT_13
 70
     0
  0
APPID
  2
GENIUS_GENOBJ-N-RSSYM_13
 70
     0
  0
APPID
  2
GENIUS_GENSYMENT_13
 70
     0
  0
APPID
  2
GENIUS_GENSCSYM_13
 70
     0
  0
APPID
  2
GENIUS_GEFINFNAM_13
 70
     0
  0
APPID
  2
GENIUS_GENOBJ-N-CEN_13
 70
     0
  0
APPID
  2
GENIUS_GENOBJ-N-CRS_13
 70
     0
  0
APPID
  2
GENIUS_GENOBJ-N-CRC_13
 70
     0
  0
APPID
  2
GENIUS_GENCRC_14
 70
     0
  0
APPID
  2
GEVID942827039
 70
     0
  0
APPID
  2
GEVID942827040
 70
     0
  0
APPID
  2
GEVID942827041
 70
     0
  0
APPID
  2
GENIUS_GENOBJ-F-SCPASSM_13
 70
     0
  0
APPID
  2
GENIUS_GENDIMSH_14
 70
     0
  0
APPID
  2
GEVID942827042
 70
     0
  0
APPID
  2
GEVID946020473
 70
     0
  0
APPID
  2
GEVID946020474
 70
     0
  0
APPID
  2
GEVID946020475
 70
     0
  0
APPID
  2
GENIUS_GENOBJ-N-HTC_13
 70
     0
  0
APPID
  2
GENIUS_GENHATCH_13
 70
     0
  0
APPID
  2
GEVID948854295
 70
     0
  0
APPID
  2
GEVID939402019
 70
     0
  0
APPID
  2
GEVID952919491
 70
     0
  0
APPID
  2
GEVID952919492
 70
     0
  0
APPID
  2
GENIUS_GEFWELD_13
 70
     0
  0
APPID
  2
GENIUS_GENOBJ-F-WELS_13
 70
     0
  0
APPID
  2
GEVID952919493
 70
     0
  0
APPID
  2
GENIUS_GENOBJ-N-RSBK_13
 70
     0
  0
APPID
  2
GENIUS_GENOBJ-N-LIB_13
 70
     0
  0
APPID
  2
GENIUS_GENSCALE_13
 70
     0
  0
APPID
  2
GEVID986376691
 70
     0
  0
APPID
  2
DCO15
 70
     0
  0
APPID
  2
ACAD_DSTYLE_DIMBREAK
 70
     0
  0
APPID
  2
ACAD_DSTYLE_DIMJAG
 70
     0
  0
APPID
  2
ACAD_NAV_VCDISPLAY
 70
     0
  0
APPID
  2
ACADANNOPO
 70
     0
  0
APPID
  2
ACAD_EXEMPT_FROM_CAD_STANDARDS
 70
     0
  0
APPID
  2
ACAD_MLEADERVER
 70
     0
  0
ENDTAB
  0
TABLE
  2
DIMSTYLE
 70
    22
  0
DIMSTYLE
  2
STANDARD
 70
     0
  3

  4

  5

  6

  7

 40
1.0
 41
0.18
 42
0.0625
 43
0.38
 44
0.18
 45
0.0
 46
0.0
 47
0.0
 48
0.0
140
0.18
141
0.09
142
0.0
143
25.399999999999999
144
1.0
145
0.0
146
1.0
147
0.09
 71
     0
 72
     0
 73
     1
 74
     1
 75
     0
 76
     0
 77
     0
 78
     0
170
     0
171
     2
172
     0
173
     0
174
     0
175
     0
176
     0
177
     0
178
     0
  0
DIMSTYLE
  2
ANNOTATIVE
 70
     0
  3

  4

  5

  6

  7

 40
1.0
 41
0.18
 42
0.0625
 43
0.38
 44
0.18
 45
0.0
 46
0.0
 47
0.0
 48
0.0
140
0.18
141
0.09
142
0.0
143
25.399999999999999
144
1.0
145
0.0
146
1.0
147
0.09
 71
     0
 72
     0
 73
     1
 74
     1
 75
     0
 76
     0
 77
     0
 78
     0
170
     0
171
     2
172
     0
173
     0
174
     0
175
     0
176
     0
177
     0
178
     0
  0
DIMSTYLE
  2
AM_ISO
 70
     0
  3

  4
"
  5

  6

  7

 40
1.0
 41
2.5
 42
1.0
 43
8.0
 44
0.6
 45
0.0
 46
0.0
 47
0.1
 48
0.1
140
2.5
141
0.0
142
0.0
143
0.0393701
144
1.0
145
0.0
146
0.71
147
0.8
 71
     0
 72
     0
 73
     0
 74
     0
 75
     0
 76
     0
 77
     1
 78
     8
170
     0
171
     2
172
     1
173
     0
174
     0
175
     0
176
   256
177
   256
178
     4
  0
DIMSTYLE
  2
AM_ISO$3
 70
     0
  3

  4
"
  5

  6

  7

 40
1.0
 41
2.5
 42
1.0
 43
8.0
 44
0.6
 45
0.0
 46
0.0
 47
0.1
 48
0.1
140
2.5
141
0.0
142
0.0
143
0.0393701
144
1.0
145
0.0
146
0.71
147
0.8
 71
     0
 72
     0
 73
     0
 74
     1
 75
     0
 76
     0
 77
     1
 78
     8
170
     0
171
     2
172
     0
173
     0
174
     0
175
     0
176
   256
177
   256
178
     4
  0
DIMSTYLE
  2
AM_ISO$4
 70
     0
  3

  4
"
  5

  6

  7

 40
1.0
 41
2.5
 42
1.0
 43
8.0
 44
0.6
 45
0.0
 46
0.0
 47
0.1
 48
0.1
140
2.5
141
0.0
142
0.0
143
0.0393701
144
1.0
145
0.0
146
0.71
147
0.8
 71
     0
 72
     0
 73
     0
 74
     1
 75
     0
 76
     0
 77
     1
 78
     8
170
     0
171
     2
172
     0
173
     0
174
     0
175
     0
176
   256
177
   256
178
     4
  0
DIMSTYLE
  2
AM_ISO$6
 70
     0
  3

  4
"
  5

  6

  7

 40
1.0
 41
2.5
 42
1.0
 43
8.0
 44
0.6
 45
0.0
 46
0.0
 47
0.1
 48
0.1
140
2.5
141
0.0
142
0.0
143
0.0393701
144
1.0
145
0.0
146
0.71
147
0.8
 71
     0
 72
     0
 73
     0
 74
     0
 75
     0
 76
     0
 77
     0
 78
     8
170
     0
171
     2
172
     1
173
     0
174
     0
175
     0
176
   256
177
   256
178
     4
  0
DIMSTYLE
  2
AM_ISO$7
 70
     0
  3

  4
"
  5

  6

  7

 40
1.0
 41
2.5
 42
1.0
 43
8.0
 44
0.6
 45
0.0
 46
0.0
 47
0.1
 48
0.1
140
2.5
141
0.0
142
0.0
143
0.0393701
144
1.0
145
0.0
146
0.71
147
0.8
 71
     0
 72
     0
 73
     0
 74
     0
 75
     0
 76
     0
 77
     1
 78
     8
170
     0
171
     2
172
     1
173
     0
174
     0
175
     0
176
   256
177
   256
178
     4
  0
DIMSTYLE
  2
AM_ISO$SF
 70
     0
  3

  4
"
  5

  6

  7

 40
1.0
 41
2.5
 42
1.0
 43
10.0
 44
1.0
 45
0.0
 46
0.0
 47
0.1
 48
0.1
140
3.5
141
0.0
142
0.0
143
0.0393701
144
1.0
145
0.0
146
0.71
147
1.5
 71
     0
 72
     0
 73
     0
 74
     0
 75
     1
 76
     1
 77
     1
 78
     8
170
     0
171
     2
172
     1
173
     0
174
     0
175
     0
176
   256
177
   256
178
     2
  0
DIMSTYLE
  2
AM_ISO$SH
 70
     0
  3

  4
"
  5

  6

  7

 40
1.0
 41
2.5
 42
1.0
 43
10.0
 44
1.0
 45
0.0
 46
0.0
 47
0.1
 48
0.1
140
3.5
141
0.0
142
0.0
143
0.0393701
144
2.0
145
0.0
146
0.71
147
1.5
 71
     0
 72
     0
 73
     0
 74
     0
 75
     1
 76
     1
 77
     1
 78
     8
170
     0
171
     2
172
     1
173
     1
174
     0
175
     0
176
   256
177
   256
178
     2
  0
DIMSTYLE
  2
AM_JIS
 70
     0
  3

  4
"
  5

  6

  7

 40
1.0
 41
2.5
 42
1.0
 43
7.0
 44
1.0
 45
0.0
 46
0.0
 47
0.1
 48
0.1000000001
140
2.5
141
0.0
142
0.0
143
0.0393701
144
1.0
145
0.0
146
0.71
147
1.0
 71
     0
 72
     0
 73
     0
 74
     0
 75
     0
 76
     0
 77
     3
 78
     8
170
     0
171
     2
172
     1
173
     0
174
     0
175
     0
176
   256
177
   256
178
     4
  0
DIMSTYLE
  2
AM_JIS$3
 70
     0
  3

  4
"
  5

  6

  7

 40
1.0
 41
2.5
 42
1.0
 43
7.0
 44
1.0
 45
0.0
 46
0.0
 47
0.1
 48
0.1000000001
140
2.5
141
0.0
142
0.0
143
0.0393701
144
1.0
145
0.0
146
0.71
147
1.0
 71
     0
 72
     0
 73
     0
 74
     1
 75
     0
 76
     0
 77
     3
 78
     8
170
     0
171
     2
172
     0
173
     0
174
     0
175
     0
176
   256
177
   256
178
     4
  0
DIMSTYLE
  2
AM_JIS$4
 70
     0
  3

  4
"
  5

  6

  7

 40
1.0
 41
2.5
 42
1.0
 43
7.0
 44
1.0
 45
0.0
 46
0.0
 47
0.1
 48
0.1000000001
140
2.5
141
0.0
142
0.0
143
0.0393701
144
1.0
145
0.0
146
0.71
147
1.0
 71
     0
 72
     0
 73
     0
 74
     0
 75
     0
 76
     0
 77
     3
 78
     8
170
     0
171
     2
172
     0
173
     0
174
     0
175
     0
176
   256
177
   256
178
     4
  0
DIMSTYLE
  2
AM_JIS$6
 70
     0
  3

  4
"
  5

  6

  7

 40
1.0
 41
2.5
 42
1.0
 43
7.0
 44
1.0
 45
0.0
 46
0.0
 47
0.1
 48
0.1000000001
140
2.5
141
0.0
142
0.0
143
0.0393701
144
1.0
145
0.0
146
0.71
147
1.0
 71
     0
 72
     0
 73
     0
 74
     0
 75
     0
 76
     0
 77
     0
 78
     8
170
     0
171
     2
172
     1
173
     0
174
     0
175
     0
176
   256
177
   256
178
     4
  0
DIMSTYLE
  2
AM_JIS$7
 70
     0
  3

  4
"
  5

  6

  7

 40
1.0
 41
2.5
 42
1.0
 43
7.0
 44
1.0
 45
0.0
 46
0.0
 47
0.1
 48
0.1000000001
140
2.5
141
0.0
142
0.0
143
0.0393701
144
1.0
145
0.0
146
0.71
147
1.0
 71
     0
 72
     0
 73
     0
 74
     0
 75
     0
 76
     0
 77
     3
 78
     8
170
     0
171
     2
172
     1
173
     0
174
     0
175
     0
176
   256
177
   256
178
     4
  0
DIMSTYLE
  2
AM_JIS$SF
 70
     0
  3

  4
"
  5

  6

  7

 40
1.0
 41
2.5
 42
1.0
 43
10.0
 44
1.0
 45
0.0
 46
0.0
 47
0.1
 48
0.1
140
3.5
141
0.0
142
0.0
143
0.0393701
144
1.0
145
0.0
146
0.71
147
1.5
 71
     0
 72
     0
 73
     0
 74
     0
 75
     1
 76
     1
 77
     3
 78
     8
170
     0
171
     2
172
     1
173
     0
174
     0
175
     0
176
   256
177
   256
178
     4
  0
DIMSTYLE
  2
AM_JIS$SH
 70
     0
  3

  4
"
  5

  6

  7

 40
1.0
 41
2.5
 42
1.0
 43
10.0
 44
1.0
 45
0.0
 46
0.0
 47
0.1
 48
0.1
140
3.5
141
0.0
142
0.0
143
0.0393701
144
1.0
145
0.0
146
0.71
147
1.5
 71
     0
 72
     0
 73
     0
 74
     0
 75
     1
 76
     0
 77
     3
 78
     8
170
     0
171
     2
172
     1
173
     1
174
     0
175
     0
176
   256
177
   256
178
     4
  0
DIMSTYLE
  2
AM_ANSI
 70
     0
  3

  4
mm
  5

  6

  7

 40
1.0
 41
0.1
 42
0.05
 43
0.5
 44
0.1
 45
0.0
 46
0.0
 47
0.1
 48
0.1
140
0.12
141
0.0
142
0.0
143
25.399999999999999
144
1.0
145
0.0
146
0.71
147
0.06
 71
     0
 72
     0
 73
     1
 74
     1
 75
     0
 76
     0
 77
     0
 78
     7
170
     0
171
     2
172
     0
173
     0
174
     0
175
     0
176
   256
177
   256
178
     2
  0
DIMSTYLE
  2
AM_ANSI$3
 70
     0
  3

  4
mm
  5

  6

  7

 40
1.0
 41
0.1
 42
0.05
 43
0.5
 44
0.1
 45
0.0
 46
0.0
 47
0.1
 48
0.1
140
0.12
141
0.0
142
0.0
143
25.399999999999999
144
1.0
145
0.0
146
0.71
147
0.06
 71
     0
 72
     0
 73
     1
 74
     1
 75
     0
 76
     0
 77
     0
 78
     7
170
     0
171
     2
172
     0
173
     0
174
     0
175
     0
176
   256
177
   256
178
     2
  0
DIMSTYLE
  2
AM_ANSI$4
 70
     0
  3

  4
mm
  5

  6

  7

 40
1.0
 41
0.1
 42
0.05
 43
0.5
 44
0.1
 45
0.0
 46
0.0
 47
0.1
 48
0.1
140
0.12
141
0.0
142
0.0
143
25.399999999999999
144
1.0
145
0.0
146
0.71
147
0.06
 71
     0
 72
     0
 73
     1
 74
     1
 75
     0
 76
     0
 77
     0
 78
     7
170
     0
171
     2
172
     0
173
     0
174
     0
175
     0
176
   256
177
   256
178
     2
  0
DIMSTYLE
  2
AM_ANSI$7
 70
     0
  3

  4
mm
  5

  6

  7

 40
1.0
 41
0.1
 42
0.05
 43
0.5
 44
0.1
 45
0.0
 46
0.0
 47
0.1
 48
0.1
140
0.24
141
0.0
142
0.0
143
25.399999999999999
144
1.0
145
0.0
146
0.71
147
0.06
 71
     0
 72
     0
 73
     1
 74
     1
 75
     0
 76
     0
 77
     0
 78
     7
170
     0
171
     2
172
     0
173
     0
174
     0
175
     0
176
   256
177
   256
178
     2
  0
DIMSTYLE
  2
AM_ANSI$SF
 70
     0
  3

  4
mm
  5

  6

  7

 40
1.0
 41
0.1
 42
0.05
 43
0.5
 44
0.1
 45
0.0
 46
0.0
 47
0.1
 48
0.1
140
0.12
141
0.0
142
0.0
143
25.399999999999999
144
1.0
145
0.0
146
0.71
147
0.06
 71
     0
 72
     0
 73
     1
 74
     1
 75
     1
 76
     1
 77
     0
 78
     7
170
     0
171
     2
172
     0
173
     0
174
     0
175
     0
176
   256
177
   256
178
     2
  0
DIMSTYLE
  2
AM_ANSI$SH
 70
     0
  3

  4
mm
  5

  6

  7

 40
1.0
 41
0.1
 42
0.05
 43
0.5
 44
0.1
 45
0.0
 46
0.0
 47
0.1
 48
0.1
140
0.12
141
0.0
142
0.0
143
25.399999999999999
144
1.0
145
0.0
146
0.71
147
0.06
 71
     0
 72
     0
 73
     1
 74
     1
 75
     1
 76
     1
 77
     0
 78
     7
170
     0
171
     2
172
     0
173
     1
174
     0
175
     0
176
   256
177
   256
178
     2
  0
ENDTAB
  0
ENDSEC
  0
SECTION
  2
BLOCKS
  0
BLOCK
  8
0
  2
$MODEL_SPACE
 70
     0
 10
0.0
 20
0.0
 30
0.0
  3
$MODEL_SPACE
  1

  0
ENDBLK
  5
2ED4
  8
0
  0
BLOCK
 67
     1
  8
0
  2
$PAPER_SPACE
 70
     0
 10
0.0
 20
0.0
 30
0.0
  3
$PAPER_SPACE
  1

  0
ENDBLK
  5
2ED0
 67
     1
  8
0
  0
BLOCK
  8
0
  2
GENAXEH
 70
     0
 10
0.0
 20
0.0
 30
0.0
  3
GENAXEH
  1

  0
LINE
  5
2CC4
  8
0
 10
-1.0
 20
0.0
 30
0.0
 11
1.0
 21
0.0
 31
0.0
  0
ENDBLK
  5
2CC5
  8
0
  0
BLOCK
  8
0
  2
_OPEN30
 70
     0
 10
0.0
 20
0.0
 30
0.0
  3
_OPEN30
  1

  0
LINE
  5
2CC8
  8
0
 62
     0
 10
-1.0
 20
0.26794919
 30
0.0
 11
0.0
 21
0.0
 31
0.0
  0
LINE
  5
2CC9
  8
0
 62
     0
 10
0.0
 20
0.0
 30
0.0
 11
-1.0
 21
-0.26794919
 31
0.0
  0
LINE
  5
2CCA
  8
0
 62
     0
 10
0.0
 20
0.0
 30
0.0
 11
-1.0
 21
0.0
 31
0.0
  0
ENDBLK
  5
2CCB
  8
0
  0
BLOCK
  8
0
  2
_NONE
 70
     0
 10
0.0
 20
0.0
 30
0.0
  3
_NONE
  1

  0
ENDBLK
  5
2CCE
  8
0
  0
BLOCK
  8
0
  2
_ACMFILLEDHALF
 70
     0
 10
0.0
 20
0.0
 30
0.0
  3
_ACMFILLEDHALF
  1

  0
TRACE
  5
2FCA
  8
AM_0
 62
     0
 10
-0.8
 20
0.0
 30
0.0
 11
-1.0
 21
0.166666666
 31
0.0
 12
0.0
 22
0.0
 32
0.0
 13
0.0
 23
0.0
 33
0.0
  0
LINE
  5
2FCB
  8
AM_0
 62
     0
 10
-1.0
 20
0.0
 30
0.0
 11
-0.8
 21
0.0
 31
0.0
  0
ENDBLK
  5
2FC9
  8
0
  0
ENDSEC
  0
SECTION
  2
ENTITIES
  0
LINE
  5
2CD0
  8
AM_0
 10
606.5061818732928
 20
932.20112006613545
 30
0.0
 11
688.50618187329269
 21
932.20112006613545
 31
0.0
  0
LINE
  5
2CD1
  8
AM_0
 10
606.5061818732928
 20
877.20112006613545
 30
0.0
 11
688.50618187329269
 21
877.20112006613545
 31
0.0
  0
LINE
  5
2CD2
  8
AM_0
 10
626.50624187329265
 20
896.70106006613514
 30
0.0
 11
688.50618187329269
 21
896.70106006613514
 31
0.0
  0
LINE
  5
2CD3
  8
AM_0
 10
626.50624187329265
 20
912.70106006613526
 30
0.0
 11
688.50618187329269
 21
912.70106006613526
 31
0.0
  0
LINE
  5
2CD4
  8
ﾁｭｳｼﾝｾﾝ
 10
286.86487006309682
 20
904.70112006613545
 30
0.0
 11
699.1234318732927
 21
904.70112006613545
 31
0.0
  0
POLYLINE
  5
2CD5
  8
AM_0
 66
     1
 10
0.0
 20
0.0
 30
0.0
  0
VERTEX
  5
2CD6
  8
AM_0
 10
564.40907187329265
 20
991.08937006613564
 30
0.0
 42
0.01720808
  0
VERTEX
  5
2CD7
  8
AM_0
 10
559.99280187329282
 20
933.71418006613544
 30
0.0
 42
0.0088311605
  0
VERTEX
  5
2CD8
  8
AM_0
 10
559.27595187329268
 20
904.70112006613545
 30
0.0
 42
0.025919753
  0
VERTEX
  5
2CD9
  8
AM_0
 10
563.1447818732928
 20
818.73743006613552
 30
0.0
  0
SEQEND
  5
2CDA
  8
AM_0
  0
ARC
  5
2CDB
  8
AM_0
 10
398.5061818732928
 20
888.33076006613555
 30
0.0
 40
5.0
 50
0.0
 51
88.000000000002785
  0
LINE
  5
2CDC
  8
AM_0
 10
585.50630187329273
 20
1029.0502400661351
 30
0.0
 11
585.50630187329273
 21
780.35200006613559
 31
0.0
  0
LINE
  5
2CDD
  8
AM_0
 10
603.50624187329288
 20
1044.701120066135
 30
0.0
 11
603.50624187329288
 21
764.70112006613545
 31
0.0
  0
LINE
  5
2CDE
  8
AM_0
 10
598.50624187329288
 20
1069.701120066135
 30
0.0
 11
598.50624187329288
 21
739.7010600661356
 31
0.0
  0
LINE
  5
2CDF
  8
AM_0
 10
576.50624187329265
 20
1064.104380066135
 30
0.0
 11
576.50624187329265
 21
745.29786006613551
 31
0.0
  0
LINE
  5
2CE0
  8
AM_0
 10
606.5061818732928
 20
934.70112006613556
 30
0.0
 11
606.5061818732928
 21
874.70112006613556
 31
0.0
  0
LINE
  5
2CE1
  8
AM_0
 10
423.5061818732928
 20
777.5772200661354
 30
0.0
 11
423.5061818732928
 21
894.1655300661356
 31
0.0
  0
LINE
  5
2CE2
  8
AM_0
 10
453.50624187329282
 20
899.70112006613556
 30
0.0
 11
453.50624187329282
 21
771.70112006613545
 31
0.0
  0
LINE
  5
2CE3
  8
AM_0
 10
403.5061818732928
 20
798.24543006613555
 30
0.0
 11
403.5061818732928
 21
1011.156810066135
 31
0.0
  0
LINE
  5
2CE4
  8
AM_0
 10
385.00624187329282
 20
818.70112006613613
 30
0.0
 11
385.00624187329282
 21
990.70112006613579
 31
0.0
  0
LINE
  5
2CE5
  8
AM_0
 10
453.50624187329282
 20
771.7010600661356
 30
0.0
 11
569.66298187329289
 21
767.64478006613558
 31
0.0
  0
ARC
  5
2CE6
  8
AM_0
 10
408.50618187329292
 20
798.24543006613555
 30
0.0
 40
5.0
 50
180.00001000000091
 51
268.00000000000261
  0
ARC
  5
2CE7
  8
AM_0
 10
398.5061818732928
 20
812.86652006613554
 30
0.0
 40
5.0
 50
0.0
 51
88.000000000002785
  0
ARC
  5
2CE8
  8
AM_0
 10
398.5061818732928
 20
815.22657006613565
 30
0.0
 40
5.0
 50
0.0
 51
88.000000000002785
  0
LINE
  5
2CE9
  8
AM_0
 10
385.00618187329292
 20
820.70106006613526
 30
0.0
 11
398.68068187329283
 21
820.22352006613551
 31
0.0
  0
LINE
  5
2CEA
  8
AM_0
 10
398.68068187329283
 20
817.86347006613551
 30
0.0
 11
387.00624187329282
 21
818.2711200661355
 31
0.0
  0
LINE
  5
2CEB
  8
AM_0
 10
387.00624187329282
 20
818.27119006613555
 30
0.0
 11
387.00624187329282
 21
820.6311700661355
 31
0.0
  0
LINE
  5
2CEC
  8
AM_0
 10
453.50624187329282
 20
771.70112006613545
 30
0.0
 11
428.3317418732928
 21
772.58027006613554
 31
0.0
  0
ARC
  5
2CED
  8
AM_0
 10
428.5061818732928
 20
777.5772200661354
 30
0.0
 40
5.0
 50
180.00001000000091
 51
268.00000000000261
  0
LINE
  5
2CEE
  8
AM_0
 10
418.68074187329279
 20
792.88709006613556
 30
0.0
 11
408.33168187329278
 21
793.24848006613558
 31
0.0
  0
ARC
  5
2CEF
  8
AM_0
 10
418.5061818732928
 20
787.89008006613551
 30
0.0
 40
5.0
 50
0.0
 51
88.000000000002785
  0
ARC
  5
2CF0
  8
AM_0
 10
581.50624187329265
 20
745.29786006613551
 30
0.0
 40
5.0
 50
179.9999899999988
 51
268.00000999999861
  0
LINE
  5
2CF1
  8
AM_0
 10
581.33180187329265
 20
740.30085006613535
 30
0.0
 11
598.50630187329273
 21
739.70112006613545
 31
0.0
  0
ARC
  5
2CF2
  8
AM_0
 10
577.50624187329265
 20
780.35200006613559
 30
0.0
 40
8.0
 50
270.0
 51
0.0
  0
ARC
  5
2CF3
  8
AM_0
 10
577.50624187329265
 20
838.36445006613565
 30
0.0
 40
8.0
 50
270.0
 51
0.0
  0
ARC
  5
2CF4
  8
AM_0
 10
538.44465187329286
 20
813.82758006613562
 30
0.0
 40
5.0
 50
90.00000299999769
 51
180.00001000000091
  0
LINE
  5
2CF5
  8
AM_0
 10
538.43538187329284
 20
817.05067006613558
 30
0.0
 11
574.0044718732928
 21
795.52424006613535
 31
0.0
  0
LINE
  5
2CF6
  8
AM_0
 10
565.15638187329273
 20
817.85944006613545
 30
0.0
 11
576.50630187329273
 21
809.53565006613542
 31
0.0
  0
LINE
  5
2CF7
  8
AM_0
 10
535.8557918732929
 20
807.33704006613573
 30
0.0
 11
574.09504187329276
 21
784.19459006613556
 31
0.0
  0
ARC
  5
2CF8
  8
AM_0
 10
538.44465187329286
 20
811.61469006613549
 30
0.0
 40
5.0
 50
179.9999899999988
 51
238.81764999999689
  0
LINE
  5
2CF9
  8
AM_0
 10
533.44465187329286
 20
811.61469006613549
 30
0.0
 11
533.44465187329286
 21
813.82758006613562
 31
0.0
  0
POLYLINE
  5
2CFA
  8
AM_0
 66
     1
 10
0.0
 20
0.0
 30
0.0
  0
VERTEX
  5
2CFB
  8
AM_0
 10
566.58978187329285
 20
788.73682006613558
 30
0.0
 42
0.0020909347
  0
VERTEX
  5
2CFC
  8
AM_0
 10
567.5556318732929
 20
781.69631006613554
 30
0.0
 42
0.0020881749
  0
VERTEX
  5
2CFD
  8
AM_0
 10
568.5802118732928
 20
774.66469006613545
 30
0.0
 42
0.0020849591
  0
VERTEX
  5
2CFE
  8
AM_0
 10
569.66298187329289
 20
767.64484006613554
 30
0.0
  0
SEQEND
  5
2CFF
  8
AM_0
  0
ARC
  5
2D00
  8
AM_0
 10
569.48848187329281
 20
762.64789006613535
 30
0.0
 40
5.0
 50
45.000001000003799
 51
88.000000000002785
  0
LINE
  5
2D01
  8
AM_0
 10
573.02400187329295
 20
766.18342006613545
 30
0.0
 11
576.50630187329273
 21
762.70112006613545
 31
0.0
  0
ARC
  5
2D02
  8
AM_0
 10
571.50624187329265
 20
779.91700006613553
 30
0.0
 40
5.0
 50
0.0
 51
58.817640999998339
  0
LINE
  5
2D03
  8
AM_0
 10
538.44465187329286
 20
818.8275800661354
 30
0.0
 11
562.19947187329285
 21
818.8275800661354
 31
0.0
  0
ARC
  5
2D04
  8
AM_0
 10
562.19947187329285
 20
813.82758006613562
 30
0.0
 40
5.0
 50
53.744453000003212
 51
90.00000299999769
  0
LINE
  5
2D05
  8
AM_0
 10
598.50624187329288
 20
764.70112006613545
 30
0.0
 11
603.50624187329288
 21
764.70112006613545
 31
0.0
  0
LINE
  5
2D06
  8
AM_0
 10
603.50624187329288
 20
874.70112006613556
 30
0.0
 11
606.5061818732928
 21
874.70112006613556
 31
0.0
  0
LINE
  5
2D07
  8
AM_0
 10
453.50624187329282
 20
1037.701060066134
 30
0.0
 11
569.66298187329289
 21
1041.757390066135
 31
0.0
  0
ARC
  5
2D08
  8
AM_0
 10
408.50618187329292
 20
1011.156810066135
 30
0.0
 40
5.0
 50
91.999998000000545
 51
180.00001000000091
  0
LINE
  5
2D09
  8
AM_0
 10
387.00624187329282
 20
893.73536006613551
 30
0.0
 11
387.00624187329282
 21
915.66682006613553
 31
0.0
  0
LINE
  5
2D0A
  8
AM_0
 10
398.68068187329283
 20
893.32770006613555
 30
0.0
 11
387.00624187329282
 21
893.73536006613551
 31
0.0
  0
LINE
  5
2D0B
  8
AM_0
 10
398.68068187329283
 20
896.79145006613555
 30
0.0
 11
387.00624187329282
 21
897.19910006613566
 31
0.0
  0
ARC
  5
2D0C
  8
AM_0
 10
398.5061818732928
 20
891.79444006613551
 30
0.0
 40
5.0
 50
0.0
 51
88.000000000002785
  0
LINE
  5
2D0D
  8
AM_0
 10
398.68068187329283
 20
916.07453006613525
 30
0.0
 11
387.00624187329282
 21
915.66682006613553
 31
0.0
  0
LINE
  5
2D0E
  8
AM_0
 10
398.68068187329283
 20
912.61078006613582
 30
0.0
 11
387.00624187329282
 21
912.2031300661356
 31
0.0
  0
ARC
  5
2D0F
  8
AM_0
 10
398.5061818732928
 20
917.60773006613556
 30
0.0
 40
5.0
 50
271.9999999999971
 51
0.0
  0
ARC
  5
2D10
  8
AM_0
 10
398.5061818732928
 20
921.07148006613545
 30
0.0
 40
5.0
 50
271.9999999999971
 51
0.0
  0
LINE
  5
2D11
  8
AM_0
 10
385.00618187329292
 20
988.70106006613526
 30
0.0
 11
398.68068187329283
 21
989.17859006613514
 31
0.0
  0
LINE
  5
2D12
  8
AM_0
 10
398.68068187329283
 20
991.53876006613564
 30
0.0
 11
387.00624187329282
 21
991.13105006613557
 31
0.0
  0
LINE
  5
2D13
  8
AM_0
 10
387.00624187329282
 20
988.77094006613549
 30
0.0
 11
387.00624187329282
 21
991.13105006613557
 31
0.0
  0
ARC
  5
2D14
  8
AM_0
 10
398.5061818732928
 20
996.53571006613549
 30
0.0
 40
5.0
 50
271.9999999999971
 51
0.0
  0
ARC
  5
2D15
  8
AM_0
 10
398.5061818732928
 20
994.17560006613553
 30
0.0
 40
5.0
 50
271.9999999999971
 51
0.0
  0
LINE
  5
2D16
  8
AM_0
 10
423.5061818732928
 20
915.23664006613512
 30
0.0
 11
423.5061818732928
 21
1031.825020066135
 31
0.0
  0
LINE
  5
2D17
  8
AM_0
 10
453.50624187329282
 20
1037.701120066135
 30
0.0
 11
453.50624187329282
 21
909.70112006613556
 31
0.0
  0
ARC
  5
2D18
  8
AM_0
 10
455.50624187329282
 20
904.70112006613545
 30
0.0
 40
5.0
 50
270.0
 51
90.00000299999769
  0
LINE
  5
2D19
  8
AM_0
 10
415.50624187329282
 20
909.70112006613556
 30
0.0
 11
455.50624187329282
 21
909.70112006613556
 31
0.0
  0
LINE
  5
2D1A
  8
AM_0
 10
415.50624187329282
 20
899.70112006613556
 30
0.0
 11
455.50624187329282
 21
899.70112006613556
 31
0.0
  0
ARC
  5
2D1B
  8
AM_0
 10
435.50624187329282
 20
904.70112006613545
 30
0.0
 40
12.5
 50
203.5781799999973
 51
336.42183000000068
  0
ARC
  5
2D1C
  8
AM_0
 10
435.50624187329282
 20
904.70112006613545
 30
0.0
 40
12.5
 50
23.578179999997531
 51
156.42182000000241
  0
ARC
  5
2D1D
  8
AM_0
 10
415.50624187329282
 20
904.70112006613545
 30
0.0
 40
5.0
 50
90.00000299999769
 51
270.0
  0
ARC
  5
2D1E
  8
AM_0
 10
418.5061818732928
 20
894.1655300661356
 30
0.0
 40
5.0
 50
0.0
 51
31.78801800000311
  0
ARC
  5
2D1F
  8
AM_0
 10
435.50624187329282
 20
904.70112006613545
 30
0.0
 40
15.0
 50
199.4712300000005
 51
211.78801999999919
  0
ARC
  5
2D20
  8
AM_0
 10
418.5061818732928
 20
915.23664006613512
 30
0.0
 40
5.0
 50
328.21198000000078
 51
0.0
  0
ARC
  5
2D21
  8
AM_0
 10
435.50624187329282
 20
904.70112006613545
 30
0.0
 40
15.0
 50
148.21198000000049
 51
160.52876999999901
  0
LINE
  5
2D22
  8
AM_0
 10
453.5061818732928
 20
1037.701060066134
 30
0.0
 11
428.33168187329278
 21
1036.821970066135
 31
0.0
  0
ARC
  5
2D23
  8
AM_0
 10
418.5061818732928
 20
1021.512090066135
 30
0.0
 40
5.0
 50
271.9999999999971
 51
0.0
  0
LINE
  5
2D24
  8
AM_0
 10
418.68068187329283
 20
1016.515140066134
 30
0.0
 11
408.33168187329278
 21
1016.153750066135
 31
0.0
  0
ARC
  5
2D25
  8
AM_0
 10
428.5061818732928
 20
1031.825020066135
 30
0.0
 40
5.0
 50
91.999998000000545
 51
180.00001000000091
  0
POLYLINE
  5
2D26
  8
AM_0
 66
     1
 10
0.0
 20
0.0
 30
0.0
  0
VERTEX
  5
2D27
  8
AM_0
 10
571.6313618732928
 20
1041.8261200661341
 30
0.0
  0
VERTEX
  5
2D28
  8
AM_0
 10
568.40110187329276
 20
1021.761610066134
 30
0.0
 42
-1.0
  0
SEQEND
  5
2D29
  8
AM_0
  0
ARC
  5
2D2A
  8
AM_0
 10
577.50624187329265
 20
1029.0502400661351
 30
0.0
 40
8.0
 50
0.0
 51
90.00000299999769
  0
ARC
  5
2D2B
  8
AM_0
 10
577.50624187329265
 20
971.0377300661354
 30
0.0
 40
8.0
 50
0.0
 51
90.00000299999769
  0
ARC
  5
2D2C
  8
AM_0
 10
538.44465187329286
 20
995.57465006613552
 30
0.0
 40
5.0
 50
179.9999899999988
 51
270.0
  0
LINE
  5
2D2D
  8
AM_0
 10
535.85572187329285
 20
1002.065190066135
 30
0.0
 11
574.09504187329276
 21
1025.207590066135
 31
0.0
  0
ARC
  5
2D2E
  8
AM_0
 10
538.44465187329286
 20
997.78748006613523
 30
0.0
 40
5.0
 50
121.18235999999619
 51
180.00001000000091
  0
LINE
  5
2D2F
  8
AM_0
 10
533.44465187329286
 20
997.78748006613523
 30
0.0
 11
533.44465187329286
 21
995.57465006613552
 31
0.0
  0
LINE
  5
2D30
  8
AM_0
 10
538.43538187329284
 20
992.35151006613557
 30
0.0
 11
574.0044718732928
 21
1013.878000066135
 31
0.0
  0
LINE
  5
2D31
  8
AM_0
 10
538.44465187329286
 20
990.5746500661354
 30
0.0
 11
562.19947187329285
 21
990.5746500661354
 31
0.0
  0
LINE
  5
2D32
  8
AM_0
 10
565.15638187329273
 20
991.54267006613543
 30
0.0
 11
576.50630187329273
 21
999.86646006613546
 31
0.0
  0
ARC
  5
2D33
  8
AM_0
 10
562.19947187329285
 20
995.57465006613552
 30
0.0
 40
5.0
 50
270.0
 51
306.25554999999889
  0
ARC
  5
2D34
  8
AM_0
 10
571.50624187329265
 20
1029.485170066135
 30
0.0
 40
5.0
 50
301.18235999999632
 51
0.0
  0
ARC
  5
2D35
  8
AM_0
 10
626.50624187329265
 20
904.70106006613514
 30
0.0
 40
8.0000113999999982
 50
90.00000299999769
 51
270.0
  0
LINE
  5
2D36
  8
AM_0
 10
603.50624187329288
 20
934.70112006613556
 30
0.0
 11
606.5061818732928
 21
934.70112006613556
 31
0.0
  0
LINE
  5
2D37
  8
AM_0
 10
626.50618187329269
 20
912.70106006613526
 30
0.0
 11
626.50618187329269
 21
896.70106006613514
 31
0.0
  0
ARC
  5
2D38
  8
AM_0
 10
581.50624187329265
 20
1064.104380066135
 30
0.0
 40
5.0
 50
91.999998000000545
 51
180.00001000000091
  0
ARC
  5
2D39
  8
AM_0
 10
569.48848187329281
 20
1046.7543400661341
 30
0.0
 40
5.0
 50
271.9999999999971
 51
315.0
  0
LINE
  5
2D3A
  8
AM_0
 10
573.02406187329279
 20
1043.218760066135
 30
0.0
 11
576.50630187329273
 21
1046.7009900661351
 31
0.0
  0
LINE
  5
2D3B
  8
AM_0
 10
598.50624187329288
 20
1044.701120066135
 30
0.0
 11
603.50624187329288
 21
1044.701120066135
 31
0.0
  0
LINE
  5
2D3C
  8
AM_0
 10
581.33186187329272
 20
1069.1013900661351
 30
0.0
 11
598.50630187329273
 21
1069.701120066135
 31
0.0
  0
LINE
  5
2D3D
  8
AM_0
 10
688.50618187329269
 20
932.20112006613545
 30
0.0
 11
688.50618187329269
 21
877.20112006613545
 31
0.0
  0
LINE
  5
2D3E
  8
AM_0
 10
321.50624187329282
 20
1028.7011200661359
 30
0.0
 11
321.50624187329282
 21
780.70112006613601
 31
0.0
  0
LINE
  5
2D3F
  8
AM_0
 10
305.50624187329282
 20
1029.701120066135
 30
0.0
 11
305.50624187329282
 21
779.70112006613579
 31
0.0
  0
LINE
  5
2D40
  8
AM_0
 10
385.00624187329282
 20
818.7011200661359
 30
0.0
 11
324.2447746226797
 21
813.38518004420985
 31
0.0
  0
LINE
  5
2D41
  8
AM_0
 10
384.0062418732935
 20
814.23283985017395
 30
0.0
 11
324.24477487329352
 21
809.00438885017354
 31
0.0
  0
LINE
  5
2D42
  8
AM_0
 10
305.50624187329282
 20
779.70112006613579
 30
0.0
 11
320.50624187329288
 21
779.70112006613579
 31
0.0
  0
ARC
  5
2D43
  8
AM_0
 10
320.50624187329288
 20
780.70112006613601
 30
0.0
 40
1.0
 50
270.0
 51
0.0
  0
ARC
  5
2D44
  8
AM_0
 10
324.50624187329282
 20
810.3965959518921
 30
0.0
 40
3.0
 50
95.000000428873591
 51
180.0
1001
GENIUS_GENODEF_13
1002
{
1000
HIER
1070
     0
1002
}
1002
{
1000
MANEDIT
1070
     0
1002
}
1002
{
1000
NOSEL
1070
     0
1002
}
1002
{
1000
BEHIND
1070
     0
1002
}
1002
{
1000
OTHER
1070
     0
1002
}
1002
{
1000
REACTOR
1002
}
1001
GENIUS_GENOBJ-N-FIL_13
1002
{
1000
OWNER
1000
GEN
1002
}
  0
ARC
  5
2D45
  8
AM_0
 10
324.50624187329362
 20
806.01580485017348
 30
0.0
 40
3.0
 50
95.0
 51
180.0
  0
LINE
  5
2D46
  8
AM_0
 10
385.00624187329282
 20
990.70112006613601
 30
0.0
 11
324.2447746226797
 21
996.01706008806173
 31
0.0
  0
LINE
  5
2D47
  8
AM_0
 10
384.00624187329282
 20
995.16940028209842
 30
0.0
 11
324.24477487329273
 21
1000.397851282097
 31
0.0
  0
LINE
  5
2D48
  8
AM_0
 10
384.00624187329282
 20
912.20313006613605
 30
0.0
 11
321.50624187329282
 21
914.3856781593704
 31
0.0
  0
LINE
  5
2D49
  8
AM_0
 10
384.00624187329282
 20
915.66688006613606
 30
0.0
 11
321.50624187329282
 21
917.84942815937029
 31
0.0
  0
LINE
  5
2D4A
  8
AM_0
 10
384.00624187329282
 20
893.73536006613551
 30
0.0
 11
321.50624187329282
 21
891.55281197290162
 31
0.0
  0
LINE
  5
2D4B
  8
AM_0
 10
384.00624187329282
 20
897.19911006613552
 30
0.0
 11
321.50624187329282
 21
895.01656197290129
 31
0.0
  0
LINE
  5
2D4C
  8
AM_0
 10
305.50624187329282
 20
1029.701120066135
 30
0.0
 11
320.50624187329288
 21
1029.701120066135
 31
0.0
  0
ARC
  5
2D4D
  8
AM_0
 10
324.50624187329282
 20
1003.386435282098
 30
0.0
 40
3.0
 50
180.0
 51
265.0
  0
ARC
  5
2D4E
  8
AM_0
 10
324.50624187329282
 20
999.00564418037993
 30
0.0
 40
3.0
 50
180.0
 51
264.9999995711263
1001
GENIUS_GENODEF_13
1002
{
1000
HIER
1070
     0
1002
}
1002
{
1000
MANEDIT
1070
     0
1002
}
1002
{
1000
NOSEL
1070
     0
1002
}
1002
{
1000
BEHIND
1070
     0
1002
}
1002
{
1000
OTHER
1070
     0
1002
}
1002
{
1000
REACTOR
1002
}
1001
GENIUS_GENOBJ-N-FIL_13
1002
{
1000
OWNER
1000
GEN
1002
}
  0
ARC
  5
2D4F
  8
AM_0
 10
320.50624187329288
 20
1028.7011200661359
 30
0.0
 40
1.0
 50
0.0
 51
90.0
  0
LINE
  5
2D50
  8
AM_0
 10
384.0062418732935
 20
818.61363139506796
 30
0.0
 11
384.0062418732935
 21
814.23283985017395
 31
0.0
  0
LINE
  5
2D51
  8
AM_0
 10
384.00624187329282
 20
915.66688006613606
 30
0.0
 11
384.00624187329282
 21
893.73536006613551
 31
0.0
  0
LINE
  5
2D52
  8
AM_0
 10
384.00624187329282
 20
990.78860873720453
 30
0.0
 11
384.00624187329282
 21
995.16940028209842
 31
0.0
  0
LINE
  5
2D53
  8
ﾁｭｳｼﾝｾﾝ
 10
431.23508187329242
 20
464.24056208174898
 30
0.0
 11
693.93503187329259
 21
464.24056208174898
 31
0.0
  0
LINE
  5
2D54
  8
AM_0
 10
626.50618187329269
 20
495.7405620817492
 30
0.0
 11
688.50618187329269
 21
495.7405620817492
 31
0.0
  0
LINE
  5
2D55
  8
AM_0
 10
606.5061818732928
 20
436.74055708174922
 30
0.0
 11
688.50618187329269
 21
436.74055708174922
 31
0.0
  0
LINE
  5
2D56
  8
AM_0
 10
606.5061818732928
 20
491.7405620817492
 30
0.0
 11
688.50618187329269
 21
491.7405620817492
 31
0.0
  0
LINE
  5
2D57
  8
AM_0
 10
387.00623187329222
 20
502.81041708174911
 30
0.0
 11
387.00623187329222
 21
518.24056208174898
 31
0.0
  0
LINE
  5
2D58
  8
AM_0
 10
423.5061818732928
 20
583.26159708174896
 30
0.0
 11
423.5061818732928
 21
274.21954708174928
 31
0.0
  0
LINE
  5
2D59
  8
AM_0
 10
403.5061818732928
 20
530.94023708174905
 30
0.0
 11
403.5061818732928
 21
320.02797208174928
 31
0.0
  0
LINE
  5
2D5A
  8
AM_0
 10
575.83283187329266
 20
421.75246208174889
 30
0.0
 11
563.92903187329273
 21
550.11414708174925
 31
0.0
  0
LINE
  5
2D5B
  8
AM_0
 10
585.50618187329235
 20
588.58969708174914
 30
0.0
 11
585.50618187329235
 21
339.89143708174907
 31
0.0
  0
LINE
  5
2D5C
  8
AM_0
 10
603.5061818732928
 20
604.24059708174923
 30
0.0
 11
603.5061818732928
 21
324.24055708174922
 31
0.0
  0
LINE
  5
2D5D
  8
AM_0
 10
598.5061818732928
 20
629.24059708174923
 30
0.0
 11
598.5061818732928
 21
299.24055708174922
 31
0.0
  0
LINE
  5
2D5E
  8
AM_0
 10
576.50618187329269
 20
623.6438470817493
 30
0.0
 11
576.50618187329269
 21
429.97719208174919
 31
0.0
  0
LINE
  5
2D5F
  8
AM_0
 10
453.5061818732928
 20
586.24054708174913
 30
0.0
 11
453.5061818732928
 21
271.24055708174922
 31
0.0
  0
ARC
  5
2D60
  8
AM_0
 10
398.5061818732928
 20
508.21501708174918
 30
0.0
 40
5.0
 50
271.99999999999687
 51
0.0
  0
LINE
  5
2D61
  8
AM_0
 10
305.50618187329269
 20
544.24055708174899
 30
0.0
 11
305.50618187329269
 21
294.24055708174922
 31
0.0
  0
LINE
  5
2D62
  8
AM_0
 10
321.5061818732928
 20
543.24055708174922
 30
0.0
 11
321.5061818732928
 21
295.24055708174922
 31
0.0
  0
LINE
  5
2D63
  8
AM_0
 10
384.0061818732928
 20
505.24055708174922
 30
0.0
 11
384.0061818732928
 21
518.24055708174922
 31
0.0
  0
LINE
  5
2D64
  8
AM_0
 10
422.09733187329249
 20
286.92892708174912
 30
0.0
 11
406.32403187329271
 21
303.2101020817492
 31
0.0
  0
LINE
  5
2D65
  8
ﾁｭｳｼﾝｾﾝ
 10
286.86487006309682
 20
419.24055708174899
 30
0.0
 11
457.06540825290102
 21
419.24055708174899
 31
0.0
  0
ARC
  5
2D66
  8
AM_0
 10
389.50623187329222
 20
360.16102708174918
 30
0.0
 40
3.0000000500000001
 50
0.0
 51
90.00000299999769
  0
LINE
  5
2D67
  8
AM_0
 10
384.0061818732928
 20
393.49365108174902
 30
0.0
 11
384.0061818732928
 21
359.32165708174921
 31
0.0
  0
LINE
  5
2D68
  8
AM_0
 10
385.00618187329241
 20
505.2405570817491
 30
0.0
 11
385.00618187329292
 21
333.24055708174922
 31
0.0
  0
LINE
  5
2D69
  8
AM_0
 10
382.00618187329269
 20
357.32165708174921
 30
0.0
 11
321.5061818732928
 21
357.32165708174921
 31
0.0
  0
LINE
  5
2D6A
  8
AM_0
 10
385.00618187329292
 20
333.24055708174922
 30
0.0
 11
324.24471487329271
 21
327.9246170817492
 31
0.0
  0
ARC
  5
2D6B
  8
AM_0
 10
324.5061818732928
 20
324.93603308174909
 30
0.0
 40
3.0
 50
94.99999999999973
 51
180.0
  0
LINE
  5
2D6C
  8
AM_0
 10
305.50618187329269
 20
294.24055708174922
 30
0.0
 11
320.5061818732928
 21
294.24055708174922
 31
0.0
  0
ARC
  5
2D6D
  8
AM_0
 10
320.5061818732928
 20
295.24055708174922
 30
0.0
 40
1.0
 50
270.0
 51
0.0
  0
ARC
  5
2D6E
  8
AM_0
 10
413.50618187329269
 20
310.16829208174892
 30
0.0
 40
10.0
 50
179.9999899999988
 51
224.09222000000261
  0
LINE
  5
2D6F
  8
AM_0
 10
403.5061818732928
 20
320.02797208174928
 30
0.0
 11
403.5061818732928
 21
310.16829208174892
 31
0.0
  0
LINE
  5
2D70
  8
AM_0
 10
385.00618187329241
 20
335.74052708174912
 30
0.0
 11
398.68073187329242
 21
335.26301708174918
 31
0.0
  0
ARC
  5
2D71
  8
AM_0
 10
382.00618187329269
 20
359.32165708174921
 30
0.0
 40
2.0
 50
270.0
 51
0.0
  0
LINE
  5
2D72
  8
AM_0
 10
392.50618187329241
 20
360.16102708174918
 30
0.0
 11
392.50618187329241
 21
342.59712708174919
 31
0.0
  0
LINE
  5
2D73
  8
AM_0
 10
395.50618187329218
 20
339.59712708174908
 30
0.0
 11
400.50618187329212
 21
339.59712708174908
 31
0.0
  0
ARC
  5
2D74
  8
AM_0
 10
398.5061818732928
 20
330.2660720817492
 30
0.0
 40
5.0
 50
0.0
 51
88.000000000002899
  0
ARC
  5
2D75
  8
AM_0
 10
395.50618187329218
 20
342.59712708174919
 30
0.0
 40
3.0000000500000001
 50
179.9999899999988
 51
270.0
  0
ARC
  5
2D76
  8
AM_0
 10
400.50618187329212
 20
336.59712708174919
 30
0.0
 40
3.0000000500000001
 50
0.0
 51
90.00000299999769
  0
LINE
  5
2D77
  8
AM_0
 10
321.5061818732928
 20
393.49365108174902
 30
0.0
 11
381.30988387329279
 21
393.49365108174902
 31
0.0
  0
LINE
  5
2D78
  8
AM_0
 10
321.5061818732928
 20
383.30241908174912
 30
0.0
 11
382.00618187329269
 21
383.30241908174912
 31
0.0
  0
ARC
  5
2D79
  8
AM_0
 10
382.00618187329269
 20
385.30241908174918
 30
0.0
 40
2.0
 50
270.0
 51
0.0
  0
LINE
  5
2D7A
  8
AM_0
 10
387.00623187329222
 20
388.13011708174929
 30
0.0
 11
387.00623187329222
 21
363.38759208174912
 31
0.0
  0
LINE
  5
2D7B
  8
AM_0
 10
387.00623187329222
 20
376.37797708174918
 30
0.0
 11
403.5061818732928
 21
376.37797708174918
 31
0.0
  0
LINE
  5
2D7C
  8
AM_0
 10
387.00623187329222
 20
363.38759208174912
 30
0.0
 11
403.5061818732928
 21
363.38759208174912
 31
0.0
  0
LINE
  5
2D7D
  8
AM_0
 10
387.00623187329222
 20
388.13011708174929
 30
0.0
 11
403.5061818732928
 21
388.13011708174929
 31
0.0
  0
LINE
  5
2D7E
  8
AM_0
 10
383.00618187329292
 20
505.17611408174901
 30
0.0
 11
321.5061818732928
 21
505.17611408174901
 31
0.0
  0
LINE
  5
2D7F
  8
AM_0
 10
385.00618187329241
 20
502.7405620817492
 30
0.0
 11
398.68068187329231
 21
503.21806708174893
 31
0.0
  0
LINE
  5
2D80
  8
AM_0
 10
384.0061818732928
 20
505.24055708174922
 30
0.0
 11
385.00618187329241
 21
505.2405570817491
 31
0.0
  0
LINE
  5
2D81
  8
AM_0
 10
576.50618187329269
 20
371.96666208174912
 30
0.0
 11
576.50618187329269
 21
304.24055708174922
 31
0.0
  0
LINE
  5
2D82
  8
AM_0
 10
453.5061818732928
 20
271.24055708174922
 30
0.0
 11
535.3494818732928
 21
269.09741208174921
 31
0.0
  0
LINE
  5
2D83
  8
AM_0
 10
498.5061818732928
 20
319.8416320817492
 30
0.0
 11
576.50618187329269
 21
319.8416320817492
 31
0.0
  0
LINE
  5
2D84
  8
AM_0
 10
498.5061818732928
 20
344.4864670817492
 30
0.0
 11
576.50618187329269
 21
344.4864670817492
 31
0.0
  0
LINE
  5
2D85
  8
AM_0
 10
425.43638187329231
 20
272.22076708174922
 30
0.0
 11
453.5061818732928
 21
271.24055708174922
 31
0.0
  0
ARC
  5
2D86
  8
AM_0
 10
425.50618187329212
 20
274.21954708174928
 30
0.0
 40
2.0000000500000001
 50
179.9999899999988
 51
268.00000999999861
  0
ARC
  5
2D87
  8
AM_0
 10
418.50618187329269
 20
283.44984708174928
 30
0.0
 40
5.0
 50
0.0
 51
44.092231999999768
  0
LINE
  5
2D88
  8
AM_0
 10
493.50618187329269
 20
339.48646708174908
 30
0.0
 11
493.50618187329269
 21
324.84160208174922
 31
0.0
  0
ARC
  5
2D89
  8
AM_0
 10
498.5061818732928
 20
324.84160208174922
 30
0.0
 40
5.0
 50
179.9999899999988
 51
270.0
  0
ARC
  5
2D8A
  8
AM_0
 10
498.5061818732928
 20
339.48646708174908
 30
0.0
 40
5.0
 50
90.00000299999769
 51
180.00001000000091
  0
LINE
  5
2D8B
  8
AM_0
 10
540.61133187329256
 20
270.43373208174921
 30
0.0
 11
590.50618187329235
 21
299.24055708174922
 31
0.0
  0
ARC
  5
2D8C
  8
AM_0
 10
535.61133187329256
 20
279.09399708174919
 30
0.0
 40
10.0
 50
268.4999999999971
 51
300.00000000000051
  0
ARC
  5
2D8D
  8
AM_0
 10
581.50618187329269
 20
304.24055708174922
 30
0.0
 40
5.0
 50
179.9999899999988
 51
270.0
  0
ARC
  5
2D8E
  8
AM_0
 10
577.5061818732928
 20
339.89143708174907
 30
0.0
 40
8.0
 50
270.0
 51
0.0
  0
LINE
  5
2D8F
  8
AM_0
 10
581.50618187329269
 20
299.24055708174922
 30
0.0
 11
598.5061818732928
 21
299.24055708174922
 31
0.0
  0
LINE
  5
2D90
  8
AM_0
 10
598.5061818732928
 20
324.24055708174922
 30
0.0
 11
603.5061818732928
 21
324.24055708174922
 31
0.0
  0
LINE
  5
2D91
  8
AM_0
 10
425.50618187329212
 20
370.91136708174912
 30
0.0
 11
576.50618187329269
 21
370.91136708174912
 31
0.0
  0
LINE
  5
2D92
  8
AM_0
 10
423.50618187329241
 20
472.706962081749
 30
0.0
 11
571.10748187329239
 21
472.706962081749
 31
0.0
  0
LINE
  5
2D93
  8
AM_0
 10
606.5061818732928
 20
494.2405620817492
 30
0.0
 11
606.5061818732928
 21
434.24055708174927
 31
0.0
  0
ARC
  5
2D94
  8
AM_0
 10
577.5061818732928
 20
379.90391708174911
 30
0.0
 40
8.0
 50
270.0
 51
0.0
  0
ARC
  5
2D95
  8
AM_0
 10
583.79858187329262
 20
422.49120208174912
 30
0.0
 40
8.0
 50
185.2982400000015
 51
270.0
  0
LINE
  5
2D96
  8
AM_0
 10
603.5061818732928
 20
434.24055708174927
 30
0.0
 11
606.5061818732928
 21
434.24055708174927
 31
0.0
  0
LINE
  5
2D97
  8
AM_0
 10
603.5061818732928
 20
494.2405620817492
 30
0.0
 11
606.5061818732928
 21
494.2405620817492
 31
0.0
  0
LINE
  5
2D98
  8
AM_0
 10
626.50618187329269
 20
495.7405620817492
 30
0.0
 11
626.50618187329269
 21
491.7405620817492
 31
0.0
  0
LINE
  5
2D99
  8
AM_0
 10
419.52398187329243
 20
555.86454708174915
 30
0.0
 11
405.47058187329247
 21
536.89247708174923
 31
0.0
  0
ARC
  5
2D9A
  8
AM_0
 10
435.50618187329212
 20
612.24054708174936
 30
0.0
 40
25.000000499999999
 50
306.46672000000012
 51
233.53329000000139
  0
LINE
  5
2D9B
  8
AM_0
 10
384.0061818732928
 20
518.24055708174922
 30
0.0
 11
324.24471487329271
 21
523.46900808174905
 31
0.0
  0
ARC
  5
2D9C
  8
AM_0
 10
324.5061818732928
 20
526.45759208174923
 30
0.0
 40
3.0
 50
180.0
 51
265.00000000000028
  0
LINE
  5
2D9D
  8
AM_0
 10
305.50618187329269
 20
544.24055708174899
 30
0.0
 11
320.5061818732928
 21
544.24055708174899
 31
0.0
  0
ARC
  5
2D9E
  8
AM_0
 10
320.5061818732928
 20
543.24055708174922
 30
0.0
 40
1.0
 50
0.0
 51
90.0
  0
LINE
  5
2D9F
  8
AM_0
 10
387.00618187329241
 20
518.24056208174898
 30
0.0
 11
400.61088187329273
 21
518.71565708174899
 31
0.0
  0
ARC
  5
2DA0
  8
AM_0
 10
400.50618187329212
 20
521.71382708174929
 30
0.0
 40
3.0000000500000001
 50
271.99999999999687
 51
0.0
  0
ARC
  5
2DA1
  8
AM_0
 10
413.50618187329269
 20
530.94023708174905
 30
0.0
 40
10.0
 50
143.4711400000001
 51
180.00001000000091
  0
LINE
  5
2DA2
  8
AM_0
 10
453.50613187329247
 20
586.24059708174923
 30
0.0
 11
555.28753187329289
 21
588.90579708174914
 31
0.0
  0
LINE
  5
2DA3
  8
AM_0
 10
420.50618187329218
 20
584.24059708174923
 30
0.0
 11
420.50618187329218
 21
558.84069708174923
 31
0.0
  0
ARC
  5
2DA4
  8
AM_0
 10
418.50618187329269
 20
562.89069708174907
 30
0.0
 40
5.0
 50
323.4711400000001
 51
0.0
  0
LINE
  5
2DA5
  8
AM_0
 10
422.5239818732926
 20
559.91454708174922
 30
0.0
 11
419.52398187329243
 21
555.86454708174915
 31
0.0
  0
ARC
  5
2DA6
  8
AM_0
 10
415.50618187329218
 20
558.84069708174923
 30
0.0
 40
5.0
 50
323.4711400000001
 51
0.0
  0
CIRCLE
  5
2DA7
  8
AM_0
 10
435.50618187329212
 20
612.24054708174936
 30
0.0
 40
15.0
  0
LINE
  5
2DA8
  8
AM_0
 10
422.50618187329241
 20
586.24054708174913
 30
0.0
 11
453.5061818732928
 21
586.24054708174913
 31
0.0
  0
LINE
  5
2DA9
  8
AM_0
 10
425.43638187329231
 20
585.26029708174929
 30
0.0
 11
453.5061818732928
 21
586.24054708174913
 31
0.0
  0
LINE
  5
2DAA
  8
AM_0
 10
425.71213187329278
 20
595.24054708174913
 30
0.0
 11
445.30018187329279
 21
595.24054708174913
 31
0.0
  0
LINE
  5
2DAB
  8
AM_0
 10
435.5061318732927
 20
597.24054708174936
 30
0.0
 11
444.98423187329229
 21
595.36154708174922
 31
0.0
  0
LINE
  5
2DAC
  8
AM_0
 10
426.02808187329231
 20
595.36154708174922
 30
0.0
 11
435.5061318732927
 21
597.24054708174936
 31
0.0
  0
LINE
  5
2DAD
  8
AM_0
 10
423.0061318732927
 20
586.24059708174923
 30
0.0
 11
425.25663187329241
 21
594.63949708174925
 31
0.0
  0
ARC
  5
2DAE
  8
AM_0
 10
425.50618187329212
 20
583.26159708174896
 30
0.0
 40
2.0000000500000001
 50
91.999998000000545
 51
180.00001000000091
  0
ARC
  5
2DAF
  8
AM_0
 10
426.2226318732927
 20
594.38064708174954
 30
0.0
 40
1.0
 50
101.213289999998
 51
164.99999000000179
  0
ARC
  5
2DB0
  8
AM_0
 10
422.50618187329241
 20
584.24059708174923
 30
0.0
 40
2.0000000500000001
 50
90.00000299999769
 51
180.00001000000091
  0
ARC
  5
2DB1
  8
AM_0
 10
417.08113187329241
 20
587.31029708174924
 30
0.0
 40
6.0
 50
349.72994999999878
 51
53.533291000002919
  0
LINE
  5
2DB2
  8
AM_0
 10
448.00623187329262
 20
586.24054708174913
 30
0.0
 11
445.7557318732924
 21
594.63944708174927
 31
0.0
  0
ARC
  5
2DB3
  8
AM_0
 10
444.78983187329243
 20
594.38064708174954
 30
0.0
 40
1.0
 50
15.000000000000741
 51
78.786710000001847
  0
ARC
  5
2DB4
  8
AM_0
 10
453.93118187329242
 20
587.31029708174924
 30
0.0
 40
6.0
 50
126.46669999999671
 51
190.27005999999909
  0
LINE
  5
2DB5
  8
AM_0
 10
561.30408187329226
 20
578.41989708174924
 30
0.0
 11
560.23318187329278
 21
589.96749708174923
 31
0.0
  0
LINE
  5
2DB6
  8
AM_0
 10
535.8557818732927
 20
561.60454708174939
 30
0.0
 11
574.0949818732928
 21
584.74694708174923
 31
0.0
  0
ARC
  5
2DB7
  8
AM_0
 10
577.5061818732928
 20
530.57720208174896
 30
0.0
 40
8.0
 50
0.0
 51
90.00000299999769
  0
LINE
  5
2DB8
  8
AM_0
 10
538.4445818732928
 20
550.11409708174915
 30
0.0
 11
562.19943187329261
 21
550.11409708174915
 31
0.0
  0
LINE
  5
2DB9
  8
AM_0
 10
538.43528187329264
 20
551.89099708174922
 30
0.0
 11
574.00443187329245
 21
573.41744708174917
 31
0.0
  0
ARC
  5
2DBA
  8
AM_0
 10
538.4445818732928
 20
557.32694708174915
 30
0.0
 40
5.0
 50
121.182359999998
 51
180.00001000000091
  0
ARC
  5
2DBB
  8
AM_0
 10
538.4445818732928
 20
555.11409708174915
 30
0.0
 40
5.0
 50
179.9999899999988
 51
270.0
  0
LINE
  5
2DBC
  8
AM_0
 10
533.4445818732928
 20
557.32694708174915
 30
0.0
 11
533.4445818732928
 21
555.11409708174915
 31
0.0
  0
LINE
  5
2DBD
  8
AM_0
 10
565.15633187329274
 20
551.0821970817492
 30
0.0
 11
576.50623187329245
 21
559.40599708174932
 31
0.0
  0
ARC
  5
2DBE
  8
AM_0
 10
562.19943187329261
 20
555.11409708174915
 30
0.0
 40
5.0
 50
270.0
 51
306.25555000000082
  0
ARC
  5
2DBF
  8
AM_0
 10
577.5061818732928
 20
588.58969708174914
 30
0.0
 40
8.0
 50
0.0
 51
90.00000299999769
  0
ARC
  5
2DC0
  8
AM_0
 10
581.50618187329269
 20
623.6438470817493
 30
0.0
 40
5.0
 50
91.999998000000545
 51
180.00001000000091
  0
LINE
  5
2DC1
  8
AM_0
 10
562.09693187329265
 20
591.83129708174931
 30
0.0
 11
576.50618187329269
 21
606.24054708174913
 31
0.0
  0
ARC
  5
2DC2
  8
AM_0
 10
555.0258318732923
 20
598.90234708174921
 30
0.0
 40
10.0
 50
271.50000000000261
 51
315.0
  0
ARC
  5
2DC3
  8
AM_0
 10
571.5061818732928
 20
589.02464708174898
 30
0.0
 40
5.0
 50
301.18235999999791
 51
0.0
  0
LINE
  5
2DC4
  8
AM_0
 10
598.5061818732928
 20
604.24059708174923
 30
0.0
 11
603.5061818732928
 21
604.24059708174923
 31
0.0
  0
LINE
  5
2DC5
  8
AM_0
 10
581.33168187329272
 20
628.64079708174916
 30
0.0
 11
598.5061818732928
 21
629.24054708174936
 31
0.0
  0
ARC
  5
2DC6
  8
AM_0
 10
1010.143109906754
 20
464.24056208174898
 30
0.0
 40
75.0
 50
142.9032099999981
 51
180.00001000000091
  0
CIRCLE
  5
2DC7
  8
AM_0
 10
1010.143109906754
 20
464.24056208174898
 30
0.0
 40
132.0
  0
ARC
  5
2DC8
  8
AM_0
 10
1010.143109906754
 20
464.24056208174898
 30
0.0
 40
60.0
 50
90.00000299999769
 51
270.0
  0
ARC
  5
2DC9
  8
AM_0
 10
1010.143109906754
 20
464.24056208174898
 30
0.0
 40
60.0
 50
270.0
 51
90.00000299999769
  0
CIRCLE
  5
2DCA
  8
AM_0
 10
1010.143109906754
 20
464.24056208174898
 30
0.0
 40
140.0
  0
ARC
  5
2DCB
  8
AM_0
 10
1010.143109906754
 20
464.24056208174898
 30
0.0
 40
75.0
 50
0.0
 51
37.096792999999472
  0
LINE
  5
2DCC
  8
ﾁｭｳｼﾝｾﾝ
 10
1010.143109906754
 20
257.21537708174912
 30
0.0
 11
1010.143109906754
 21
643.69324708174929
 31
0.0
  0
LINE
  5
2DCD
  8
AM_0
 10
845.14308990675579
 20
409.24055708174927
 30
0.0
 11
845.14308990675579
 21
519.2405620817492
 31
0.0
  0
LINE
  5
2DCE
  8
AM_0
 10
1175.143084906754
 20
409.24055708174927
 30
0.0
 11
1175.143084906754
 21
519.2405620817492
 31
0.0
  0
LINE
  5
2DCF
  8
AM_0
 10
1065.143079906755
 20
299.2405420817492
 30
0.0
 11
1151.681914906756
 21
303.77586708174908
 31
0.0
  0
LINE
  5
2DD0
  8
AM_0
 10
1079.343339906756
 20
270.73904708174911
 30
0.0
 11
1102.1182099067551
 21
286.68617708174912
 31
0.0
  0
LINE
  5
2DD1
  8
ﾁｭｳｼﾝｾﾝ
 10
834.16138990675574
 20
464.24056208174898
 30
0.0
 11
1187.569674906754
 21
464.24056208174898
 31
0.0
  0
LINE
  5
2DD2
  8
ﾁｭｳｼﾝｾﾝ
 10
935.14310990675551
 20
419.24055708174899
 30
0.0
 11
1085.143079906755
 21
419.2405570817491
 31
0.0
  0
ARC
  5
2DD3
  8
ﾁｭｳｼﾝｾﾝ1
 10
1010.143109906754
 20
464.24056208174898
 30
0.0
 40
195.0000049999999
 50
218.16532000000149
 51
232.1288600000004
  0
ARC
  5
2DD4
  8
AM_0
 10
869.65098990675585
 20
323.74846208174893
 30
0.0
 40
20.000000499999999
 50
183.00000999999961
 51
267.0000000000008
  0
LINE
  5
2DD5
  8
AM_0
 10
845.14308990675579
 20
409.24055708174927
 30
0.0
 11
849.67843990675544
 21
322.70173708174912
 31
0.0
  0
LINE
  5
2DD6
  8
AM_0
 10
688.50618187329269
 20
495.7405620817492
 30
0.0
 11
688.50618187329269
 21
436.74055708174922
 31
0.0
  0
LINE
  5
2DD7
  8
AM_0
 10
955.14310990675551
 20
299.24055708174922
 30
0.0
 11
1065.1430499067551
 21
299.24055708174922
 31
0.0
  0
LINE
  5
2DD8
  8
AM_0
 10
948.29606490675553
 20
268.4205670817492
 30
0.0
 11
1071.990094906756
 21
268.4205670817492
 31
0.0
  0
ARC
  5
2DD9
  8
AM_0
 10
977.14307990675525
 20
370.91136708174912
 30
0.0
 40
102.81999499999991
 50
222.01518000000081
 51
235.0000000000025
  0
ARC
  5
2DDA
  8
AM_0
 10
948.29606490675553
 20
281.24055708174922
 30
0.0
 40
12.82
 50
235.0000000000025
 51
270.0
  0
LINE
  5
2DDB
  8
AM_0
 10
940.94282490675562
 20
270.73903208174897
 30
0.0
 11
918.16794990675555
 21
286.68615708174912
 31
0.0
  0
LINE
  5
2DDC
  8
AM_0
 10
955.14307990675559
 20
299.24055708174922
 30
0.0
 11
868.60423990675565
 21
303.77586708174908
 31
0.0
  0
CIRCLE
  5
2DDD
  8
AM_0
 10
872.25728990675555
 20
326.35475208174921
 30
0.0
 40
9.5
  0
LINE
  5
2DDE
  8
ﾁｭｳｼﾝｾﾝ1
 10
888.46663990675552
 20
342.56407708174919
 30
0.0
 11
858.0265399067556
 21
312.12401208174907
 31
0.0
  0
ARC
  5
2DDF
  8
AM_0
 10
1071.990094906756
 20
281.24055708174922
 30
0.0
 40
12.82
 50
270.0
 51
304.99999999999739
  0
LINE
  5
2DE0
  8
AM_0
 10
883.53743990675594
 20
449.24055708174922
 30
0.0
 11
930.14310990675551
 21
449.24055708174922
 31
0.0
  0
ARC
  5
2DE1
  8
AM_0
 10
883.53743990675594
 20
454.24055708174922
 30
0.0
 40
5.0
 50
184.5161599999995
 51
270.0
  0
ARC
  5
2DE2
  8
AM_0
 10
930.14310990675551
 20
454.24055708174922
 30
0.0
 40
5.0
 50
270.0
 51
0.0
  0
LINE
  5
2DE3
  8
AM_0
 10
935.14310990675551
 20
464.24056208174898
 30
0.0
 11
935.14310990675551
 21
454.24055708174922
 31
0.0
  0
ARC
  5
2DE4
  8
AM_0
 10
1010.143109906754
 20
464.24056208174898
 30
0.0
 40
27.500000499999999
 50
106.9123899999975
 51
73.087596999998908
  0
CIRCLE
  5
2DE5
  8
AM_5
 10
1010.143109906754
 20
464.24056208174898
 30
0.0
 40
6.0
  0
CIRCLE
  5
2DE6
  8
AM_0
 10
1010.143109906754
 20
464.24056208174898
 30
0.0
 40
4.500000049999997
  0
LINE
  5
2DE7
  8
AM_0
 10
1002.143079906754
 20
485.7405620817492
 30
0.0
 11
1002.143079906754
 21
495.7405620817492
 31
0.0
  0
LINE
  5
2DE8
  8
AM_0
 10
1018.143079906755
 20
485.7405620817492
 30
0.0
 11
1018.143079906755
 21
495.7405620817492
 31
0.0
  0
LINE
  5
2DE9
  8
AM_0
 10
1002.143079906754
 20
485.7405620817492
 30
0.0
 11
1018.143079906755
 21
485.7405620817492
 31
0.0
  0
LINE
  5
2DEA
  8
AM_0
 10
1002.143079906754
 20
495.7405620817492
 30
0.0
 11
1018.143079906755
 21
495.7405620817492
 31
0.0
  0
LINE
  5
2DEB
  8
AM_0
 10
1175.143099906755
 20
409.24052708174918
 30
0.0
 11
1170.607789906755
 21
322.70173708174912
 31
0.0
  0
ARC
  5
2DEC
  8
AM_0
 10
1043.143079906755
 20
370.91136708174912
 30
0.0
 40
102.81999499999991
 50
304.99999999999739
 51
317.9848199999991
  0
CIRCLE
  5
2DED
  8
AM_0
 10
1148.0289149067551
 20
326.35475208174921
 30
0.0
 40
9.5
  0
ARC
  5
2DEE
  8
AM_0
 10
1150.635194906755
 20
323.74846208174893
 30
0.0
 40
20.000000499999999
 50
272.99999999999909
 51
357.00000000000108
  0
LINE
  5
2DEF
  8
AM_0
 10
1136.7487799067551
 20
449.24055708174922
 30
0.0
 11
1090.143079906755
 21
449.24055708174922
 31
0.0
  0
ARC
  5
2DF0
  8
AM_0
 10
1090.143079906755
 20
454.24055708174922
 30
0.0
 40
5.0
 50
179.9999899999988
 51
270.0
  0
LINE
  5
2DF1
  8
AM_0
 10
1085.143079906755
 20
464.24056208174898
 30
0.0
 11
1085.143079906755
 21
454.24055708174922
 31
0.0
  0
ARC
  5
2DF2
  8
AM_0
 10
1136.7487799067551
 20
454.24055708174922
 30
0.0
 40
5.0
 50
270.0
 51
355.48384999999831
  0
LINE
  5
2DF3
  8
AM_0
 10
1065.143079906755
 20
629.24054708174936
 30
0.0
 11
1151.681914906756
 21
624.70524708174935
 31
0.0
  0
LINE
  5
2DF4
  8
AM_0
 10
1070.416974906756
 20
516.02916708174916
 30
0.0
 11
1103.8508149067541
 21
549.46299708174911
 31
0.0
  0
LINE
  5
2DF5
  8
AM_0
 10
1061.931684906755
 20
524.51445708174924
 30
0.0
 11
1095.365524906756
 21
557.94829708174905
 31
0.0
  0
ARC
  5
2DF6
  8
AM_0
 10
869.65098990675585
 20
604.73264708174929
 30
0.0
 40
20.000000499999999
 50
92.999999000001679
 51
176.99999000000011
  0
LINE
  5
2DF7
  8
AM_0
 10
845.14308990675579
 20
519.2405620817492
 30
0.0
 11
849.67843990675544
 21
605.77934708174917
 31
0.0
  0
ARC
  5
2DF8
  8
AM_0
 10
1010.143109906754
 20
464.24056208174898
 30
0.0
 40
75.0
 50
52.903206000003003
 51
127.0967900000017
  0
LINE
  5
2DF9
  8
AM_0
 10
955.14310990675551
 20
629.24059708174923
 30
0.0
 11
1065.1430499067551
 21
629.24059708174923
 31
0.0
  0
ARC
  5
2DFA
  8
AM_0
 10
912.89982490675561
 20
545.92749708174915
 30
0.0
 40
5.0
 50
45.00000100000149
 51
139.96884999999969
  0
LINE
  5
2DFB
  8
AM_0
 10
949.86918490675532
 20
516.02916708174916
 30
0.0
 11
916.43537490675556
 21
549.46299708174911
 31
0.0
  0
LINE
  5
2DFC
  8
AM_0
 10
958.35447490675585
 20
524.51445708174924
 30
0.0
 11
924.92063490675582
 21
557.94829708174905
 31
0.0
  0
ARC
  5
2DFD
  8
AM_0
 10
946.33365990675566
 20
512.49364208174893
 30
0.0
 40
5.0
 50
322.9032099999983
 51
45.00000100000149
  0
ARC
  5
2DFE
  8
AM_0
 10
961.88999490675553
 20
528.04997708174915
 30
0.0
 40
5.0
 50
225.0
 51
307.0967900000017
  0
ARC
  5
2DFF
  8
AM_0
 10
928.45618990675541
 20
561.48379708174923
 30
0.0
 40
5.0
 50
130.03114999999761
 51
225.0
  0
LINE
  5
2E00
  8
AM_0
 10
955.14310990675551
 20
629.24059708174923
 30
0.0
 11
868.60423990675565
 21
624.70524708174935
 31
0.0
  0
CIRCLE
  5
2E01
  8
AM_0
 10
872.25728990675555
 20
602.12639708174925
 30
0.0
 40
9.5
  0
ARC
  5
2E02
  8
AM_0
 10
1058.3961649067551
 20
528.04997708174915
 30
0.0
 40
5.0
 50
232.90320999999821
 51
315.0
  0
ARC
  5
2E03
  8
AM_0
 10
1073.952499906756
 20
512.49364208174893
 30
0.0
 40
5.0
 50
135.0
 51
217.09680000000159
  0
ARC
  5
2E04
  8
AM_0
 10
1010.143109906754
 20
632.24054708174936
 30
0.0
 40
5.0
 50
359.999989999999
 51
179.9999899999988
  0
LINE
  5
2E05
  8
AM_0
 10
1005.143109906754
 20
632.24054708174936
 30
0.0
 11
1005.143109906754
 21
629.24059708174923
 31
0.0
  0
LINE
  5
2E06
  8
AM_0
 10
1015.143109906754
 20
632.24054708174936
 30
0.0
 11
1015.143109906754
 21
629.24059708174923
 31
0.0
  0
LINE
  5
2E07
  8
AM_0
 10
1175.143099906755
 20
519.2405620817492
 30
0.0
 11
1170.607789906755
 21
605.77939708174915
 31
0.0
  0
ARC
  5
2E08
  8
AM_0
 10
1107.386334906756
 20
545.92749708174915
 30
0.0
 40
5.0
 50
40.031148000000073
 51
135.0
  0
ARC
  5
2E09
  8
AM_0
 10
1091.829999906756
 20
561.48379708174923
 30
0.0
 40
5.0
 50
315.0
 51
49.96885100000106
  0
ARC
  5
2E0A
  8
ﾁｭｳｼﾝｾﾝ1
 10
1010.143109906754
 20
464.24056208174898
 30
0.0
 40
195.0000049999999
 50
39.367218999999267
 51
50.896189000000447
  0
LINE
  5
2E0B
  8
ﾁｭｳｼﾝｾﾝ1
 10
1132.721604906754
 20
586.81904708174898
 30
0.0
 11
1162.259614906754
 21
616.35704708174922
 31
0.0
  0
ARC
  5
2E0C
  8
AM_0
 10
1150.635194906755
 20
604.73264708174929
 30
0.0
 40
20.000000499999999
 50
3.0000000999988461
 51
86.99999899999699
  0
CIRCLE
  5
2E0D
  8
AM_0
 10
1148.0289149067551
 20
602.12639708174925
 30
0.0
 40
9.5
  0
ARC
  5
2E0E
  8
ﾁｭｳｼﾝｾﾝ1
 10
1010.143109906754
 20
464.24056208174898
 30
0.0
 40
195.0000049999999
 50
129.10381099999969
 51
140.6327810000009
  0
LINE
  5
2E0F
  8
ﾁｭｳｼﾝｾﾝ1
 10
887.56461490675485
 20
586.81904708174864
 30
0.0
 11
858.02660490675419
 21
616.35704708174796
 31
0.0
  0
ARC
  5
2E10
  8
ﾁｭｳｼﾝｾﾝ1
 10
1010.143109906754
 20
464.24056208174898
 30
0.0
 40
195.0000049999999
 50
307.8711399999998
 51
321.83467999999868
  0
LINE
  5
2E11
  8
ﾁｭｳｼﾝｾﾝ1
 10
1131.819579906756
 20
342.56407708174982
 30
0.0
 11
1162.259679906756
 21
312.12401208174998
 31
0.0
  0
TEXT
  5
2FEF
  8
AM_0
 10
865.46680026288016
 20
946.54059163102033
 30
0.0
 40
20.0
  1
VX22-060AF~VX22-200AF
  0
ENDSEC
  0
EOF
