  0
SECTION
  2
HEADER
  9
$ACADVER
  1
AC1009
  9
$INSBASE
 10
0.0
 20
0.0
 30
0.0
  9
$EXTMIN
 10
304.04375127661478
 20
284.34897271829368
 30
-0.0000000000112498
  9
$EXTMAX
 10
1504.668826981062
 20
1226.747717478341
 30
0.0000000000002956
  9
$LIMMIN
 10
0.0
 20
0.0
  9
$LIMMAX
 10
1707.0
 20
1110.0
  9
$ORTHOMODE
 70
     0
  9
$REGENMODE
 70
     1
  9
$FILLMODE
 70
     1
  9
$QTEXTMODE
 70
     0
  9
$MIRRTEXT
 70
     1
  9
$DRAGMODE
 70
     2
  9
$LTSCALE
 40
6.0
  9
$OSMODE
 70
   551
  9
$ATTMODE
 70
     1
  9
$TEXTSIZE
 40
2.5
  9
$TRACEWID
 40
1.0
  9
$TEXTSTYLE
  7
STANDARD
  9
$CLAYER
  8
AM_0
  9
$CELTYPE
  6
BYLAYER
  9
$CECOLOR
 62
   256
  9
$DIMSCALE
 40
1.0
  9
$DIMASZ
 40
2.5
  9
$DIMEXO
 40
1.0
  9
$DIMDLI
 40
8.0
  9
$DIMRND
 40
0.0
  9
$DIMDLE
 40
0.0
  9
$DIMEXE
 40
0.6
  9
$DIMTP
 40
0.1
  9
$DIMTM
 40
0.1
  9
$DIMTXT
 40
2.5
  9
$DIMCEN
 40
0.0
  9
$DIMTSZ
 40
0.0
  9
$DIMTOL
 70
     0
  9
$DIMLIM
 70
     0
  9
$DIMTIH
 70
     0
  9
$DIMTOH
 70
     0
  9
$DIMSE1
 70
     0
  9
$DIMSE2
 70
     0
  9
$DIMTAD
 70
     1
  9
$DIMZIN
 70
     8
  9
$DIMBLK
  1

  9
$DIMASO
 70
     1
  9
$DIMSHO
 70
     1
  9
$DIMPOST
  1

  9
$DIMAPOST
  1
"
  9
$DIMALT
 70
     0
  9
$DIMALTD
 70
     2
  9
$DIMALTF
 40
0.0393701
  9
$DIMLFAC
 40
1.0
  9
$DIMTOFL
 70
     1
  9
$DIMTVP
 40
0.0
  9
$DIMTIX
 70
     0
  9
$DIMSOXD
 70
     0
  9
$DIMSAH
 70
     0
  9
$DIMBLK1
  1

  9
$DIMBLK2
  1

  9
$DIMSTYLE
  2
AM_ISO
  9
$DIMCLRD
 70
   256
  9
$DIMCLRE
 70
   256
  9
$DIMCLRT
 70
     4
  9
$DIMTFAC
 40
0.71
  9
$DIMGAP
 40
0.8
  9
$LUNITS
 70
     2
  9
$LUPREC
 70
     2
  9
$SKETCHINC
 40
1.0
  9
$FILLETRAD
 40
30.0
  9
$AUNITS
 70
     0
  9
$AUPREC
 70
     0
  9
$MENU
  1
.
  9
$ELEVATION
 40
0.0
  9
$PELEVATION
 40
0.0
  9
$THICKNESS
 40
0.0
  9
$LIMCHECK
 70
     0
  9
$BLIPMODE
 70
     0
  9
$CHAMFERA
 40
12.0
  9
$CHAMFERB
 40
6.0
  9
$SKPOLY
 70
     0
  9
$TDCREATE
 40
2452066.6814348148
  9
$TDUPDATE
 40
2458541.5560128819
  9
$TDINDWG
 40
0.2151991435
  9
$TDUSRTIMER
 40
0.2151991204
  9
$USRTIMER
 70
     1
  9
$ANGBASE
 50
0.0
  9
$ANGDIR
 70
     0
  9
$PDMODE
 70
     0
  9
$PDSIZE
 40
0.0
  9
$PLINEWID
 40
0.0
  9
$COORDS
 70
     1
  9
$SPLFRAME
 70
     0
  9
$SPLINETYPE
 70
     6
  9
$SPLINESEGS
 70
     8
  9
$ATTDIA
 70
     1
  9
$ATTREQ
 70
     1
  9
$HANDLING
 70
     1
  9
$HANDSEED
  5
3280
  9
$SURFTAB1
 70
     6
  9
$SURFTAB2
 70
     6
  9
$SURFTYPE
 70
     6
  9
$SURFU
 70
     6
  9
$SURFV
 70
     6
  9
$UCSNAME
  2

  9
$UCSORG
 10
0.0
 20
0.0
 30
0.0
  9
$UCSXDIR
 10
1.0
 20
0.0
 30
0.0
  9
$UCSYDIR
 10
0.0
 20
1.0
 30
0.0
  9
$PUCSNAME
  2

  9
$PUCSORG
 10
0.0
 20
0.0
 30
0.0
  9
$PUCSXDIR
 10
1.0
 20
0.0
 30
0.0
  9
$PUCSYDIR
 10
0.0
 20
1.0
 30
0.0
  9
$USERI1
 70
     0
  9
$USERI2
 70
     0
  9
$USERI3
 70
     0
  9
$USERI4
 70
     0
  9
$USERI5
 70
     0
  9
$USERR1
 40
0.0
  9
$USERR2
 40
0.0
  9
$USERR3
 40
0.0
  9
$USERR4
 40
0.0
  9
$USERR5
 40
0.0
  9
$WORLDVIEW
 70
     1
  9
$SHADEDGE
 70
     3
  9
$SHADEDIF
 70
    70
  9
$TILEMODE
 70
     1
  9
$MAXACTVP
 70
    64
  9
$PLIMCHECK
 70
     0
  9
$PEXTMIN
 10
1.0000000000000000E+020
 20
1.0000000000000000E+020
 30
1.0000000000000000E+020
  9
$PEXTMAX
 10
-1.0000000000000000E+020
 20
-1.0000000000000000E+020
 30
-1.0000000000000000E+020
  9
$PLIMMIN
 10
0.0
 20
0.0
  9
$PLIMMAX
 10
420.0
 20
297.0
  9
$UNITMODE
 70
     0
  9
$VISRETAIN
 70
     1
  9
$PLINEGEN
 70
     0
  9
$PSLTSCALE
 70
     1
  0
ENDSEC
  0
SECTION
  2
TABLES
  0
TABLE
  2
VPORT
 70
     1
  0
VPORT
  2
*ACTIVE
 70
     0
 10
0.0
 20
0.0
 11
1.0
 21
1.0
 12
904.3562891288384
 22
755.54834509831744
 13
0.0
 23
0.0
 14
15.0
 24
15.0
 15
60.0
 25
60.0
 16
0.0
 26
0.0
 36
1.0
 17
0.0
 27
0.0
 37
0.0
 40
948.86830136023082
 41
1.7571592210767459
 42
50.0
 43
0.0
 44
0.0
 50
0.0
 51
0.0
 71
     0
 72
   100
 73
     1
 74
     3
 75
     0
 76
     0
 77
     0
 78
     0
  0
ENDTAB
  0
TABLE
  2
LTYPE
 70
    26
  0
LTYPE
  2
CONTINUOUS
 70
     0
  3
Solid line
 72
    65
 73
     0
 40
0.0
  0
LTYPE
  2
AM_ISO02W050
 70
     0
  3
__ __ __ __ __ __ __ __ __ __ __ __ __ __ __
 72
    65
 73
     2
 40
7.5
 49
6.0
 49
-1.5
  0
LTYPE
  2
AM_ISO08W050
 70
     0
  3
____ . ____ . ____ . ____ . ____ . ____ . ____
 72
    65
 73
     4
 40
18.0
 49
12.0
 49
-1.5
 49
3.0
 49
-1.5
  0
LTYPE
  2
AM_ISO09W050
 70
     0
  3
_____ . . _____ . . _____ . . ____ .. ____
 72
    65
 73
     6
 40
22.5
 49
12.0
 49
-1.5
 49
3.0
 49
-1.5
 49
3.0
 49
-1.5
  0
LTYPE
  2
AMCONSTR
 70
     0
  3
_______________________
 72
    65
 73
     2
 40
9999.0
 49
9999.0
 49
0.0
  0
LTYPE
  2
AM_ISO08W050X2
 70
     0
  3
__ . __ . __ . __ . __ . __
 72
    65
 73
     4
 40
9.0
 49
6.0
 49
-0.75
 49
1.5
 49
-0.75
  0
LTYPE
  2
AM_ISO02W050X2
 70
     0
  3
 _ _ _ _ _ _ _ _ _ _ _ _
 72
    65
 73
     2
 40
3.75
 49
3.0
 49
-0.75
  0
LTYPE
  2
AMZIGZAG
 70
     0
  3
/\/-/\/-/\/-/\/-/\/-/\/
 72
    65
 73
     2
 40
11.000099999999991
 49
0.0001
 49
-11.0
  0
LTYPE
  2
ACISOWELD
 70
     0
  3
_ _ _ _ _
 72
    65
 73
     2
 40
2.0
 49
2.0
 49
-1.0
  0
LTYPE
  2
ACISOTGB
 70
     0
  3
__ . . __ . .
 72
    65
 73
     6
 40
9.0
 49
4.0
 49
-1.0
 49
1.0
 49
-1.0
 49
1.0
 49
-1.0
  0
LTYPE
  2
ACISOTGL
 70
     0
  3
_ _ _ _ _
 72
    65
 73
     2
 40
3.0
 49
2.0
 49
-1.0
  0
LTYPE
  2
CENTER
 70
     0
  3
__ . __
 72
    65
 73
     4
 40
7.0
 49
4.0
 49
-1.0
 49
1.0
 49
-1.0
  0
LTYPE
  2
PHANTOM2
 70
     0
  3
Phantom (.5x) ___ _ _ ___ _ _ ___ _ _ ___ _ _
 72
    65
 73
     6
 40
31.75
 49
15.875
 49
-3.174999999999998
 49
3.174999999999998
 49
-3.174999999999998
 49
3.174999999999998
 49
-3.174999999999998
  0
LTYPE
  2
ACANSTGBM
 70
     0
  3
__ . . __ . .
 72
    65
 73
     6
 40
9.0
 49
4.0
 49
-1.0
 49
1.0
 49
-1.0
 49
1.0
 49
-1.0
  0
LTYPE
  2
ACANSTGLM
 70
     0
  3
_ _ _ _ _
 72
    65
 73
     2
 40
3.0
 49
2.0
 49
-1.0
  0
LTYPE
  2
GEN7
 70
     0
  3
____ . ____ . ____ . ____ . ____ . ____ . ____
 72
    65
 73
     4
 40
14.25
 49
9.75
 49
-1.5
 49
1.5
 49
-1.5
  0
LTYPE
  2
GEN7A
 70
     0
  3
__ . __ . __
 72
    65
 73
     4
 40
7.375
 49
4.75
 49
-0.875
 49
0.875
 49
-0.875
  0
LTYPE
  2
ACJISTGB
 70
     0
  3
__ . . __ . .
 72
    65
 73
     6
 40
9.0
 49
4.0
 49
-1.0
 49
1.0
 49
-1.0
 49
1.0
 49
-1.0
  0
LTYPE
  2
ACJISTGL
 70
     0
  3
_ _ _ _ _
 72
    65
 73
     2
 40
3.0
 49
2.0
 49
-1.0
  0
LTYPE
  2
HIDDEN
 70
     0
  3
Hidden __ __ __ __ __ __ __ __ __ __ __ __ __ _
 72
    65
 73
     2
 40
0.375
 49
0.25
 49
-0.125
  0
LTYPE
  2
CENTER2
 70
     0
  3
Center (.5x) ___ _ ___ _ ___ _ ___ _ ___ _ ___
 72
    65
 73
     4
 40
1.125
 49
0.75
 49
-0.125
 49
0.125
 49
-0.125
  0
LTYPE
  2
HIDDEN2
 70
     0
  3
Hidden (.5x) _ _ _ _ _ _ _ _ _ _ _ _ _ _ _ _ _
 72
    65
 73
     2
 40
0.1875
 49
0.125
 49
-0.0625
  0
LTYPE
  2
AMZIGZAG2
 70
     0
  3
/\/-/\/-/\/-/\/-/\/-/\/
 72
    65
 73
     2
 40
0.4401
 49
0.0001
 49
-0.4400000000000002
  0
LTYPE
  2
ACANSTGB
 70
     0
  3
__ . . __ . .
 72
    65
 73
     6
 40
0.35433070866
 49
0.15748031496
 49
-0.03937007874
 49
0.03937007874
 49
-0.03937007874
 49
0.03937007874
 49
-0.03937007874
  0
LTYPE
  2
ACANSTGL
 70
     0
  3
_ _ _ _ _
 72
    65
 73
     2
 40
0.11811023622
 49
0.07874015748
 49
-0.03937007874
  0
ENDTAB
  0
TABLE
  2
LAYER
 70
     6
  0
LAYER
  2
0
 70
     0
 62
     7
  6
CONTINUOUS
  0
LAYER
  2
AM_0
 70
     0
 62
     7
  6
CONTINUOUS
  0
LAYER
  2
AM_5
 70
     0
 62
     2
  6
CONTINUOUS
  0
LAYER
  2
DEFPOINTS
 70
     0
 62
     7
  6
CONTINUOUS
  0
LAYER
  2
ﾁｭｳｼﾝｾﾝ
 70
     0
 62
     1
  6
GEN7
  0
LAYER
  2
ﾁｭｳｼﾝｾﾝ1
 70
     0
 62
     1
  6
GEN7A
  0
ENDTAB
  0
TABLE
  2
STYLE
 70
     9
  0
STYLE
  2
STANDARD
 70
     0
 40
0.0
 41
0.8299999999999999
 50
0.0
 71
     0
 42
2.5
  3
txt.shx
  4
bigfont.shx
  0
STYLE
  2
ANNOTATIVE
 70
     0
 40
0.0
 41
1.0
 50
0.0
 71
     0
 42
0.2
  3
txt
  4

  0
STYLE
  2

 70
     1
 40
0.0
 41
1.0
 50
0.0
 71
     0
 42
2.5
  3
ltypeshp.shx
  4

  0
STYLE
  2
ACISOTS
 70
     0
 40
1.0
 41
1.0
 50
0.0
 71
     0
 42
2.5
  3
isocp.shx
  4
extfont.shx
  0
STYLE
  2
ACISOGDT
 70
     0
 40
0.0
 41
1.0
 50
0.0
 71
     0
 42
2.5
  3
amgdt.shx
  4

  0
STYLE
  2
ACANSTS
 70
     0
 40
1.0
 41
1.0
 50
0.0
 71
     0
 42
2.5
  3
romans.shx
  4
bigfont.shx
  0
STYLE
  2
ACANSGDT
 70
     0
 40
0.0
 41
1.0
 50
0.0
 71
     0
 42
2.5
  3
amgdt.shx
  4

  0
STYLE
  2
ACJISTS
 70
     0
 40
1.0
 41
1.0
 50
0.0
 71
     0
 42
2.5
  3
isocp.shx
  4
bigfont.shx
  0
STYLE
  2
ACJISGDT
 70
     0
 40
0.0
 41
1.0
 50
0.0
 71
     0
 42
2.5
  3
amgdt.shx
  4

  0
ENDTAB
  0
TABLE
  2
VIEW
 70
     6
  0
VIEW
  2
AM_VIEW1
 70
     0
 40
555.00000000000011
 10
499.2955801104971
 20
832.50000000000011
 41
998.59116022099431
 11
0.0
 21
0.0
 31
1.0
 12
0.0
 22
0.0
 32
0.0
 42
50.0
 43
0.0
 44
0.0
 50
0.0
 71
     0
  0
VIEW
  2
AM_VIEW2
 70
     0
 40
555.00000000000011
 10
1207.704419889501
 20
832.50000000000011
 41
998.59116022099431
 11
0.0
 21
0.0
 31
1.0
 12
0.0
 22
0.0
 32
0.0
 42
50.0
 43
0.0
 44
0.0
 50
0.0
 71
     0
  0
VIEW
  2
AM_VIEW3
 70
     0
 40
555.00000000000011
 10
499.2955801104971
 20
277.49999999999989
 41
998.59116022099431
 11
0.0
 21
0.0
 31
1.0
 12
0.0
 22
0.0
 32
0.0
 42
50.0
 43
0.0
 44
0.0
 50
0.0
 71
     0
  0
VIEW
  2
AM_VIEW4
 70
     0
 40
555.00000000000011
 10
1207.704419889501
 20
277.49999999999989
 41
998.59116022099431
 11
0.0
 21
0.0
 31
1.0
 12
0.0
 22
0.0
 32
0.0
 42
50.0
 43
0.0
 44
0.0
 50
0.0
 71
     0
  0
VIEW
  2
AM_VIEW5
 70
     0
 40
555.00000000000011
 10
853.5
 20
555.00000000000011
 41
998.59116022099431
 11
0.0
 21
0.0
 31
1.0
 12
0.0
 22
0.0
 32
0.0
 42
50.0
 43
0.0
 44
0.0
 50
0.0
 71
     0
  0
VIEW
  2
AM_VIEW6
 70
     0
 40
1109.9889000000001
 10
853.5
 20
555.0
 41
1997.162348618785
 11
0.0
 21
0.0
 31
1.0
 12
0.0
 22
0.0
 32
0.0
 42
50.0
 43
0.0
 44
0.0
 50
0.0
 71
     0
  0
ENDTAB
  0
TABLE
  2
UCS
 70
     0
  0
ENDTAB
  0
TABLE
  2
APPID
 70
    95
  0
APPID
  2
ACAD
 70
     0
  0
APPID
  2
ACADANNOTATIVE
 70
     0
  0
APPID
  2
MCAD_NO_VIS
 70
     0
  0
APPID
  2
ACAD_TEMP_GRAPHIC
 70
     0
  0
APPID
  2
ACATTRIBSERVICES
 70
     0
  0
APPID
  2
GENIUS_GENREC_14
 70
     0
  0
APPID
  2
GENIUS_GENOBJ-N-REC_13
 70
     0
  0
APPID
  2
GENIUS_GENODEF_13
 70
     0
  0
APPID
  2
GENIUS_GENOLIS_13
 70
     0
  0
APPID
  2
GENIUS_GENOBJ-N-TIT_13
 70
     0
  0
APPID
  2
GENIUS_GENOENT_13
 70
     0
  0
APPID
  2
GENIUS_GENTITLE_13
 70
     0
  0
APPID
  2
GENIUS_GENOREF_13
 70
     0
  0
APPID
  2
GENIUS_GENSCREG_15
 70
     0
  0
APPID
  2
GENIUS_GENOBJ-N-SDF_13
 70
     0
  0
APPID
  2
GENIUS_GENFIL_13
 70
     0
  0
APPID
  2
GENIUS_GENOBJ-N-CHA_13
 70
     0
  0
APPID
  2
GENIUS_GENDTOL_13
 70
     0
  0
APPID
  2
GENIUS_GENOBJ-N-FIL_13
 70
     0
  0
APPID
  2
AD_DRAW
 70
     0
  0
APPID
  2
DESIGNERASSEMBLIES
 70
     0
  0
APPID
  2
ASURF_PCURVE_APPNAME
 70
     0
  0
APPID
  2
GENIUS_GE3SECT_13
 70
     0
  0
APPID
  2
GENIUS_GENCFG_13
 70
     0
  0
APPID
  2
GENIUS_GE3CFG0_13
 70
     0
  0
APPID
  2
GENIUS_GENCFG0_13
 70
     0
  0
APPID
  2
GENIUS_GENCFG1_13
 70
     0
  0
APPID
  2
GENIUS_GENCFG2_13
 70
     0
  0
APPID
  2
GENIUS_GENCFG3_13
 70
     0
  0
APPID
  2
GENIUS_GENCFG4_13
 70
     0
  0
APPID
  2
GENIUS_GEVCFG0_13
 70
     0
  0
APPID
  2
GENIUS_GENHINW_13
 70
     0
  0
APPID
  2
GENIUS_FIRSTVISTXT_14
 70
     0
  0
APPID
  2
GENIUS_GENOBJ-N-LEADER_13
 70
     0
  0
APPID
  2
GEV_VCCNULL_SWITCH_OFF
 70
     0
  0
APPID
  2
GENIUS_GEFCFG0_13
 70
     0
  0
APPID
  2
GENIUS_GENZVEED_13
 70
     0
  0
APPID
  2
GENIUS_GENSCREG_13
 70
     0
  0
APPID
  2
GENIUS_DUMCFG0_13
 70
     0
  0
APPID
  2
GEVID936201362
 70
     0
  0
APPID
  2
GEVDC
 70
     0
  0
APPID
  2
GEVCON
 70
     0
  0
APPID
  2
VCC
 70
     0
  0
APPID
  2
GEVPT
 70
     0
  0
APPID
  2
GEVIT
 70
     0
  0
APPID
  2
GENBH
 70
     0
  0
APPID
  2
GEVMK
 70
     0
  0
APPID
  2
GENIUS_GENBH_13
 70
     0
  0
APPID
  2
GENIUS_GENOBJ-NBEHI-BHF_13
 70
     0
  0
APPID
  2
GENIUS_GENOBJ-NBEHI-BHB_13
 70
     0
  0
APPID
  2
GENIUS_GENOBJ-F-DESC_13
 70
     0
  0
APPID
  2
GENIUS_GEFDESC_14
 70
     0
  0
APPID
  2
GENIUS_GENOBJ-F-PART_13
 70
     0
  0
APPID
  2
GENIUS_GEFSTDP_13
 70
     0
  0
APPID
  2
GENIUS_GEFPARTINS_13
 70
     0
  0
APPID
  2
GENIUS_GENTRA_14
 70
     0
  0
APPID
  2
GENIUS_GENINF13_13
 70
     0
  0
APPID
  2
GENIUS_GENOBJ-N-INFOPT_13
 70
     0
  0
APPID
  2
GENIUS_GENOBJ-N-RSSYM_13
 70
     0
  0
APPID
  2
GENIUS_GENSYMENT_13
 70
     0
  0
APPID
  2
GENIUS_GENSCSYM_13
 70
     0
  0
APPID
  2
GENIUS_GEFINFNAM_13
 70
     0
  0
APPID
  2
GENIUS_GENOBJ-N-CEN_13
 70
     0
  0
APPID
  2
GENIUS_GENOBJ-N-CRS_13
 70
     0
  0
APPID
  2
GENIUS_GENOBJ-N-CRC_13
 70
     0
  0
APPID
  2
GENIUS_GENCRC_14
 70
     0
  0
APPID
  2
GEVID942827039
 70
     0
  0
APPID
  2
GEVID942827040
 70
     0
  0
APPID
  2
GEVID942827041
 70
     0
  0
APPID
  2
GENIUS_GENOBJ-F-SCPASSM_13
 70
     0
  0
APPID
  2
GENIUS_GENDIMSH_14
 70
     0
  0
APPID
  2
GEVID942827042
 70
     0
  0
APPID
  2
GEVID946020473
 70
     0
  0
APPID
  2
GEVID946020474
 70
     0
  0
APPID
  2
GEVID946020475
 70
     0
  0
APPID
  2
GENIUS_GENOBJ-N-HTC_13
 70
     0
  0
APPID
  2
GENIUS_GENHATCH_13
 70
     0
  0
APPID
  2
GEVID948854295
 70
     0
  0
APPID
  2
GEVID939402019
 70
     0
  0
APPID
  2
GEVID952919491
 70
     0
  0
APPID
  2
GEVID952919492
 70
     0
  0
APPID
  2
GENIUS_GEFWELD_13
 70
     0
  0
APPID
  2
GENIUS_GENOBJ-F-WELS_13
 70
     0
  0
APPID
  2
GEVID952919493
 70
     0
  0
APPID
  2
GENIUS_GENOBJ-N-RSBK_13
 70
     0
  0
APPID
  2
GENIUS_GENOBJ-N-LIB_13
 70
     0
  0
APPID
  2
GENIUS_GENSCALE_13
 70
     0
  0
APPID
  2
GEVID986376691
 70
     0
  0
APPID
  2
DCO15
 70
     0
  0
APPID
  2
ACAD_DSTYLE_DIMBREAK
 70
     0
  0
APPID
  2
ACAD_DSTYLE_DIMJAG
 70
     0
  0
APPID
  2
ACAD_NAV_VCDISPLAY
 70
     0
  0
APPID
  2
ACADANNOPO
 70
     0
  0
APPID
  2
ACAD_EXEMPT_FROM_CAD_STANDARDS
 70
     0
  0
APPID
  2
ACAD_MLEADERVER
 70
     0
  0
ENDTAB
  0
TABLE
  2
DIMSTYLE
 70
    22
  0
DIMSTYLE
  2
STANDARD
 70
     0
  3

  4

  5

  6

  7

 40
1.0
 41
0.18
 42
0.0625
 43
0.38
 44
0.18
 45
0.0
 46
0.0
 47
0.0
 48
0.0
140
0.18
141
0.09
142
0.0
143
25.399999999999999
144
1.0
145
0.0
146
1.0
147
0.09
 71
     0
 72
     0
 73
     1
 74
     1
 75
     0
 76
     0
 77
     0
 78
     0
170
     0
171
     2
172
     0
173
     0
174
     0
175
     0
176
     0
177
     0
178
     0
  0
DIMSTYLE
  2
ANNOTATIVE
 70
     0
  3

  4

  5

  6

  7

 40
1.0
 41
0.18
 42
0.0625
 43
0.38
 44
0.18
 45
0.0
 46
0.0
 47
0.0
 48
0.0
140
0.18
141
0.09
142
0.0
143
25.399999999999999
144
1.0
145
0.0
146
1.0
147
0.09
 71
     0
 72
     0
 73
     1
 74
     1
 75
     0
 76
     0
 77
     0
 78
     0
170
     0
171
     2
172
     0
173
     0
174
     0
175
     0
176
     0
177
     0
178
     0
  0
DIMSTYLE
  2
AM_ISO
 70
     0
  3

  4
"
  5

  6

  7

 40
1.0
 41
2.5
 42
1.0
 43
8.0
 44
0.6
 45
0.0
 46
0.0
 47
0.1
 48
0.1
140
2.5
141
0.0
142
0.0
143
0.0393701
144
1.0
145
0.0
146
0.71
147
0.8
 71
     0
 72
     0
 73
     0
 74
     0
 75
     0
 76
     0
 77
     1
 78
     8
170
     0
171
     2
172
     1
173
     0
174
     0
175
     0
176
   256
177
   256
178
     4
  0
DIMSTYLE
  2
AM_ISO$3
 70
     0
  3

  4
"
  5

  6

  7

 40
1.0
 41
2.5
 42
1.0
 43
8.0
 44
0.6
 45
0.0
 46
0.0
 47
0.1
 48
0.1
140
2.5
141
0.0
142
0.0
143
0.0393701
144
1.0
145
0.0
146
0.71
147
0.8
 71
     0
 72
     0
 73
     0
 74
     1
 75
     0
 76
     0
 77
     1
 78
     8
170
     0
171
     2
172
     0
173
     0
174
     0
175
     0
176
   256
177
   256
178
     4
  0
DIMSTYLE
  2
AM_ISO$4
 70
     0
  3

  4
"
  5

  6

  7

 40
1.0
 41
2.5
 42
1.0
 43
8.0
 44
0.6
 45
0.0
 46
0.0
 47
0.1
 48
0.1
140
2.5
141
0.0
142
0.0
143
0.0393701
144
1.0
145
0.0
146
0.71
147
0.8
 71
     0
 72
     0
 73
     0
 74
     1
 75
     0
 76
     0
 77
     1
 78
     8
170
     0
171
     2
172
     0
173
     0
174
     0
175
     0
176
   256
177
   256
178
     4
  0
DIMSTYLE
  2
AM_ISO$6
 70
     0
  3

  4
"
  5

  6

  7

 40
1.0
 41
2.5
 42
1.0
 43
8.0
 44
0.6
 45
0.0
 46
0.0
 47
0.1
 48
0.1
140
2.5
141
0.0
142
0.0
143
0.0393701
144
1.0
145
0.0
146
0.71
147
0.8
 71
     0
 72
     0
 73
     0
 74
     0
 75
     0
 76
     0
 77
     0
 78
     8
170
     0
171
     2
172
     1
173
     0
174
     0
175
     0
176
   256
177
   256
178
     4
  0
DIMSTYLE
  2
AM_ISO$7
 70
     0
  3

  4
"
  5

  6

  7

 40
1.0
 41
2.5
 42
1.0
 43
8.0
 44
0.6
 45
0.0
 46
0.0
 47
0.1
 48
0.1
140
2.5
141
0.0
142
0.0
143
0.0393701
144
1.0
145
0.0
146
0.71
147
0.8
 71
     0
 72
     0
 73
     0
 74
     0
 75
     0
 76
     0
 77
     1
 78
     8
170
     0
171
     2
172
     1
173
     0
174
     0
175
     0
176
   256
177
   256
178
     4
  0
DIMSTYLE
  2
AM_ISO$SF
 70
     0
  3

  4
"
  5

  6

  7

 40
1.0
 41
2.5
 42
1.0
 43
10.0
 44
1.0
 45
0.0
 46
0.0
 47
0.1
 48
0.1
140
3.5
141
0.0
142
0.0
143
0.0393701
144
1.0
145
0.0
146
0.71
147
1.5
 71
     0
 72
     0
 73
     0
 74
     0
 75
     1
 76
     1
 77
     1
 78
     8
170
     0
171
     2
172
     1
173
     0
174
     0
175
     0
176
   256
177
   256
178
     2
  0
DIMSTYLE
  2
AM_ISO$SH
 70
     0
  3

  4
"
  5

  6

  7

 40
1.0
 41
2.5
 42
1.0
 43
10.0
 44
1.0
 45
0.0
 46
0.0
 47
0.1
 48
0.1
140
3.5
141
0.0
142
0.0
143
0.0393701
144
2.0
145
0.0
146
0.71
147
1.5
 71
     0
 72
     0
 73
     0
 74
     0
 75
     1
 76
     1
 77
     1
 78
     8
170
     0
171
     2
172
     1
173
     1
174
     0
175
     0
176
   256
177
   256
178
     2
  0
DIMSTYLE
  2
AM_JIS
 70
     0
  3

  4
"
  5

  6

  7

 40
1.0
 41
2.5
 42
1.0
 43
7.0
 44
1.0
 45
0.0
 46
0.0
 47
0.1
 48
0.1000000001
140
2.5
141
0.0
142
0.0
143
0.0393701
144
1.0
145
0.0
146
0.71
147
1.0
 71
     0
 72
     0
 73
     0
 74
     0
 75
     0
 76
     0
 77
     3
 78
     8
170
     0
171
     2
172
     1
173
     0
174
     0
175
     0
176
   256
177
   256
178
     4
  0
DIMSTYLE
  2
AM_JIS$3
 70
     0
  3

  4
"
  5

  6

  7

 40
1.0
 41
2.5
 42
1.0
 43
7.0
 44
1.0
 45
0.0
 46
0.0
 47
0.1
 48
0.1000000001
140
2.5
141
0.0
142
0.0
143
0.0393701
144
1.0
145
0.0
146
0.71
147
1.0
 71
     0
 72
     0
 73
     0
 74
     1
 75
     0
 76
     0
 77
     3
 78
     8
170
     0
171
     2
172
     0
173
     0
174
     0
175
     0
176
   256
177
   256
178
     4
  0
DIMSTYLE
  2
AM_JIS$4
 70
     0
  3

  4
"
  5

  6

  7

 40
1.0
 41
2.5
 42
1.0
 43
7.0
 44
1.0
 45
0.0
 46
0.0
 47
0.1
 48
0.1000000001
140
2.5
141
0.0
142
0.0
143
0.0393701
144
1.0
145
0.0
146
0.71
147
1.0
 71
     0
 72
     0
 73
     0
 74
     0
 75
     0
 76
     0
 77
     3
 78
     8
170
     0
171
     2
172
     0
173
     0
174
     0
175
     0
176
   256
177
   256
178
     4
  0
DIMSTYLE
  2
AM_JIS$6
 70
     0
  3

  4
"
  5

  6

  7

 40
1.0
 41
2.5
 42
1.0
 43
7.0
 44
1.0
 45
0.0
 46
0.0
 47
0.1
 48
0.1000000001
140
2.5
141
0.0
142
0.0
143
0.0393701
144
1.0
145
0.0
146
0.71
147
1.0
 71
     0
 72
     0
 73
     0
 74
     0
 75
     0
 76
     0
 77
     0
 78
     8
170
     0
171
     2
172
     1
173
     0
174
     0
175
     0
176
   256
177
   256
178
     4
  0
DIMSTYLE
  2
AM_JIS$7
 70
     0
  3

  4
"
  5

  6

  7

 40
1.0
 41
2.5
 42
1.0
 43
7.0
 44
1.0
 45
0.0
 46
0.0
 47
0.1
 48
0.1000000001
140
2.5
141
0.0
142
0.0
143
0.0393701
144
1.0
145
0.0
146
0.71
147
1.0
 71
     0
 72
     0
 73
     0
 74
     0
 75
     0
 76
     0
 77
     3
 78
     8
170
     0
171
     2
172
     1
173
     0
174
     0
175
     0
176
   256
177
   256
178
     4
  0
DIMSTYLE
  2
AM_JIS$SF
 70
     0
  3

  4
"
  5

  6

  7

 40
1.0
 41
2.5
 42
1.0
 43
10.0
 44
1.0
 45
0.0
 46
0.0
 47
0.1
 48
0.1
140
3.5
141
0.0
142
0.0
143
0.0393701
144
1.0
145
0.0
146
0.71
147
1.5
 71
     0
 72
     0
 73
     0
 74
     0
 75
     1
 76
     1
 77
     3
 78
     8
170
     0
171
     2
172
     1
173
     0
174
     0
175
     0
176
   256
177
   256
178
     4
  0
DIMSTYLE
  2
AM_JIS$SH
 70
     0
  3

  4
"
  5

  6

  7

 40
1.0
 41
2.5
 42
1.0
 43
10.0
 44
1.0
 45
0.0
 46
0.0
 47
0.1
 48
0.1
140
3.5
141
0.0
142
0.0
143
0.0393701
144
1.0
145
0.0
146
0.71
147
1.5
 71
     0
 72
     0
 73
     0
 74
     0
 75
     1
 76
     0
 77
     3
 78
     8
170
     0
171
     2
172
     1
173
     1
174
     0
175
     0
176
   256
177
   256
178
     4
  0
DIMSTYLE
  2
AM_ANSI
 70
     0
  3

  4
mm
  5

  6

  7

 40
1.0
 41
0.1
 42
0.05
 43
0.5
 44
0.1
 45
0.0
 46
0.0
 47
0.1
 48
0.1
140
0.12
141
0.0
142
0.0
143
25.399999999999999
144
1.0
145
0.0
146
0.71
147
0.06
 71
     0
 72
     0
 73
     1
 74
     1
 75
     0
 76
     0
 77
     0
 78
     7
170
     0
171
     2
172
     0
173
     0
174
     0
175
     0
176
   256
177
   256
178
     2
  0
DIMSTYLE
  2
AM_ANSI$3
 70
     0
  3

  4
mm
  5

  6

  7

 40
1.0
 41
0.1
 42
0.05
 43
0.5
 44
0.1
 45
0.0
 46
0.0
 47
0.1
 48
0.1
140
0.12
141
0.0
142
0.0
143
25.399999999999999
144
1.0
145
0.0
146
0.71
147
0.06
 71
     0
 72
     0
 73
     1
 74
     1
 75
     0
 76
     0
 77
     0
 78
     7
170
     0
171
     2
172
     0
173
     0
174
     0
175
     0
176
   256
177
   256
178
     2
  0
DIMSTYLE
  2
AM_ANSI$4
 70
     0
  3

  4
mm
  5

  6

  7

 40
1.0
 41
0.1
 42
0.05
 43
0.5
 44
0.1
 45
0.0
 46
0.0
 47
0.1
 48
0.1
140
0.12
141
0.0
142
0.0
143
25.399999999999999
144
1.0
145
0.0
146
0.71
147
0.06
 71
     0
 72
     0
 73
     1
 74
     1
 75
     0
 76
     0
 77
     0
 78
     7
170
     0
171
     2
172
     0
173
     0
174
     0
175
     0
176
   256
177
   256
178
     2
  0
DIMSTYLE
  2
AM_ANSI$7
 70
     0
  3

  4
mm
  5

  6

  7

 40
1.0
 41
0.1
 42
0.05
 43
0.5
 44
0.1
 45
0.0
 46
0.0
 47
0.1
 48
0.1
140
0.24
141
0.0
142
0.0
143
25.399999999999999
144
1.0
145
0.0
146
0.71
147
0.06
 71
     0
 72
     0
 73
     1
 74
     1
 75
     0
 76
     0
 77
     0
 78
     7
170
     0
171
     2
172
     0
173
     0
174
     0
175
     0
176
   256
177
   256
178
     2
  0
DIMSTYLE
  2
AM_ANSI$SF
 70
     0
  3

  4
mm
  5

  6

  7

 40
1.0
 41
0.1
 42
0.05
 43
0.5
 44
0.1
 45
0.0
 46
0.0
 47
0.1
 48
0.1
140
0.12
141
0.0
142
0.0
143
25.399999999999999
144
1.0
145
0.0
146
0.71
147
0.06
 71
     0
 72
     0
 73
     1
 74
     1
 75
     1
 76
     1
 77
     0
 78
     7
170
     0
171
     2
172
     0
173
     0
174
     0
175
     0
176
   256
177
   256
178
     2
  0
DIMSTYLE
  2
AM_ANSI$SH
 70
     0
  3

  4
mm
  5

  6

  7

 40
1.0
 41
0.1
 42
0.05
 43
0.5
 44
0.1
 45
0.0
 46
0.0
 47
0.1
 48
0.1
140
0.12
141
0.0
142
0.0
143
25.399999999999999
144
1.0
145
0.0
146
0.71
147
0.06
 71
     0
 72
     0
 73
     1
 74
     1
 75
     1
 76
     1
 77
     0
 78
     7
170
     0
171
     2
172
     0
173
     1
174
     0
175
     0
176
   256
177
   256
178
     2
  0
ENDTAB
  0
ENDSEC
  0
SECTION
  2
BLOCKS
  0
BLOCK
  8
0
  2
$MODEL_SPACE
 70
     0
 10
0.0
 20
0.0
 30
0.0
  3
$MODEL_SPACE
  1

  0
ENDBLK
  5
30F6
  8
0
  0
BLOCK
 67
     1
  8
0
  2
$PAPER_SPACE
 70
     0
 10
0.0
 20
0.0
 30
0.0
  3
$PAPER_SPACE
  1

  0
ENDBLK
  5
30F2
 67
     1
  8
0
  0
BLOCK
  8
0
  2
GENAXEH
 70
     0
 10
0.0
 20
0.0
 30
0.0
  3
GENAXEH
  1

  0
LINE
  5
2E5F
  8
0
 10
-1.0
 20
0.0
 30
0.0
 11
1.0
 21
0.0
 31
0.0
  0
ENDBLK
  5
2E60
  8
0
  0
BLOCK
  8
0
  2
_OPEN30
 70
     0
 10
0.0
 20
0.0
 30
0.0
  3
_OPEN30
  1

  0
LINE
  5
2E63
  8
0
 62
     0
 10
-1.0
 20
0.26794919
 30
0.0
 11
0.0
 21
0.0
 31
0.0
  0
LINE
  5
2E64
  8
0
 62
     0
 10
0.0
 20
0.0
 30
0.0
 11
-1.0
 21
-0.26794919
 31
0.0
  0
LINE
  5
2E65
  8
0
 62
     0
 10
0.0
 20
0.0
 30
0.0
 11
-1.0
 21
0.0
 31
0.0
  0
ENDBLK
  5
2E66
  8
0
  0
BLOCK
  8
0
  2
_NONE
 70
     0
 10
0.0
 20
0.0
 30
0.0
  3
_NONE
  1

  0
ENDBLK
  5
2E69
  8
0
  0
BLOCK
  8
0
  2
_ACMFILLEDHALF
 70
     0
 10
0.0
 20
0.0
 30
0.0
  3
_ACMFILLEDHALF
  1

  0
TRACE
  5
31EC
  8
AM_0
 62
     0
 10
-0.8
 20
0.0
 30
0.0
 11
-1.0
 21
0.166666666
 31
0.0
 12
0.0
 22
0.0
 32
0.0
 13
0.0
 23
0.0
 33
0.0
  0
LINE
  5
31ED
  8
AM_0
 62
     0
 10
-1.0
 20
0.0
 30
0.0
 11
-0.8
 21
0.0
 31
0.0
  0
ENDBLK
  5
31EB
  8
0
  0
ENDSEC
  0
SECTION
  2
ENTITIES
  0
LINE
  5
2E6B
  8
AM_0
 10
784.06427487333394
 20
1032.6695473048389
 30
0.0
 11
865.06427487333394
 21
1032.6695473048389
 31
0.0
  0
LINE
  5
2E6C
  8
AM_0
 10
784.06427487333394
 20
1050.669547304838
 30
0.0
 11
865.06427487333394
 21
1050.669547304838
 31
0.0
  0
LINE
  5
2E6D
  8
AM_0
 10
760.06427487333394
 20
1071.669547304838
 30
0.0
 11
865.06427487333394
 21
1071.669547304838
 31
0.0
  0
LINE
  5
2E6E
  8
AM_0
 10
760.06427487333394
 20
1011.66954730484
 30
0.0
 11
865.06427487333394
 21
1011.66954730484
 31
0.0
  0
LINE
  5
2E6F
  8
ﾁｭｳｼﾝｾﾝ
 10
304.1470875580888
 20
1041.6695473048401
 30
0.0
 11
875.34045487333424
 21
1041.6695473048401
 31
0.0
  0
POLYLINE
  5
2E70
  8
AM_0
 66
     1
 10
0.0
 20
0.0
 30
0.0
  0
VERTEX
  5
2E71
  8
AM_0
 10
704.44777487333386
 20
1136.2587073048401
 30
0.0
 42
0.034282229
  0
VERTEX
  5
2E72
  8
AM_0
 10
695.40347487333418
 20
1073.41245730484
 30
0.0
 42
0.072426646
  0
VERTEX
  5
2E73
  8
AM_0
 10
704.44777487333386
 20
947.08036730483991
 30
0.0
  0
SEQEND
  5
2E74
  8
AM_0
  0
LINE
  5
2E75
  8
AM_0
 10
755.06427487333394
 20
886.66954730484031
 30
0.0
 11
755.06427487333394
 21
1196.66950730484
 31
0.0
  0
LINE
  5
2E76
  8
AM_0
 10
725.06427487333394
 20
1223.66950730484
 30
0.0
 11
725.06427487333394
 21
859.66954730484042
 31
0.0
  0
LINE
  5
2E77
  8
AM_0
 10
734.06427487333394
 20
1188.228407304839
 30
0.0
 11
734.06427487333394
 21
895.09959730484013
 31
0.0
  0
LINE
  5
2E78
  8
AM_0
 10
750.06427487333394
 20
1226.66950730484
 30
0.0
 11
750.06427487333394
 21
856.66954730484053
 31
0.0
  0
LINE
  5
2E79
  8
AM_0
 10
760.06427487333394
 20
1074.1695473048389
 30
0.0
 11
760.06427487333394
 21
1009.16954730484
 31
0.0
  0
LINE
  5
2E7A
  8
AM_0
 10
396.5643148733339
 20
955.66954730484065
 30
0.0
 11
396.5643148733339
 21
1127.669547304841
 31
0.0
  0
LINE
  5
2E7B
  8
AM_0
 10
430.06431487333413
 20
1135.6134073048399
 30
0.0
 11
430.06431487333413
 21
947.72569730484054
 31
0.0
  0
LINE
  5
2E7C
  8
AM_0
 10
459.06431487333413
 20
1159.66950730484
 30
0.0
 11
459.06431487333413
 21
923.66954730484042
 31
0.0
  0
LINE
  5
2E7D
  8
AM_0
 10
536.56421487333375
 20
916.73814730484037
 30
0.0
 11
536.56421487333375
 21
1166.600907304839
 31
0.0
  0
LINE
  5
2E7E
  8
AM_0
 10
556.56421487333375
 20
889.47160730484029
 30
0.0
 11
556.56421487333375
 21
1036.6695473048389
 31
0.0
  0
LINE
  5
2E7F
  8
AM_0
 10
477.06431487333401
 20
1161.66950730484
 30
0.0
 11
477.06431487333401
 21
921.66954730484031
 31
0.0
  0
LINE
  5
2E80
  8
AM_0
 10
490.06421487333392
 20
1159.66950730484
 30
0.0
 11
490.06421487333392
 21
923.66954730484042
 31
0.0
  0
LINE
  5
2E81
  8
AM_0
 10
611.56427487333394
 20
1200.61660730484
 30
0.0
 11
611.56427487333394
 21
882.72252730484036
 31
0.0
  0
LINE
  5
2E82
  8
AM_0
 10
611.56427487333394
 20
882.72252730484036
 30
0.0
 11
561.38971487333401
 21
884.47465730484043
 31
0.0
  0
LINE
  5
2E83
  8
AM_0
 10
490.06421487333392
 20
954.99467730484025
 30
0.0
 11
536.56421487333375
 21
954.99467730484025
 31
0.0
  0
LINE
  5
2E84
  8
AM_0
 10
490.06421487333392
 20
970.73674730484004
 30
0.0
 11
536.56421487333375
 21
970.73674730484004
 31
0.0
  0
LINE
  5
2E85
  8
AM_0
 10
492.0643148733339
 20
929.66954730484031
 30
0.0
 11
531.56421487333375
 21
929.66954730484031
 31
0.0
  0
LINE
  5
2E86
  8
AM_0
 10
433.35421487333377
 20
943.02727730483991
 30
0.0
 11
455.77431487333388
 21
934.86699730484031
 31
0.0
  0
LINE
  5
2E87
  8
AM_0
 10
425.23871487333372
 20
954.3080973048402
 30
0.0
 11
398.56441487333399
 21
955.23955730484045
 31
0.0
  0
LINE
  5
2E88
  8
AM_0
 10
425.23871487333372
 20
956.66820730484039
 30
0.0
 11
396.5643148733339
 21
957.66954730484042
 31
0.0
  0
LINE
  5
2E89
  8
AM_0
 10
398.56441487333399
 20
957.59971730484051
 30
0.0
 11
398.56441487333399
 21
955.23961730484029
 31
0.0
  0
ARC
  5
2E8A
  8
AM_0
 10
435.06431487333413
 20
947.72569730484054
 30
0.0
 40
5.0
 50
179.9999899999988
 51
250.00000000000239
  0
ARC
  5
2E8B
  8
AM_0
 10
425.06431487333379
 20
951.67125730484054
 30
0.0
 40
5.0
 50
0.0
 51
88.000000000002785
  0
ARC
  5
2E8C
  8
AM_0
 10
425.06431487333379
 20
949.31114730483989
 30
0.0
 40
5.0
 50
0.0
 51
88.000000000002785
  0
LINE
  5
2E8D
  8
AM_0
 10
461.0643148733339
 20
921.66954730484031
 30
0.0
 11
488.0643148733339
 21
921.66954730484031
 31
0.0
  0
ARC
  5
2E8E
  8
AM_0
 10
454.06431487333379
 20
930.16850730484032
 30
0.0
 40
5.0
 50
0.0
 51
70.000000000002416
  0
ARC
  5
2E8F
  8
AM_0
 10
461.0643148733339
 20
923.66954730484042
 30
0.0
 40
2.0
 50
179.9999899999988
 51
270.0
  0
LINE
  5
2E90
  8
AM_0
 10
477.06431487333401
 20
941.94230730483991
 30
0.0
 11
490.06421487333392
 21
941.94230730483991
 31
0.0
  0
ARC
  5
2E91
  8
AM_0
 10
492.0643148733339
 20
927.66954730484042
 30
0.0
 40
2.0
 50
90.00000299999769
 51
180.00001000000091
  0
ARC
  5
2E92
  8
AM_0
 10
488.0643148733339
 20
923.66954730484042
 30
0.0
 40
2.0
 50
270.0
 51
0.0
  0
LINE
  5
2E93
  8
AM_0
 10
477.06431487333401
 20
957.49864730484035
 30
0.0
 11
490.06421487333392
 21
957.49864730484035
 31
0.0
  0
LINE
  5
2E94
  8
AM_0
 10
477.06431487333401
 20
965.6728373048403
 30
0.0
 11
490.06421487333392
 21
965.6728373048403
 31
0.0
  0
ARC
  5
2E95
  8
AM_0
 10
551.56421487333398
 20
906.04613730483993
 30
0.0
 40
5.0
 50
0.0
 51
86.16916099999878
  0
ARC
  5
2E96
  8
AM_0
 10
541.56421487333375
 20
916.73814730484037
 30
0.0
 40
5.0
 50
180.00001000000091
 51
266.16915999999719
  0
LINE
  5
2E97
  8
AM_0
 10
551.89825487333405
 20
911.03496730484005
 30
0.0
 11
541.23023487333398
 21
911.74931730484002
 31
0.0
  0
LINE
  5
2E98
  8
AM_0
 10
561.56421487333375
 20
894.5795173048399
 30
0.0
 11
587.56427487333394
 21
894.5795173048399
 31
0.0
  0
LINE
  5
2E99
  8
AM_0
 10
561.56421487333375
 20
905.36992730484053
 30
0.0
 11
587.56427487333394
 21
905.36992730484053
 31
0.0
  0
ARC
  5
2E9A
  8
AM_0
 10
561.56421487333375
 20
889.57951730484012
 30
0.0
 40
5.0
 50
90.00000299999769
 51
180.00001000000091
  0
ARC
  5
2E9B
  8
AM_0
 10
561.56421487333375
 20
889.47160730484029
 30
0.0
 40
5.0
 50
180.00001000000091
 51
268.00000999999861
  0
ARC
  5
2E9C
  8
AM_0
 10
561.56421487333375
 20
910.36992730484042
 30
0.0
 40
5.0
 50
180.00001000000091
 51
270.0
  0
LINE
  5
2E9D
  8
AM_0
 10
589.56427487333394
 20
896.57951730484024
 30
0.0
 11
589.56427487333394
 21
903.3699273048403
 31
0.0
  0
ARC
  5
2E9E
  8
AM_0
 10
587.56427487333394
 20
896.57951730484024
 30
0.0
 40
2.0
 50
270.0
 51
0.0
  0
ARC
  5
2E9F
  8
AM_0
 10
587.56427487333394
 20
903.3699273048403
 30
0.0
 40
2.0
 50
0.0
 51
90.00000299999769
  0
ARC
  5
2EA0
  8
AM_0
 10
531.56421487333375
 20
924.66954730484042
 30
0.0
 40
5.0
 50
0.0
 51
90.00000299999769
  0
LINE
  5
2EA1
  8
AM_0
 10
589.56427487333394
 20
948.72539730484004
 30
0.0
 11
589.56427487333394
 21
990.64097730484025
 31
0.0
  0
LINE
  5
2EA2
  8
AM_0
 10
561.56421487333375
 20
946.72539730483982
 30
0.0
 11
587.56427487333394
 21
946.72539730483982
 31
0.0
  0
ARC
  5
2EA3
  8
AM_0
 10
561.56421487333375
 20
941.72539730483993
 30
0.0
 40
5.0
 50
90.00000299999769
 51
180.00001000000091
  0
ARC
  5
2EA4
  8
AM_0
 10
587.56427487333394
 20
948.72539730484004
 30
0.0
 40
2.0
 50
270.0
 51
0.0
  0
LINE
  5
2EA5
  8
AM_0
 10
561.56421487333375
 20
992.64097730483991
 30
0.0
 11
587.56427487333394
 21
992.64097730483991
 31
0.0
  0
ARC
  5
2EA6
  8
AM_0
 10
561.56421487333375
 20
997.64097730483979
 30
0.0
 40
5.0
 50
180.00001000000091
 51
270.0
  0
ARC
  5
2EA7
  8
AM_0
 10
587.56427487333394
 20
990.64097730484025
 30
0.0
 40
2.0
 50
0.0
 51
90.00000299999769
  0
POLYLINE
  5
2EA8
  8
AM_0
 66
     1
 10
0.0
 20
0.0
 30
0.0
  0
VERTEX
  5
2EA9
  8
AM_0
 10
715.23758487333396
 20
905.5752373048399
 30
0.0
 42
0.0050438079
  0
VERTEX
  5
2EAA
  8
AM_0
 10
718.31959487333415
 20
895.87484730484005
 30
0.0
 42
0.0050105797
  0
VERTEX
  5
2EAB
  8
AM_0
 10
721.59601487333418
 20
886.2383873048401
 30
0.0
 42
0.0049830203
  0
VERTEX
  5
2EAC
  8
AM_0
 10
725.06427487333394
 20
876.66954730484042
 30
0.0
  0
SEQEND
  5
2EAD
  8
AM_0
  0
LINE
  5
2EAE
  8
AM_0
 10
725.06433487333425
 20
931.76274730484033
 30
0.0
 11
702.88648487333398
 21
948.24040730484035
 31
0.0
  0
LINE
  5
2EAF
  8
AM_0
 10
722.69641487333422
 20
912.92241730483988
 30
0.0
 11
667.75940487333401
 21
946.93889730484034
 31
0.0
  0
LINE
  5
2EB0
  8
AM_0
 10
722.69647487333373
 20
900.95689730484037
 30
0.0
 11
666.43207487333393
 21
935.79527730483994
 31
0.0
  0
LINE
  5
2EB1
  8
AM_0
 10
720.23877487333402
 20
878.92747730484041
 30
0.0
 11
611.56427487333394
 21
882.72246730484028
 31
0.0
  0
LINE
  5
2EB2
  8
AM_0
 10
669.06427487333394
 20
949.22691730483984
 30
0.0
 11
699.90454487333398
 21
949.22691730483984
 31
0.0
  0
LINE
  5
2EB3
  8
AM_0
 10
664.06427487333394
 20
940.04637730483978
 30
0.0
 11
664.06427487333394
 21
944.2269173048403
 31
0.0
  0
ARC
  5
2EB4
  8
AM_0
 10
669.06427487333394
 20
940.04637730483978
 30
0.0
 40
5.0
 50
179.9999899999988
 51
238.2346499999997
  0
ARC
  5
2EB5
  8
AM_0
 10
669.06427487333394
 20
944.2269173048403
 30
0.0
 40
5.0
 50
90.00000299999769
 51
180.00001000000091
  0
ARC
  5
2EB6
  8
AM_0
 10
699.90454487333398
 20
944.2269173048403
 30
0.0
 40
5.0
 50
53.388504999997892
 51
90.00000299999769
  0
ARC
  5
2EB7
  8
AM_0
 10
720.06427487333394
 20
873.93059730484038
 30
0.0
 40
5.0
 50
0.0
 51
88.000000000002785
  0
LINE
  5
2EB8
  8
AM_0
 10
728.06427487333394
 20
856.66948730484035
 30
0.0
 11
750.06427487333394
 21
856.66948730484035
 31
0.0
  0
ARC
  5
2EB9
  8
AM_0
 10
728.06427487333394
 20
859.66954730484042
 30
0.0
 40
3.0
 50
179.9999899999988
 51
270.0
  0
ARC
  5
2EBA
  8
AM_0
 10
720.06427487333394
 20
896.70592730484043
 30
0.0
 40
5.0
 50
0.0
 51
58.234630000004231
  0
LINE
  5
2EBB
  8
AM_0
 10
727.06427487333394
 20
893.11064730484031
 30
0.0
 11
732.06427487333394
 21
893.11064730484031
 31
0.0
  0
ARC
  5
2EBC
  8
AM_0
 10
727.06427487333394
 20
891.11064730484043
 30
0.0
 40
2.0
 50
90.00000299999769
 51
180.00001000000091
  0
ARC
  5
2EBD
  8
AM_0
 10
732.06427487333394
 20
895.11064730484054
 30
0.0
 40
2.0
 50
270.0
 51
0.0
  0
LINE
  5
2EBE
  8
AM_0
 10
750.06427487333394
 20
886.66954730484031
 30
0.0
 11
755.06427487333394
 21
886.66954730484031
 31
0.0
  0
LINE
  5
2EBF
  8
AM_0
 10
725.06427487333394
 20
955.39818730484035
 30
0.0
 11
732.06427487333394
 21
955.39818730484035
 31
0.0
  0
ARC
  5
2EC0
  8
AM_0
 10
732.06427487333394
 20
957.39818730484035
 30
0.0
 40
2.0
 50
270.0
 51
0.0
  0
LINE
  5
2EC1
  8
AM_0
 10
755.06427487333394
 20
1009.16954730484
 30
0.0
 11
760.06427487333394
 21
1009.16954730484
 31
0.0
  0
LINE
  5
2EC2
  8
AM_0
 10
611.56427487333394
 20
1200.61660730484
 30
0.0
 11
561.38971487333401
 21
1198.8645073048399
 31
0.0
  0
ARC
  5
2EC3
  8
AM_0
 10
561.56421487333375
 20
1193.759507304839
 30
0.0
 40
5.0
 50
180.00001000000091
 51
270.0
  0
LINE
  5
2EC4
  8
AM_0
 10
556.56421487333375
 20
1046.6695473048389
 30
0.0
 11
556.56421487333375
 21
1193.867407304838
 31
0.0
  0
LINE
  5
2EC5
  8
AM_0
 10
490.06421487333392
 20
1128.344507304839
 30
0.0
 11
536.56421487333375
 21
1128.344507304839
 31
0.0
  0
LINE
  5
2EC6
  8
AM_0
 10
490.06421487333392
 20
1112.6023073048391
 30
0.0
 11
536.56421487333375
 21
1112.6023073048391
 31
0.0
  0
LINE
  5
2EC7
  8
AM_0
 10
492.0643148733339
 20
1153.66950730484
 30
0.0
 11
531.56421487333375
 21
1153.66950730484
 31
0.0
  0
ARC
  5
2EC8
  8
AM_0
 10
425.06431487333379
 20
1058.56376730484
 30
0.0
 40
5.0
 50
271.9999999999971
 51
0.0
  0
LINE
  5
2EC9
  8
AM_0
 10
425.23871487333372
 20
1050.10301730484
 30
0.0
 11
398.56441487333399
 21
1049.17155730484
 31
0.0
  0
LINE
  5
2ECA
  8
AM_0
 10
425.23871487333372
 20
1053.5668273048391
 30
0.0
 11
398.5643148733339
 21
1052.6353073048399
 31
0.0
  0
LINE
  5
2ECB
  8
AM_0
 10
425.23871487333372
 20
1029.77232730484
 30
0.0
 11
398.5643148733339
 21
1030.70378730484
 31
0.0
  0
LINE
  5
2ECC
  8
AM_0
 10
425.23881487333398
 20
1033.236017304838
 30
0.0
 11
398.56441487333399
 21
1034.16752730484
 31
0.0
  0
LINE
  5
2ECD
  8
AM_0
 10
398.56441487333399
 20
1030.70378730484
 30
0.0
 11
398.56441487333399
 21
1052.6353073048399
 31
0.0
  0
ARC
  5
2ECE
  8
AM_0
 10
425.06431487333379
 20
1028.239067304839
 30
0.0
 40
5.0
 50
0.0
 51
88.000000000002785
  0
ARC
  5
2ECF
  8
AM_0
 10
425.06431487333379
 20
1024.77537730484
 30
0.0
 40
5.0
 50
0.0
 51
88.000000000002785
  0
ARC
  5
2ED0
  8
AM_0
 10
425.06431487333379
 20
1055.100027304838
 30
0.0
 40
5.0
 50
271.9999999999971
 51
0.0
  0
LINE
  5
2ED1
  8
AM_0
 10
433.35411487333391
 20
1140.3119073048399
 30
0.0
 11
455.77431487333388
 21
1148.472207304839
 31
0.0
  0
LINE
  5
2ED2
  8
AM_0
 10
425.23871487333372
 20
1129.031007304839
 30
0.0
 11
398.5643148733339
 21
1128.09950730484
 31
0.0
  0
LINE
  5
2ED3
  8
AM_0
 10
425.23871487333372
 20
1126.6709073048389
 30
0.0
 11
396.5643148733339
 21
1125.66950730484
 31
0.0
  0
LINE
  5
2ED4
  8
AM_0
 10
398.56441487333399
 20
1125.739407304839
 30
0.0
 11
398.56441487333399
 21
1128.09950730484
 31
0.0
  0
ARC
  5
2ED5
  8
AM_0
 10
425.06431487333379
 20
1131.667807304839
 30
0.0
 40
5.0
 50
271.9999999999971
 51
0.0
  0
ARC
  5
2ED6
  8
AM_0
 10
425.06431487333379
 20
1134.02790730484
 30
0.0
 40
5.0
 50
271.9999999999971
 51
0.0
  0
ARC
  5
2ED7
  8
AM_0
 10
435.06431487333413
 20
1135.6134073048399
 30
0.0
 40
5.0
 50
109.9999999999974
 51
180.00001000000091
  0
LINE
  5
2ED8
  8
AM_0
 10
477.06431487333401
 20
1117.666107304839
 30
0.0
 11
490.06421487333392
 21
1117.666107304839
 31
0.0
  0
LINE
  5
2ED9
  8
AM_0
 10
477.06431487333401
 20
1125.840307304838
 30
0.0
 11
490.06421487333392
 21
1125.840307304838
 31
0.0
  0
LINE
  5
2EDA
  8
AM_0
 10
477.06431487333401
 20
1141.39670730484
 30
0.0
 11
490.06421487333392
 21
1141.39670730484
 31
0.0
  0
LINE
  5
2EDB
  8
AM_0
 10
461.0643148733339
 20
1161.66950730484
 30
0.0
 11
488.0643148733339
 21
1161.66950730484
 31
0.0
  0
ARC
  5
2EDC
  8
AM_0
 10
454.06431487333379
 20
1153.1706073048399
 30
0.0
 40
5.0
 50
289.99999999999761
 51
0.0
  0
ARC
  5
2EDD
  8
AM_0
 10
461.0643148733339
 20
1159.66950730484
 30
0.0
 40
2.0
 50
90.00000299999769
 51
180.00001000000091
  0
ARC
  5
2EDE
  8
AM_0
 10
492.0643148733339
 20
1155.66950730484
 30
0.0
 40
2.0
 50
179.9999899999988
 51
270.0
  0
ARC
  5
2EDF
  8
AM_0
 10
488.0643148733339
 20
1159.66950730484
 30
0.0
 40
2.0
 50
0.0
 51
90.00000299999769
  0
LINE
  5
2EE0
  8
AM_0
 10
589.56427487333394
 20
1134.613807304838
 30
0.0
 11
589.56427487333394
 21
1092.698107304838
 31
0.0
  0
LINE
  5
2EE1
  8
AM_0
 10
551.56427487333394
 20
1046.6695473048389
 30
0.0
 11
591.56427487333394
 21
1046.6695473048389
 31
0.0
  0
LINE
  5
2EE2
  8
AM_0
 10
551.56427487333394
 20
1036.6695473048389
 30
0.0
 11
591.56427487333394
 21
1036.6695473048389
 31
0.0
  0
ARC
  5
2EE3
  8
AM_0
 10
551.56427487333394
 20
1041.6695473048401
 30
0.0
 40
5.0
 50
90.00000299999769
 51
270.0
  0
ARC
  5
2EE4
  8
AM_0
 10
571.56427487333394
 20
1041.6695473048401
 30
0.0
 40
12.5
 50
203.5781799999973
 51
336.42183000000068
  0
ARC
  5
2EE5
  8
AM_0
 10
571.56427487333394
 20
1041.6695473048401
 30
0.0
 40
12.5
 50
23.578179999997531
 51
156.42182000000241
  0
ARC
  5
2EE6
  8
AM_0
 10
591.56427487333394
 20
1041.6695473048401
 30
0.0
 40
5.0
 50
270.0
 51
90.00000299999769
  0
LINE
  5
2EE7
  8
AM_0
 10
561.56421487333375
 20
1090.698107304838
 30
0.0
 11
587.56427487333394
 21
1090.698107304838
 31
0.0
  0
ARC
  5
2EE8
  8
AM_0
 10
561.56421487333375
 20
1085.698107304838
 30
0.0
 40
5.0
 50
90.00000299999769
 51
180.00001000000091
  0
ARC
  5
2EE9
  8
AM_0
 10
587.56427487333394
 20
1092.698107304838
 30
0.0
 40
2.0
 50
270.0
 51
0.0
  0
ARC
  5
2EEA
  8
AM_0
 10
551.56421487333398
 20
1177.293007304839
 30
0.0
 40
5.0
 50
273.83084000000281
 51
0.0
  0
ARC
  5
2EEB
  8
AM_0
 10
541.56421487333375
 20
1166.600907304839
 30
0.0
 40
5.0
 50
93.830836999998056
 51
180.00001000000091
  0
ARC
  5
2EEC
  8
AM_0
 10
531.56421487333375
 20
1158.66950730484
 30
0.0
 40
5.0
 50
270.0
 51
0.0
  0
LINE
  5
2EED
  8
AM_0
 10
551.89832487333399
 20
1172.30410730484
 30
0.0
 11
541.23016487333405
 21
1171.58970730484
 31
0.0
  0
LINE
  5
2EEE
  8
AM_0
 10
561.56421487333375
 20
1136.6138073048389
 30
0.0
 11
587.56427487333394
 21
1136.6138073048389
 31
0.0
  0
ARC
  5
2EEF
  8
AM_0
 10
561.56421487333375
 20
1141.6138073048401
 30
0.0
 40
5.0
 50
180.00001000000091
 51
270.0
  0
ARC
  5
2EF0
  8
AM_0
 10
587.56427487333394
 20
1134.613807304838
 30
0.0
 40
2.0
 50
0.0
 51
90.00000299999769
  0
LINE
  5
2EF1
  8
AM_0
 10
561.56421487333375
 20
1177.96910730484
 30
0.0
 11
587.56427487333394
 21
1177.96910730484
 31
0.0
  0
LINE
  5
2EF2
  8
AM_0
 10
561.56421487333375
 20
1188.759507304839
 30
0.0
 11
587.56427487333394
 21
1188.759507304839
 31
0.0
  0
ARC
  5
2EF3
  8
AM_0
 10
561.56421487333375
 20
1172.96910730484
 30
0.0
 40
5.0
 50
90.00000299999769
 51
180.00001000000091
  0
ARC
  5
2EF4
  8
AM_0
 10
587.56427487333394
 20
1186.7595073048401
 30
0.0
 40
2.0
 50
0.0
 51
90.00000299999769
  0
ARC
  5
2EF5
  8
AM_0
 10
587.56427487333394
 20
1179.96910730484
 30
0.0
 40
2.0
 50
270.0
 51
0.0
  0
LINE
  5
2EF6
  8
AM_0
 10
589.56427487333394
 20
1186.7595073048401
 30
0.0
 11
589.56427487333394
 21
1179.96910730484
 31
0.0
  0
ARC
  5
2EF7
  8
AM_0
 10
561.56421487333375
 20
1193.867407304838
 30
0.0
 40
5.0
 50
91.999998000000545
 51
180.00001000000091
  0
POLYLINE
  5
2EF8
  8
AM_0
 66
     1
 10
0.0
 20
0.0
 30
0.0
  0
VERTEX
  5
2EF9
  8
AM_0
 10
725.06427487333394
 20
1206.66950730484
 30
0.0
  0
VERTEX
  5
2EFA
  8
AM_0
 10
715.23763487333417
 20
1177.764007304839
 30
0.0
 42
-1.0
  0
SEQEND
  5
2EFB
  8
AM_0
  0
ARC
  5
2EFC
  8
AM_0
 10
727.06427487333394
 20
1192.2284073048399
 30
0.0
 40
2.0
 50
179.9999899999988
 51
270.0
  0
LINE
  5
2EFD
  8
AM_0
 10
725.06433487333425
 20
1151.576307304839
 30
0.0
 11
702.88648487333398
 21
1135.09860730484
 31
0.0
  0
LINE
  5
2EFE
  8
AM_0
 10
722.69641487333422
 20
1170.4167073048391
 30
0.0
 11
667.75940487333401
 21
1136.40030730484
 31
0.0
  0
LINE
  5
2EFF
  8
AM_0
 10
722.69653487333414
 20
1182.3821073048391
 30
0.0
 11
666.43207487333393
 21
1147.5438073048399
 31
0.0
  0
ARC
  5
2F00
  8
AM_0
 10
669.06427487333394
 20
1143.29270730484
 30
0.0
 40
5.0
 50
121.7653600000025
 51
180.00001000000091
  0
LINE
  5
2F01
  8
AM_0
 10
669.06427487333394
 20
1134.1122073048391
 30
0.0
 11
699.90454487333398
 21
1134.1122073048391
 31
0.0
  0
ARC
  5
2F02
  8
AM_0
 10
669.06427487333394
 20
1139.11220730484
 30
0.0
 40
5.0
 50
179.9999899999988
 51
270.0
  0
LINE
  5
2F03
  8
AM_0
 10
664.06427487333394
 20
1143.29270730484
 30
0.0
 11
664.06427487333394
 21
1139.11220730484
 31
0.0
  0
ARC
  5
2F04
  8
AM_0
 10
699.90454487333398
 20
1139.11220730484
 30
0.0
 40
5.0
 50
270.0
 51
306.61150000000112
  0
LINE
  5
2F05
  8
AM_0
 10
755.06427487333394
 20
1074.1695473048389
 30
0.0
 11
760.06427487333394
 21
1074.1695473048389
 31
0.0
  0
ARC
  5
2F06
  8
AM_0
 10
784.06427487333394
 20
1041.6695473048401
 30
0.0
 40
9.0
 50
90.00000299999769
 51
270.0
  0
LINE
  5
2F07
  8
AM_0
 10
784.06427487333394
 20
1050.669547304838
 30
0.0
 11
784.06427487333394
 21
1032.6695473048389
 31
0.0
  0
LINE
  5
2F08
  8
AM_0
 10
725.06427487333394
 20
1127.94090730484
 30
0.0
 11
732.06427487333394
 21
1127.94090730484
 31
0.0
  0
ARC
  5
2F09
  8
AM_0
 10
732.06427487333394
 20
1125.94090730484
 30
0.0
 40
2.0
 50
0.0
 51
90.00000299999769
  0
LINE
  5
2F0A
  8
AM_0
 10
727.06427487333394
 20
1190.228407304839
 30
0.0
 11
732.06427487333394
 21
1190.228407304839
 31
0.0
  0
ARC
  5
2F0B
  8
AM_0
 10
720.06427487333394
 20
1186.63320730484
 30
0.0
 40
5.0
 50
301.7653699999957
 51
0.0
  0
ARC
  5
2F0C
  8
AM_0
 10
732.06427487333394
 20
1188.228407304839
 30
0.0
 40
2.0
 50
0.0
 51
90.00000299999769
  0
LINE
  5
2F0D
  8
AM_0
 10
720.23877487333402
 20
1204.4116073048399
 30
0.0
 11
611.56427487333394
 21
1200.61660730484
 31
0.0
  0
LINE
  5
2F0E
  8
AM_0
 10
728.06427487333394
 20
1226.66950730484
 30
0.0
 11
750.06427487333394
 21
1226.66950730484
 31
0.0
  0
ARC
  5
2F0F
  8
AM_0
 10
720.06427487333394
 20
1209.40860730484
 30
0.0
 40
5.0
 50
271.9999999999971
 51
0.0
  0
ARC
  5
2F10
  8
AM_0
 10
728.06427487333394
 20
1223.66950730484
 30
0.0
 40
3.0
 50
90.00000299999769
 51
180.00001000000091
  0
LINE
  5
2F11
  8
AM_0
 10
750.06427487333394
 20
1196.66950730484
 30
0.0
 11
755.06427487333394
 21
1196.66950730484
 31
0.0
  0
LINE
  5
2F12
  8
AM_0
 10
865.06427487333394
 20
1071.669547304838
 30
0.0
 11
865.06427487333394
 21
1011.66954730484
 31
0.0
  0
LINE
  5
2F13
  8
AM_0
 10
333.06431487333413
 20
1165.6695473048389
 30
0.0
 11
333.06431487333413
 21
917.66954730484088
 31
0.0
  0
LINE
  5
2F14
  8
AM_0
 10
317.06431487333413
 20
1166.6695473048401
 30
0.0
 11
317.06431487333413
 21
916.66954730484065
 31
0.0
  0
LINE
  5
2F15
  8
AM_0
 10
396.5643148733339
 20
955.66954730484065
 30
0.0
 11
335.80284762272078
 21
950.35360728291505
 31
0.0
  0
LINE
  5
2F16
  8
AM_0
 10
395.56431487333458
 20
951.20126708887835
 30
0.0
 11
335.80284787333471
 21
945.97281608887829
 31
0.0
  0
LINE
  5
2F17
  8
AM_0
 10
317.06431487333413
 20
916.66954730484065
 30
0.0
 11
332.06431487333413
 21
916.66954730484065
 31
0.0
  0
ARC
  5
2F18
  8
AM_0
 10
332.06431487333413
 20
917.66954730484088
 30
0.0
 40
1.0
 50
270.0
 51
0.0
  0
ARC
  5
2F19
  8
AM_0
 10
336.06431487333413
 20
947.36502319059673
 30
0.0
 40
3.0
 50
95.000000428874188
 51
180.0
1001
GENIUS_GENODEF_13
1002
{
1000
HIER
1070
     0
1002
}
1002
{
1000
MANEDIT
1070
     0
1002
}
1002
{
1000
NOSEL
1070
     0
1002
}
1002
{
1000
BEHIND
1070
     0
1002
}
1002
{
1000
OTHER
1070
     0
1002
}
1002
{
1000
REACTOR
1002
}
1001
GENIUS_GENOBJ-N-FIL_13
1002
{
1000
OWNER
1000
GEN
1002
}
  0
ARC
  5
2F1A
  8
AM_0
 10
336.06431487333481
 20
942.98423208887823
 30
0.0
 40
3.0
 50
94.999999999999446
 51
180.0
  0
LINE
  5
2F1B
  8
AM_0
 10
396.5643148733339
 20
1127.6695473048389
 30
0.0
 11
335.80284762272078
 21
1132.9854873267659
 31
0.0
  0
LINE
  5
2F1C
  8
AM_0
 10
395.56431487333401
 20
1132.1378275208031
 30
0.0
 11
335.80284787333397
 21
1137.3662785208021
 31
0.0
  0
LINE
  5
2F1D
  8
AM_0
 10
395.56431487333401
 20
1049.17155730484
 30
0.0
 11
333.06431487333401
 21
1051.354105398075
 31
0.0
  0
LINE
  5
2F1E
  8
AM_0
 10
395.5643148733339
 20
1052.635307304841
 30
0.0
 11
333.06431487333401
 21
1054.817855398074
 31
0.0
  0
LINE
  5
2F1F
  8
AM_0
 10
395.5643148733339
 20
1030.70378730484
 30
0.0
 11
333.06431487333401
 21
1028.5212392116059
 31
0.0
  0
LINE
  5
2F20
  8
AM_0
 10
395.56431487333401
 20
1034.1675373048399
 30
0.0
 11
333.06431487333401
 21
1031.984989211606
 31
0.0
  0
LINE
  5
2F21
  8
AM_0
 10
317.06431487333413
 20
1166.6695473048401
 30
0.0
 11
332.06431487333413
 21
1166.6695473048401
 31
0.0
  0
ARC
  5
2F22
  8
AM_0
 10
336.06431487333413
 20
1140.354862520803
 30
0.0
 40
3.0
 50
180.0
 51
265.0000000000004
  0
ARC
  5
2F23
  8
AM_0
 10
336.06431487333413
 20
1135.9740714190841
 30
0.0
 40
3.0
 50
180.0
 51
264.99999957112573
1001
GENIUS_GENODEF_13
1002
{
1000
HIER
1070
     0
1002
}
1002
{
1000
MANEDIT
1070
     0
1002
}
1002
{
1000
NOSEL
1070
     0
1002
}
1002
{
1000
BEHIND
1070
     0
1002
}
1002
{
1000
OTHER
1070
     0
1002
}
1002
{
1000
REACTOR
1002
}
1001
GENIUS_GENOBJ-N-FIL_13
1002
{
1000
OWNER
1000
GEN
1002
}
  0
ARC
  5
2F24
  8
AM_0
 10
332.06431487333413
 20
1165.6695473048389
 30
0.0
 40
1.0
 50
0.0
 51
90.0
  0
LINE
  5
2F25
  8
AM_0
 10
395.56431487333458
 20
955.5820586337727
 30
0.0
 11
395.56431487333458
 21
951.20126708887835
 31
0.0
  0
LINE
  5
2F26
  8
AM_0
 10
395.5643148733339
 20
1052.635307304841
 30
0.0
 11
395.5643148733339
 21
1030.70378730484
 31
0.0
  0
LINE
  5
2F27
  8
AM_0
 10
395.56431487333401
 20
1127.757035975909
 30
0.0
 11
395.56431487333401
 21
1132.1378275208031
 31
0.0
  0
LINE
  5
2F28
  8
ﾁｭｳｼﾝｾﾝ
 10
868.00327487333425
 20
517.74685581292886
 30
0.0
 11
513.77187487333401
 21
517.74685581292886
 31
0.0
  0
LINE
  5
2F29
  8
AM_0
 10
750.06422487333373
 20
332.74685081292881
 30
0.0
 11
728.06422487333373
 21
332.74685081292881
 31
0.0
  0
LINE
  5
2F2A
  8
AM_0
 10
728.06422487333373
 20
702.74692581292891
 30
0.0
 11
750.06422487333373
 21
702.74692581292891
 31
0.0
  0
LINE
  5
2F2B
  8
AM_0
 10
734.06422487333373
 20
664.3057758129288
 30
0.0
 11
734.06422487333373
 21
371.18798581292879
 31
0.0
  0
LINE
  5
2F2C
  8
AM_0
 10
725.06422487333373
 20
699.74687581292869
 30
0.0
 11
725.06422487333373
 21
459.80984081292871
 31
0.0
  0
LINE
  5
2F2D
  8
AM_0
 10
611.56422487333361
 20
649.74687581292869
 30
0.0
 11
611.56422487333361
 21
295.74685081292881
 31
0.0
  0
LINE
  5
2F2E
  8
AM_0
 10
701.55872487333374
 20
610.18942581292879
 30
0.0
 11
724.80182487333423
 21
460.20373081292882
 31
0.0
  0
LINE
  5
2F2F
  8
AM_0
 10
448.06422487333361
 20
537.7434958129287
 30
0.0
 11
448.06422487333361
 21
567.47406081292877
 31
0.0
  0
LINE
  5
2F30
  8
AM_0
 10
459.06422487333361
 20
543.74353081292895
 30
0.0
 11
459.06422487333361
 21
395.7502108129288
 31
0.0
  0
LINE
  5
2F31
  8
AM_0
 10
430.06422487333361
 20
409.24688581292878
 30
0.0
 11
430.06422487333361
 21
545.23019081292875
 31
0.0
  0
LINE
  5
2F32
  8
AM_0
 10
589.5642748733344
 20
540.97189081292879
 30
0.0
 11
589.5642748733344
 21
507.79769581292879
 31
0.0
  0
LINE
  5
2F33
  8
AM_0
 10
536.56422487333361
 20
597.94062581292906
 30
0.0
 11
536.56422487333361
 21
348.13335581292893
 31
0.0
  0
LINE
  5
2F34
  8
AM_0
 10
477.06427487333428
 20
589.74685581292886
 30
0.0
 11
477.06427487333428
 21
349.74685081292893
 31
0.0
  0
LINE
  5
2F35
  8
AM_0
 10
490.06422487333361
 20
587.74685581292886
 30
0.0
 11
490.06422487333361
 21
351.7468508129287
 31
0.0
  0
LINE
  5
2F36
  8
AM_0
 10
556.56422487333361
 20
647.74687581292881
 30
0.0
 11
556.56422487333361
 21
299.59887081292879
 31
0.0
  0
LINE
  5
2F37
  8
ﾁｭｳｼﾝｾﾝ
 10
304.1470875580888
 20
409.24688581292878
 30
0.0
 11
530.92732487333433
 21
409.24688581292878
 31
0.0
  0
LINE
  5
2F38
  8
AM_0
 10
440.8897748733342
 20
348.48360581292877
 30
0.0
 11
477.06427487333428
 21
349.74685081292893
 31
0.0
  0
LINE
  5
2F39
  8
AM_0
 10
461.06427487333372
 20
393.7502108129288
 30
0.0
 11
490.06422487333361
 21
393.7502108129288
 31
0.0
  0
LINE
  5
2F3A
  8
AM_0
 10
450.06422487333373
 20
370.01965081292877
 30
0.0
 11
490.06422487333361
 21
370.01965081292877
 31
0.0
  0
LINE
  5
2F3B
  8
AM_0
 10
448.06422487333361
 20
385.57598581292882
 30
0.0
 11
490.06422487333361
 21
385.57598581292882
 31
0.0
  0
LINE
  5
2F3C
  8
AM_0
 10
430.5642248733335
 20
378.13641081292889
 30
0.0
 11
430.5642248733335
 21
353.39391581292892
 31
0.0
  0
LINE
  5
2F3D
  8
AM_0
 10
425.56422487333361
 20
366.38427081292878
 30
0.0
 11
425.56422487333361
 21
353.39391581292892
 31
0.0
  0
LINE
  5
2F3E
  8
AM_0
 10
398.56437487333397
 20
378.13641081292889
 30
0.0
 11
398.56437487333397
 21
353.39391581292892
 31
0.0
  0
LINE
  5
2F3F
  8
AM_0
 10
436.06437487333392
 20
367.01965081292877
 30
0.0
 11
436.06437487333392
 21
327.24686581292877
 31
0.0
  0
LINE
  5
2F40
  8
AM_0
 10
396.56422487333361
 20
495.36623403919481
 30
0.0
 11
396.56422487333361
 21
323.36623403919492
 31
0.0
  0
LINE
  5
2F41
  8
AM_0
 10
395.56422487333361
 20
383.61932803919512
 30
0.0
 11
395.56422487333361
 21
349.4473340391948
 31
0.0
  0
LINE
  5
2F42
  8
AM_0
 10
317.06422487333373
 20
534.36623403919509
 30
0.0
 11
317.06422487333373
 21
284.36623403919492
 31
0.0
  0
LINE
  5
2F43
  8
AM_0
 10
333.06422487333373
 20
533.36623403919509
 30
0.0
 11
333.06422487333373
 21
285.36623403919492
 31
0.0
  0
LINE
  5
2F44
  8
AM_0
 10
396.56422487333361
 20
323.36623403919492
 30
0.0
 11
335.80275787333318
 21
318.05029403919508
 31
0.0
  0
LINE
  5
2F45
  8
AM_0
 10
393.56422487333361
 20
347.4473340391948
 30
0.0
 11
333.06422487333373
 21
347.4473340391948
 31
0.0
  0
LINE
  5
2F46
  8
AM_0
 10
317.06422487333373
 20
284.36623403919492
 30
0.0
 11
332.06422487333373
 21
284.36623403919492
 31
0.0
  0
ARC
  5
2F47
  8
AM_0
 10
332.06422487333373
 20
285.36623403919492
 30
0.0
 40
1.0
 50
270.0
 51
0.0
  0
ARC
  5
2F48
  8
AM_0
 10
336.06422487333373
 20
315.06171003919479
 30
0.0
 40
3.0
 50
95.0
 51
180.0
  0
LINE
  5
2F49
  8
AM_0
 10
398.56437487333397
 20
353.39391581292892
 30
0.0
 11
430.5642248733335
 21
353.39391581292892
 31
0.0
  0
LINE
  5
2F4A
  8
AM_0
 10
396.56422487333361
 20
324.24685081292881
 30
0.0
 11
433.06422487333373
 21
324.24685081292881
 31
0.0
  0
ARC
  5
2F4B
  8
AM_0
 10
393.56422487333361
 20
349.4473340391948
 30
0.0
 40
2.0
 50
270.0
 51
0.0
  0
ARC
  5
2F4C
  8
AM_0
 10
441.06427487333349
 20
343.48666081292862
 30
0.0
 40
5.0
 50
91.999998000000545
 51
180.00001000000091
  0
ARC
  5
2F4D
  8
AM_0
 10
433.06422487333373
 20
327.24686581292877
 30
0.0
 40
3.0000000500000001
 50
270.0
 51
0.0
  0
LINE
  5
2F4E
  8
AM_0
 10
333.06422487333373
 20
383.61932803919512
 30
0.0
 11
392.86792687333372
 21
383.61932803919512
 31
0.0
  0
LINE
  5
2F4F
  8
AM_0
 10
333.06422487333373
 20
373.42809603919511
 30
0.0
 11
393.56422487333361
 21
373.42809603919511
 31
0.0
  0
LINE
  5
2F50
  8
AM_0
 10
395.56422487333361
 20
508.36623403919509
 30
0.0
 11
335.80275787333318
 21
513.59468503919516
 31
0.0
  0
LINE
  5
2F51
  8
AM_0
 10
394.56422487333361
 20
495.30179103919511
 30
0.0
 11
333.06422487333373
 21
495.30179103919511
 31
0.0
  0
ARC
  5
2F52
  8
AM_0
 10
336.06422487333373
 20
516.58326903919476
 30
0.0
 40
3.0
 50
180.0
 51
265.0
  0
LINE
  5
2F53
  8
AM_0
 10
317.06422487333373
 20
534.36623403919509
 30
0.0
 11
332.06422487333373
 21
534.36623403919509
 31
0.0
  0
ARC
  5
2F54
  8
AM_0
 10
332.06422487333373
 20
533.36623403919509
 30
0.0
 40
1.0
 50
0.0
 51
90.0
  0
LINE
  5
2F55
  8
AM_0
 10
398.56437487333397
 20
378.13641081292889
 30
0.0
 11
430.5642248733335
 21
378.13641081292889
 31
0.0
  0
LINE
  5
2F56
  8
AM_0
 10
398.56437487333397
 20
366.38427081292878
 30
0.0
 11
425.56422487333361
 21
366.38427081292878
 31
0.0
  0
ARC
  5
2F57
  8
AM_0
 10
393.56422487333361
 20
375.42809603919511
 30
0.0
 40
2.0
 50
270.0
 51
0.0
  0
LINE
  5
2F58
  8
AM_0
 10
425.56422487333361
 20
366.3843058129288
 30
0.0
 11
430.5642248733335
 21
378.13644081292881
 31
0.0
  0
ARC
  5
2F59
  8
AM_0
 10
439.0642248733335
 20
367.01965081292877
 30
0.0
 40
3.0000000500000001
 50
90.00000299999769
 51
180.00001000000091
  0
LINE
  5
2F5A
  8
AM_0
 10
448.06422487333361
 20
372.01965081292877
 30
0.0
 11
448.06422487333361
 21
401.75018081292887
 31
0.0
  0
ARC
  5
2F5B
  8
AM_0
 10
450.06422487333373
 20
372.01965081292877
 30
0.0
 40
2.0000000500000001
 50
179.9999899999988
 51
270.0
  0
ARC
  5
2F5C
  8
AM_0
 10
461.06427487333372
 20
395.7502108129288
 30
0.0
 40
2.0000000500000001
 50
179.9999899999988
 51
270.0
  0
ARC
  5
2F5D
  8
AM_0
 10
446.0642748733336
 20
401.75018081292887
 30
0.0
 40
2.0000000500000001
 50
0.0
 51
90.00000299999769
  0
LINE
  5
2F5E
  8
AM_0
 10
396.56422487333361
 20
494.2468558129288
 30
0.0
 11
411.16897487333392
 21
494.75686581292882
 31
0.0
  0
LINE
  5
2F5F
  8
AM_0
 10
398.56437487333397
 20
508.2468558129288
 30
0.0
 11
411.06437487333392
 21
508.2468558129288
 31
0.0
  0
LINE
  5
2F60
  8
AM_0
 10
398.56437487333397
 20
494.31668081292878
 30
0.0
 11
398.56437487333397
 21
508.2468558129288
 31
0.0
  0
LINE
  5
2F61
  8
AM_0
 10
395.56422487333361
 20
495.36623403919481
 30
0.0
 11
395.56422487333361
 21
508.36623403919509
 31
0.0
  0
LINE
  5
2F62
  8
AM_0
 10
395.56422487333361
 20
495.36623403919481
 30
0.0
 11
396.56422487333361
 21
495.36623403919481
 31
0.0
  0
ARC
  5
2F63
  8
AM_0
 10
411.06437487333392
 20
497.75503081292879
 30
0.0
 40
3.0000000500000001
 50
271.9999999999971
 51
0.0
  0
LINE
  5
2F64
  8
AM_0
 10
414.0642248733335
 20
494.98043581292887
 30
0.0
 11
414.0642248733335
 21
516.74688581292878
 31
0.0
  0
LINE
  5
2F65
  8
AM_0
 10
414.0642248733335
 20
491.98043581292882
 30
0.0
 11
429.32252487333398
 21
491.98043581292882
 31
0.0
  0
ARC
  5
2F66
  8
AM_0
 10
411.06437487333392
 20
494.98043581292887
 30
0.0
 40
3.0000000500000001
 50
270.0
 51
0.0
  0
ARC
  5
2F67
  8
AM_0
 10
417.06422487333361
 20
516.74688581292878
 30
0.0
 40
3.0000000500000001
 50
90.00000299999769
 51
180.00001000000091
  0
ARC
  5
2F68
  8
AM_0
 10
411.06437487333392
 20
511.2468558129288
 30
0.0
 40
3.0000000500000001
 50
270.0
 51
0.0
  0
LINE
  5
2F69
  8
AM_0
 10
417.06422487333361
 20
519.74685581292886
 30
0.0
 11
427.06422487333361
 21
519.74685581292886
 31
0.0
  0
ARC
  5
2F6A
  8
AM_0
 10
427.06422487333361
 20
522.74685581292886
 30
0.0
 40
3.0000000500000001
 50
270.0
 51
0.0
  0
ARC
  5
2F6B
  8
AM_0
 10
446.0642748733336
 20
537.7434958129287
 30
0.0
 40
2.0000000500000001
 50
270.0
 51
0.0
  0
ARC
  5
2F6C
  8
AM_0
 10
678.44412487333375
 20
367.78985081292888
 30
0.0
 40
20.3124945
 50
90.00000299999769
 51
270.0
  0
LINE
  5
2F6D
  8
AM_0
 10
680.06422487333361
 20
385.94360081292882
 30
0.0
 11
680.06422487333361
 21
349.82360581292869
 31
0.0
  0
LINE
  5
2F6E
  8
AM_0
 10
725.06422487333373
 20
405.96359081292883
 30
0.0
 11
725.06422487333373
 21
335.74685081292881
 31
0.0
  0
ARC
  5
2F6F
  8
AM_0
 10
641.983424873334
 20
367.20818581292878
 30
0.0
 40
8.5603475000000007
 50
90.00000299999769
 51
270.0
  0
LINE
  5
2F70
  8
AM_0
 10
645.06422487333361
 20
374.18362081292878
 30
0.0
 11
645.06422487333361
 21
360.53359581292881
 31
0.0
  0
LINE
  5
2F71
  8
AM_0
 10
558.49447487333407
 20
297.6001058129288
 30
0.0
 11
611.56422487333361
 21
295.74686581292877
 31
0.0
  0
LINE
  5
2F72
  8
AM_0
 10
539.52882487333375
 20
341.02683581292882
 30
0.0
 11
553.59967487333404
 21
327.09669081292873
 31
0.0
  0
LINE
  5
2F73
  8
AM_0
 10
492.06427487333423
 20
357.74685081292893
 30
0.0
 11
531.56422487333361
 21
357.74685081292893
 31
0.0
  0
LINE
  5
2F74
  8
AM_0
 10
477.06427487333428
 20
349.74685081292893
 30
0.0
 11
488.06422487333361
 21
349.74685081292893
 31
0.0
  0
ARC
  5
2F75
  8
AM_0
 10
488.06422487333361
 20
351.7468508129287
 30
0.0
 40
2.0000000500000001
 50
270.0
 51
0.0
  0
ARC
  5
2F76
  8
AM_0
 10
492.06427487333423
 20
355.74685081292893
 30
0.0
 40
2.0000000500000001
 50
90.00000299999769
 51
180.00001000000091
  0
ARC
  5
2F77
  8
AM_0
 10
546.56422487333361
 20
348.13335581292893
 30
0.0
 40
10.0
 50
179.9999899999988
 51
225.28791999999751
  0
ARC
  5
2F78
  8
AM_0
 10
531.56422487333361
 20
352.74685081292893
 30
0.0
 40
5.0
 50
0.0
 51
90.00000299999769
  0
ARC
  5
2F79
  8
AM_0
 10
546.56422487333361
 20
319.99015081292879
 30
0.0
 40
10.0
 50
0.0
 51
45.287918000001568
  0
LINE
  5
2F7A
  8
AM_0
 10
561.56422487333361
 20
311.74685081292881
 30
0.0
 11
587.56422487333361
 21
311.74685081292881
 31
0.0
  0
ARC
  5
2F7B
  8
AM_0
 10
558.56427487333372
 20
299.59887081292879
 30
0.0
 40
2.0000000500000001
 50
179.9999899999988
 51
268.00000999999861
  0
ARC
  5
2F7C
  8
AM_0
 10
561.56422487333361
 20
316.74685081292881
 30
0.0
 40
5.0
 50
179.9999899999988
 51
270.0
  0
LINE
  5
2F7D
  8
AM_0
 10
589.5642748733344
 20
309.74686581292877
 30
0.0
 11
589.5642748733344
 21
298.4464958129289
 31
0.0
  0
ARC
  5
2F7E
  8
AM_0
 10
591.56422487333361
 20
298.4464958129289
 30
0.0
 40
2.0000000500000001
 50
179.9999899999988
 51
268.00000999999861
  0
ARC
  5
2F7F
  8
AM_0
 10
587.56422487333361
 20
309.74686581292877
 30
0.0
 40
2.0000000500000001
 50
0.0
 51
90.00000299999769
  0
LINE
  5
2F80
  8
AM_0
 10
675.0968748733336
 20
294.08318581292889
 30
0.0
 11
742.06427487333406
 21
332.74685081292881
 31
0.0
  0
LINE
  5
2F81
  8
AM_0
 10
611.56417487333408
 20
295.74686581292877
 30
0.0
 11
675.09677487333363
 21
294.08320081292862
 31
0.0
  0
LINE
  5
2F82
  8
AM_0
 10
641.983424873334
 20
358.64782081292879
 30
0.0
 11
660.30512487333385
 21
358.64782081292879
 31
0.0
  0
LINE
  5
2F83
  8
AM_0
 10
678.44412487333375
 20
347.47733581292869
 30
0.0
 11
725.06422487333373
 21
347.47733581292869
 31
0.0
  0
ARC
  5
2F84
  8
AM_0
 10
728.06422487333373
 20
335.74685081292881
 30
0.0
 40
3.0000000500000001
 50
179.9999899999988
 51
270.0
  0
LINE
  5
2F85
  8
AM_0
 10
490.06422487333361
 20
383.07198581292892
 30
0.0
 11
536.56422487333361
 21
383.07198581292892
 31
0.0
  0
LINE
  5
2F86
  8
AM_0
 10
490.06422487333361
 20
398.81405081292883
 30
0.0
 11
536.56422487333361
 21
398.81405081292883
 31
0.0
  0
LINE
  5
2F87
  8
AM_0
 10
589.5642748733344
 20
418.68972581292883
 30
0.0
 11
589.5642748733344
 21
382.42040581292878
 31
0.0
  0
LINE
  5
2F88
  8
AM_0
 10
561.56422487333361
 20
380.4203758129288
 30
0.0
 11
587.56422487333361
 21
380.4203758129288
 31
0.0
  0
ARC
  5
2F89
  8
AM_0
 10
561.56422487333361
 20
375.42037581292891
 30
0.0
 40
5.0
 50
90.00000299999769
 51
180.00001000000091
  0
ARC
  5
2F8A
  8
AM_0
 10
587.56422487333361
 20
382.42040581292878
 30
0.0
 40
2.0000000500000001
 50
270.0
 51
0.0
  0
LINE
  5
2F8B
  8
AM_0
 10
561.56422487333361
 20
420.68975581292892
 30
0.0
 11
587.56422487333361
 21
420.68975581292892
 31
0.0
  0
ARC
  5
2F8C
  8
AM_0
 10
561.56422487333361
 20
425.68975581292881
 30
0.0
 40
5.0
 50
179.9999899999988
 51
270.0
  0
ARC
  5
2F8D
  8
AM_0
 10
587.56422487333361
 20
418.68972581292883
 30
0.0
 40
2.0000000500000001
 50
0.0
 51
90.00000299999769
  0
LINE
  5
2F8E
  8
AM_0
 10
561.56422487333361
 20
505.79769581292879
 30
0.0
 11
587.56422487333361
 21
505.79769581292879
 31
0.0
  0
ARC
  5
2F8F
  8
AM_0
 10
561.56422487333361
 20
500.79769581292891
 30
0.0
 40
5.0
 50
90.00000299999769
 51
180.00001000000091
  0
ARC
  5
2F90
  8
AM_0
 10
587.56422487333361
 20
507.79769581292879
 30
0.0
 40
2.0000000500000001
 50
270.0
 51
0.0
  0
LINE
  5
2F91
  8
AM_0
 10
641.983424873334
 20
375.76852081292878
 30
0.0
 11
659.764224873334
 21
375.76852081292878
 31
0.0
  0
LINE
  5
2F92
  8
AM_0
 10
678.44412487333375
 20
388.10235081292888
 30
0.0
 11
725.06422487333373
 21
388.10235081292888
 31
0.0
  0
ARC
  5
2F93
  8
AM_0
 10
727.0642748733344
 20
367.18795581292892
 30
0.0
 40
2.0000000500000001
 50
90.00000299999769
 51
180.00001000000091
  0
ARC
  5
2F94
  8
AM_0
 10
732.0642748733344
 20
371.18798581292879
 30
0.0
 40
2.0000000500000001
 50
270.0
 51
0.0
  0
LINE
  5
2F95
  8
AM_0
 10
727.0642748733344
 20
369.18798581292879
 30
0.0
 11
732.0642748733344
 21
369.18798581292879
 31
0.0
  0
ARC
  5
2F96
  8
AM_0
 10
732.0642748733344
 20
409.15295081292879
 30
0.0
 40
2.0000000500000001
 50
270.0
 51
0.0
  0
LINE
  5
2F97
  8
AM_0
 10
727.0642748733344
 20
407.15295081292879
 30
0.0
 11
732.0642748733344
 21
407.15295081292879
 31
0.0
  0
LINE
  5
2F98
  8
AM_0
 10
726.77817487333425
 20
458.51003581292878
 30
0.0
 11
732.0642748733344
 21
458.51003581292878
 31
0.0
  0
ARC
  5
2F99
  8
AM_0
 10
726.06427487333372
 20
459.80984081292871
 30
0.0
 40
1.0
 50
179.9999899999988
 51
224.44399999999951
  0
ARC
  5
2F9A
  8
AM_0
 10
726.77817487333425
 20
460.51003581292878
 30
0.0
 40
2.0000000500000001
 50
188.80899999999801
 51
270.0
  0
ARC
  5
2F9B
  8
AM_0
 10
732.0642748733344
 20
456.51006581292887
 30
0.0
 40
2.0000000500000001
 50
0.0
 51
90.00000299999769
  0
LINE
  5
2F9C
  8
AM_0
 10
461.06427487333372
 20
545.74349581292881
 30
0.0
 11
490.06422487333361
 21
545.74349581292881
 31
0.0
  0
LINE
  5
2F9D
  8
AM_0
 10
448.06422487333361
 20
553.91769081292875
 30
0.0
 11
490.06422487333361
 21
553.91769081292875
 31
0.0
  0
LINE
  5
2F9E
  8
AM_0
 10
450.06422487333373
 20
569.47409081292881
 30
0.0
 11
490.06422487333361
 21
569.47409081292881
 31
0.0
  0
LINE
  5
2F9F
  8
AM_0
 10
462.06427487333428
 20
589.74685581292886
 30
0.0
 11
477.06427487333428
 21
589.74685581292886
 31
0.0
  0
LINE
  5
2FA0
  8
AM_0
 10
459.06422487333361
 20
586.74688581292889
 30
0.0
 11
459.06422487333361
 21
569.47409081292881
 31
0.0
  0
LINE
  5
2FA1
  8
AM_0
 10
430.73417487333421
 20
547.73022081292868
 30
0.0
 11
446.5283248733337
 21
575.08663581292888
 31
0.0
  0
ARC
  5
2FA2
  8
AM_0
 10
435.0642248733335
 20
545.23019081292875
 30
0.0
 40
5.0
 50
149.9999999999992
 51
180.00001000000091
  0
ARC
  5
2FA3
  8
AM_0
 10
461.06427487333372
 20
543.74353081292895
 30
0.0
 40
2.0000000500000001
 50
90.00000299999769
 51
180.00001000000091
  0
LINE
  5
2FA4
  8
AM_0
 10
449.12642487333392
 20
576.58660581292872
 30
0.0
 11
456.0642748733336
 21
576.58660581292872
 31
0.0
  0
ARC
  5
2FA5
  8
AM_0
 10
449.12642487333392
 20
573.58657581292869
 30
0.0
 40
3.0000000500000001
 50
90.00000299999769
 51
149.9999999999992
  0
ARC
  5
2FA6
  8
AM_0
 10
450.06422487333373
 20
567.47406081292877
 30
0.0
 40
2.0000000500000001
 50
90.00000299999769
 51
180.00001000000091
  0
ARC
  5
2FA7
  8
AM_0
 10
456.0642748733336
 20
579.58660581292895
 30
0.0
 40
3.0000000500000001
 50
270.0
 51
0.0
  0
ARC
  5
2FA8
  8
AM_0
 10
462.06427487333428
 20
586.74688581292889
 30
0.0
 40
3.0000000500000001
 50
90.00000299999769
 51
180.00001000000091
  0
LINE
  5
2FA9
  8
AM_0
 10
558.56427487333372
 20
649.74687581292869
 30
0.0
 11
611.56422487333361
 21
649.74687581292869
 31
0.0
  0
LINE
  5
2FAA
  8
AM_0
 10
561.38987487333395
 20
647.99472581292866
 30
0.0
 11
611.5642748733344
 21
649.74687581292869
 31
0.0
  0
LINE
  5
2FAB
  8
AM_0
 10
589.5642748733344
 20
637.49442581292885
 30
0.0
 11
589.5642748733344
 21
624.86752581292887
 31
0.0
  0
LINE
  5
2FAC
  8
AM_0
 10
552.8112248733338
 20
615.74442581292885
 30
0.0
 11
540.31727487333376
 21
605.74927581292889
 31
0.0
  0
ARC
  5
2FAD
  8
AM_0
 10
492.06427487333423
 20
583.74685581292886
 30
0.0
 40
2.0000000500000001
 50
179.9999899999988
 51
270.0
  0
ARC
  5
2FAE
  8
AM_0
 10
531.56422487333361
 20
586.74688581292889
 30
0.0
 40
5.0
 50
270.0
 51
0.0
  0
LINE
  5
2FAF
  8
AM_0
 10
490.06422487333361
 20
556.42175081292885
 30
0.0
 11
536.56422487333361
 21
556.42175081292885
 31
0.0
  0
LINE
  5
2FB0
  8
AM_0
 10
490.06422487333361
 20
540.67968581292882
 30
0.0
 11
536.56422487333361
 21
540.67968581292882
 31
0.0
  0
LINE
  5
2FB1
  8
AM_0
 10
492.06427487333423
 20
581.74688581292889
 30
0.0
 11
531.56422487333361
 21
581.74688581292889
 31
0.0
  0
LINE
  5
2FB2
  8
AM_0
 10
477.06427487333428
 20
589.74685581292886
 30
0.0
 11
488.06422487333361
 21
589.74685581292886
 31
0.0
  0
ARC
  5
2FB3
  8
AM_0
 10
488.06422487333361
 20
587.74685581292886
 30
0.0
 40
2.0000000500000001
 50
0.0
 51
90.00000299999769
  0
ARC
  5
2FB4
  8
AM_0
 10
546.56422487333361
 20
597.94062581292906
 30
0.0
 40
10.0
 50
128.65980999999641
 51
180.00001000000091
  0
LINE
  5
2FB5
  8
AM_0
 10
561.56422487333361
 20
542.9718908129289
 30
0.0
 11
587.56422487333361
 21
542.9718908129289
 31
0.0
  0
ARC
  5
2FB6
  8
AM_0
 10
561.56422487333361
 20
547.9718908129289
 30
0.0
 40
5.0
 50
179.9999899999988
 51
270.0
  0
ARC
  5
2FB7
  8
AM_0
 10
587.56422487333361
 20
540.97189081292879
 30
0.0
 40
2.0000000500000001
 50
0.0
 51
90.00000299999769
  0
LINE
  5
2FB8
  8
AM_0
 10
561.56422487333361
 20
622.86752581292865
 30
0.0
 11
587.56422487333361
 21
622.86752581292865
 31
0.0
  0
ARC
  5
2FB9
  8
AM_0
 10
561.56422487333361
 20
617.86752581292865
 30
0.0
 40
5.0
 50
90.00000299999769
 51
180.00001000000091
  0
ARC
  5
2FBA
  8
AM_0
 10
546.56422487333361
 20
623.5530758129288
 30
0.0
 40
10.0
 50
308.65980999999641
 51
0.0
  0
ARC
  5
2FBB
  8
AM_0
 10
587.56422487333361
 20
624.86752581292887
 30
0.0
 40
2.0000000500000001
 50
270.0
 51
0.0
  0
CIRCLE
  5
2FBC
  8
AM_0
 10
571.56422487333361
 20
675.74687581292881
 30
0.0
 40
15.0
  0
ARC
  5
2FBD
  8
AM_0
 10
571.56422487333361
 20
675.74687581292881
 30
0.0
 40
25.000000499999999
 50
306.46672000000012
 51
233.5332899999996
  0
LINE
  5
2FBE
  8
AM_0
 10
561.77022487333375
 20
658.74687581292881
 30
0.0
 11
581.35832487333346
 21
658.74687581292881
 31
0.0
  0
LINE
  5
2FBF
  8
AM_0
 10
561.56422487333361
 20
639.49442581292885
 30
0.0
 11
587.56422487333361
 21
639.49442581292885
 31
0.0
  0
LINE
  5
2FC0
  8
AM_0
 10
571.56427487333406
 20
660.74687581292881
 30
0.0
 11
581.04232487333377
 21
658.86787581292879
 31
0.0
  0
ARC
  5
2FC1
  8
AM_0
 10
561.56422487333361
 20
642.99777581292881
 30
0.0
 40
5.0
 50
91.999998000000545
 51
180.00001000000091
  0
ARC
  5
2FC2
  8
AM_0
 10
561.56422487333361
 20
644.49442581292885
 30
0.0
 40
5.0
 50
179.9999899999988
 51
270.0
  0
LINE
  5
2FC3
  8
AM_0
 10
559.06437487333392
 20
649.74677581292872
 30
0.0
 11
561.31482487333392
 21
658.14572581292873
 31
0.0
  0
ARC
  5
2FC4
  8
AM_0
 10
553.139224873334
 20
650.81657581292882
 30
0.0
 40
6.0
 50
349.72994999999878
 51
53.533291000000993
  0
ARC
  5
2FC5
  8
AM_0
 10
558.56427487333372
 20
647.74687581292881
 30
0.0
 40
2.0000000500000001
 50
90.00000299999769
 51
180.00001000000091
  0
LINE
  5
2FC6
  8
AM_0
 10
562.08622487333355
 20
658.8678258129288
 30
0.0
 11
571.56422487333361
 21
660.74677581292872
 31
0.0
  0
ARC
  5
2FC7
  8
AM_0
 10
562.28067487333385
 20
657.88697581292888
 30
0.0
 40
1.0
 50
101.21328999999869
 51
164.99998999999869
  0
ARC
  5
2FC8
  8
AM_0
 10
587.56422487333361
 20
637.49442581292885
 30
0.0
 40
2.0000000500000001
 50
0.0
 51
90.00000299999769
  0
ARC
  5
2FC9
  8
AM_0
 10
589.98927487333401
 20
650.81657581292882
 30
0.0
 40
6.0
 50
126.46669999999671
 51
190.27005999999909
  0
ARC
  5
2FCA
  8
AM_0
 10
580.84787487333415
 20
657.88697581292888
 30
0.0
 40
1.0
 50
15.000000000000741
 51
78.786710000001207
  0
LINE
  5
2FCB
  8
AM_0
 10
584.06427487333406
 20
649.74687581292869
 30
0.0
 11
581.8138248733336
 21
658.14577581292895
 31
0.0
  0
LINE
  5
2FCC
  8
AM_0
 10
722.69642487333374
 20
658.45942581292866
 30
0.0
 11
666.4320248733336
 21
623.62107581292878
 31
0.0
  0
LINE
  5
2FCD
  8
AM_0
 10
722.69642487333374
 20
646.49392581292875
 30
0.0
 11
667.75937487333397
 21
612.4774258129288
 31
0.0
  0
LINE
  5
2FCE
  8
AM_0
 10
725.06427487333372
 20
627.65357581292881
 30
0.0
 11
702.88642487333425
 21
611.17597581292875
 31
0.0
  0
LINE
  5
2FCF
  8
AM_0
 10
669.06422487333361
 20
610.18947581292866
 30
0.0
 11
699.90457487333424
 21
610.18947581292866
 31
0.0
  0
ARC
  5
2FD0
  8
AM_0
 10
669.06422487333361
 20
619.37002581292882
 30
0.0
 40
5.0
 50
121.7653600000025
 51
180.00001000000091
  0
ARC
  5
2FD1
  8
AM_0
 10
669.06422487333361
 20
615.18947581292866
 30
0.0
 40
5.0
 50
179.9999899999988
 51
270.0
  0
LINE
  5
2FD2
  8
AM_0
 10
664.06422487333339
 20
619.37002581292882
 30
0.0
 11
664.06422487333339
 21
615.18947581292866
 31
0.0
  0
ARC
  5
2FD3
  8
AM_0
 10
699.90457487333424
 20
615.18947581292866
 30
0.0
 40
5.0
 50
270.0
 51
306.61150000000112
  0
ARC
  5
2FD4
  8
AM_0
 10
732.0642748733344
 20
602.01822581292868
 30
0.0
 40
2.0000000500000001
 50
0.0
 51
90.00000299999769
  0
LINE
  5
2FD5
  8
AM_0
 10
725.06422487333373
 20
604.01822581292879
 30
0.0
 11
732.0642748733344
 21
604.01822581292879
 31
0.0
  0
LINE
  5
2FD6
  8
AM_0
 10
611.5642748733344
 20
649.74687581292869
 30
0.0
 11
690.24067487333423
 21
651.80702581292883
 31
0.0
  0
LINE
  5
2FD7
  8
AM_0
 10
697.050024873334
 20
654.73257581292876
 30
0.0
 11
723.59982487333389
 21
681.28237581292876
 31
0.0
  0
LINE
  5
2FD8
  8
AM_0
 10
694.97712487333376
 20
652.65962581292877
 30
0.0
 11
696.58402487333342
 21
642.29087581292868
 31
0.0
  0
ARC
  5
2FD9
  8
AM_0
 10
689.97892487333377
 20
661.80362581292866
 30
0.0
 40
10.0
 50
271.50000000000261
 51
315.0
  0
ARC
  5
2FDA
  8
AM_0
 10
727.0642748733344
 20
668.3057758129288
 30
0.0
 40
2.0000000500000001
 50
179.9999899999988
 51
270.0
  0
ARC
  5
2FDB
  8
AM_0
 10
720.06422487333361
 20
662.71047581292885
 30
0.0
 40
5.0
 50
301.7653699999957
 51
0.0
  0
ARC
  5
2FDC
  8
AM_0
 10
732.0642748733344
 20
664.3057758129288
 30
0.0
 40
2.0000000500000001
 50
0.0
 51
90.00000299999769
  0
LINE
  5
2FDD
  8
AM_0
 10
727.0642748733344
 20
666.3057758129288
 30
0.0
 11
732.0642748733344
 21
666.3057758129288
 31
0.0
  0
ARC
  5
2FDE
  8
AM_0
 10
720.06422487333361
 20
684.81792581292882
 30
0.0
 40
5.0
 50
315.0
 51
0.0
  0
ARC
  5
2FDF
  8
AM_0
 10
728.06422487333373
 20
699.74687581292869
 30
0.0
 40
3.0000000500000001
 50
90.00000299999769
 51
180.00001000000091
  0
LINE
  5
2FE0
  8
ﾁｭｳｼﾝｾﾝ
 10
1230.1548403183499
 20
710.91712581292836
 30
0.0
 11
1230.1548403183499
 21
288.8381308129288
 31
0.0
  0
LINE
  5
2FE1
  8
AM_0
 10
1415.1548203183499
 20
677.74687581292881
 30
0.0
 11
1415.1548203183499
 21
357.74685081292893
 31
0.0
  0
LINE
  5
2FE2
  8
AM_0
 10
1045.1548403183499
 20
357.74685081292893
 30
0.0
 11
1045.1548403183499
 21
677.74687581292881
 31
0.0
  0
LINE
  5
2FE3
  8
AM_0
 10
1371.5032603183511
 20
497.88055081292879
 30
0.0
 11
1363.2483203183499
 21
544.69665581292884
 31
0.0
  0
LINE
  5
2FE4
  8
AM_0
 10
1088.8063903183499
 20
497.88058081292883
 30
0.0
 11
1097.0613353183501
 21
544.69668581292888
 31
0.0
  0
ARC
  5
2FE5
  8
AM_0
 10
1230.1548403183499
 20
517.74685581292886
 30
0.0
 40
155.0
 50
90.00000299999769
 51
270.0
  0
ARC
  5
2FE6
  8
AM_0
 10
1230.1548403183499
 20
517.74685581292886
 30
0.0
 40
65.0
 50
270.0
 51
90.00000299999769
  0
ARC
  5
2FE7
  8
AM_0
 10
1230.1548403183499
 20
517.74685581292886
 30
0.0
 40
155.0
 50
270.0
 51
90.00000299999769
  0
ARC
  5
2FE8
  8
AM_0
 10
1230.1548403183499
 20
517.74685581292886
 30
0.0
 40
65.0
 50
90.00000299999769
 51
270.0
  0
ARC
  5
2FE9
  8
AM_0
 10
1230.1548403183499
 20
517.74685581292886
 30
0.0
 40
146.0
 50
90.00000299999769
 51
270.0
  0
ARC
  5
2FEA
  8
AM_0
 10
1230.1548403183499
 20
517.74685581292886
 30
0.0
 40
146.0
 50
270.0
 51
90.00000299999769
  0
ARC
  5
2FEB
  8
AM_0
 10
1230.1548403183499
 20
517.74685581292886
 30
0.0
 40
82.0
 50
0.0
 51
35.405932000002579
  0
ARC
  5
2FEC
  8
AM_0
 10
1230.1548403183499
 20
517.74685581292886
 30
0.0
 40
82.0
 50
144.59407000000161
 51
180.00001000000091
  0
ARC
  5
2FED
  8
AM_0
 10
1230.1548403183499
 20
517.74685581292886
 30
0.0
 40
30.000000499999999
 50
107.45760000000089
 51
72.542383999997952
  0
LINE
  5
2FEE
  8
AM_0
 10
750.06422487333373
 20
702.74692581292891
 30
0.0
 11
750.06422487333373
 21
332.74685081292881
 31
0.0
  0
LINE
  5
2FEF
  8
AM_0
 10
755.06422487333373
 20
362.74685081292893
 30
0.0
 11
755.06422487333373
 21
672.74687581292881
 31
0.0
  0
LINE
  5
2FF0
  8
AM_0
 10
760.06422487333373
 20
550.24685581292886
 30
0.0
 11
760.06422487333373
 21
485.2468558129288
 31
0.0
  0
LINE
  5
2FF1
  8
AM_0
 10
865.06427487333372
 20
551.74688581292889
 30
0.0
 11
865.06427487333372
 21
487.7468558129288
 31
0.0
  0
LINE
  5
2FF2
  8
ﾁｭｳｼﾝｾﾝ
 10
1032.4187253183491
 20
517.74685581292886
 30
0.0
 11
1429.58684531835
 21
517.74685581292886
 31
0.0
  0
LINE
  5
2FF3
  8
AM_0
 10
1390.154830318349
 20
332.74685081292881
 30
0.0
 11
1070.1548403183499
 21
332.74685081292881
 31
0.0
  0
LINE
  5
2FF4
  8
AM_0
 10
1167.6548403183499
 20
293.65386581292881
 30
0.0
 11
1292.654825318351
 21
293.65386581292881
 31
0.0
  0
LINE
  5
2FF5
  8
AM_0
 10
750.06422487333373
 20
362.74685081292893
 30
0.0
 11
755.06422487333373
 21
362.74685081292893
 31
0.0
  0
LINE
  5
2FF6
  8
AM_0
 10
760.06422487333373
 20
487.7468558129288
 30
0.0
 11
865.06427487333372
 21
487.7468558129288
 31
0.0
  0
LINE
  5
2FF7
  8
AM_0
 10
755.06422487333373
 20
485.2468558129288
 30
0.0
 11
760.06422487333373
 21
485.2468558129288
 31
0.0
  0
LINE
  5
2FF8
  8
ﾁｭｳｼﾝｾﾝ1
 10
1055.8529903183501
 20
343.44506581292882
 30
0.0
 11
1086.2585703183499
 21
373.85064081292887
 31
0.0
  0
ARC
  5
2FF9
  8
ﾁｭｳｼﾝｾﾝ1
 10
1230.1548403183499
 20
517.74685581292886
 30
0.0
 40
225.00000499999999
 50
219.5229799999978
 51
230.47702000000189
  0
CIRCLE
  5
2FFA
  8
AM_0
 10
1071.055780318351
 20
358.64782081292879
 30
0.0
 40
12.0
  0
LINE
  5
2FFB
  8
AM_0
 10
1159.4234553183501
 20
296.30756581292877
 30
0.0
 11
1123.79873031835
 21
321.94208581292878
 31
0.0
  0
ARC
  5
2FFC
  8
AM_0
 10
1070.1548403183499
 20
357.74685081292893
 30
0.0
 40
25.000000499999999
 50
179.9999899999988
 51
270.0
  0
ARC
  5
2FFD
  8
AM_0
 10
1230.1548403183499
 20
469.7468558129288
 30
0.0
 40
182.0929899999999
 50
228.7954700000013
 51
234.26227999999759
  0
ARC
  5
2FFE
  8
AM_0
 10
1167.6548403183499
 20
307.74685081292881
 30
0.0
 40
14.092999499999999
 50
234.26227999999759
 51
270.0
  0
ARC
  5
2FFF
  8
AM_0
 10
1138.15481031835
 20
507.74685581292891
 30
0.0
 40
10.0
 50
270.0
 51
0.0
  0
LINE
  5
3000
  8
AM_0
 10
1089.9549803183511
 20
497.7468558129288
 30
0.0
 11
1138.15481031835
 21
497.7468558129288
 31
0.0
  0
ARC
  5
3001
  8
AM_0
 10
1089.9549803183511
 20
502.7468558129288
 30
0.0
 40
5.0
 50
186.10684999999799
 51
270.0
  0
LINE
  5
3002
  8
AM_0
 10
1148.1548103183491
 20
517.74685581292886
 30
0.0
 11
1148.1548103183491
 21
507.74685581292891
 31
0.0
  0
CIRCLE
  5
3003
  8
AM_5
 10
1230.1548403183499
 20
517.74685581292886
 30
0.0
 40
6.0
  0
CIRCLE
  5
3004
  8
AM_0
 10
1230.1548403183499
 20
517.74685581292886
 30
0.0
 40
4.500000049999997
  0
CIRCLE
  5
3005
  8
AM_0
 10
1389.253855318349
 20
358.64782081292879
 30
0.0
 40
12.0
  0
ARC
  5
3006
  8
AM_0
 10
1390.154830318349
 20
357.74685081292893
 30
0.0
 40
25.000000499999999
 50
270.0
 51
0.0
  0
ARC
  5
3007
  8
AM_0
 10
1230.1548403183499
 20
469.7468558129288
 30
0.0
 40
182.0929899999999
 50
305.73772000000218
 51
311.20452999999861
  0
LINE
  5
3008
  8
AM_0
 10
1300.8862103183501
 20
296.30758081292868
 30
0.0
 11
1336.5109203183499
 21
321.94211581292882
 31
0.0
  0
ARC
  5
3009
  8
AM_0
 10
1292.654825318351
 20
307.74685081292881
 30
0.0
 40
14.092999499999999
 50
270.0
 51
305.73772000000218
  0
LINE
  5
300A
  8
AM_0
 10
1370.35468531835
 20
497.7468558129288
 30
0.0
 11
1322.15481031835
 21
497.7468558129288
 31
0.0
  0
ARC
  5
300B
  8
AM_0
 10
1322.15481031835
 20
507.74685581292891
 30
0.0
 40
10.0
 50
179.9999899999988
 51
270.0
  0
LINE
  5
300C
  8
AM_0
 10
1312.15481031835
 20
517.74685581292886
 30
0.0
 11
1312.15481031835
 21
507.74685581292891
 31
0.0
  0
ARC
  5
300D
  8
AM_0
 10
1370.35468531835
 20
502.7468558129288
 30
0.0
 40
5.0
 50
270.0
 51
353.89315000000181
  0
LINE
  5
300E
  8
AM_0
 10
1070.1548403183499
 20
702.74692581292891
 30
0.0
 11
1390.154830318349
 21
702.74692581292891
 31
0.0
  0
ARC
  5
300F
  8
AM_0
 10
1230.1548403183499
 20
517.74685581292886
 30
0.0
 40
82.0
 50
54.5940669999991
 51
125.40592999999841
  0
LINE
  5
3010
  8
AM_0
 10
760.06422487333373
 20
547.74685581292886
 30
0.0
 11
865.06427487333372
 21
547.74685581292886
 31
0.0
  0
LINE
  5
3011
  8
AM_0
 10
784.06422487333373
 20
551.74688581292889
 30
0.0
 11
865.06427487333372
 21
551.74688581292889
 31
0.0
  0
LINE
  5
3012
  8
AM_0
 10
755.06422487333373
 20
550.24685581292886
 30
0.0
 11
760.06422487333373
 21
550.24685581292886
 31
0.0
  0
LINE
  5
3013
  8
AM_0
 10
784.06422487333373
 20
551.74688581292889
 30
0.0
 11
784.06422487333373
 21
547.74685581292886
 31
0.0
  0
LINE
  5
3014
  8
AM_0
 10
750.06422487333373
 20
672.74687581292881
 30
0.0
 11
755.06422487333373
 21
672.74687581292881
 31
0.0
  0
LINE
  5
3015
  8
AM_0
 10
1172.3550653183499
 20
585.44610581292875
 30
0.0
 11
1138.102045318351
 21
619.69912581292886
 31
0.0
  0
ARC
  5
3016
  8
AM_0
 10
1230.1548403183499
 20
469.7468558129288
 30
0.0
 40
172.0000049999999
 50
58.770288000000832
 51
121.22970999999841
  0
LINE
  5
3017
  8
AM_0
 10
1162.4555903183491
 20
575.54660081292866
 30
0.0
 11
1128.2025703183499
 21
609.79967581292897
 31
0.0
  0
ARC
  5
3018
  8
AM_0
 10
1143.75884531835
 20
625.35602581292869
 30
0.0
 40
8.0
 50
128.75986999999981
 51
225.0
  0
ARC
  5
3019
  8
AM_0
 10
1207.359795318351
 20
525.24807581292885
 30
0.0
 40
112.0
 50
133.04830999999911
 51
169.9999899999988
  0
ARC
  5
301A
  8
AM_0
 10
1122.5456453183499
 20
604.14287581292876
 30
0.0
 40
8.0
 50
45.000001000003799
 51
141.24012999999991
  0
CIRCLE
  5
301B
  8
AM_0
 10
1071.055780318351
 20
676.84592581292873
 30
0.0
 40
12.0
  0
ARC
  5
301C
  8
AM_0
 10
1070.1548403183499
 20
677.74687581292881
 30
0.0
 40
25.000000499999999
 50
90.00000299999769
 51
180.00001000000091
  0
ARC
  5
301D
  8
AM_0
 10
1156.79873031835
 20
569.88977081292887
 30
0.0
 40
8.0
 50
324.59407000000141
 51
45.000001000003799
  0
ARC
  5
301E
  8
AM_0
 10
1178.01192531835
 20
591.1029658129288
 30
0.0
 40
8.0
 50
225.0
 51
305.40592999999831
  0
LINE
  5
301F
  8
AM_0
 10
1221.15481031835
 20
540.74685581292886
 30
0.0
 11
1239.1548403183499
 21
540.74685581292886
 31
0.0
  0
LINE
  5
3020
  8
AM_0
 10
1221.15481031835
 20
551.74688581292889
 30
0.0
 11
1239.1548403183499
 21
551.74688581292889
 31
0.0
  0
LINE
  5
3021
  8
AM_0
 10
1221.15481031835
 20
551.74688581292889
 30
0.0
 11
1221.15481031835
 21
540.74685581292886
 31
0.0
  0
LINE
  5
3022
  8
AM_0
 10
1239.1548403183499
 20
551.74688581292889
 30
0.0
 11
1239.1548403183499
 21
540.74685581292886
 31
0.0
  0
ARC
  5
3023
  8
AM_0
 10
1390.154830318349
 20
677.74687581292881
 30
0.0
 40
25.000000499999999
 50
0.0
 51
90.00000299999769
  0
ARC
  5
3024
  8
AM_0
 10
1316.5507903183491
 20
625.35602581292869
 30
0.0
 40
8.0
 50
315.0
 51
51.240129999999972
  0
ARC
  5
3025
  8
AM_0
 10
1252.94985531835
 20
525.24807581292885
 30
0.0
 40
112.0
 50
9.9999997000015846
 51
46.951682999999022
  0
ARC
  5
3026
  8
AM_0
 10
1337.76400531835
 20
604.14287581292876
 30
0.0
 40
8.0
 50
38.759868999999149
 51
135.0
  0
LINE
  5
3027
  8
AM_0
 10
1297.85404531835
 20
575.54663081292881
 30
0.0
 11
1332.1071103183499
 21
609.79972581292873
 31
0.0
  0
ARC
  5
3028
  8
AM_0
 10
1303.5109203183499
 20
569.88977081292887
 30
0.0
 40
8.0
 50
135.0
 51
215.40592999999831
  0
LINE
  5
3029
  8
AM_0
 10
1287.9545703183501
 20
585.44610581292875
 30
0.0
 11
1322.20763531835
 21
619.69917581292896
 31
0.0
  0
ARC
  5
302A
  8
AM_0
 10
1282.29771031835
 20
591.1029658129288
 30
0.0
 40
8.0
 50
234.59407000000161
 51
315.0
  0
LINE
  5
302B
  8
ﾁｭｳｼﾝｾﾝ1
 10
1404.4566153183489
 20
692.04867581292865
 30
0.0
 11
1372.800882223863
 21
660.39299973696643
 31
0.0
  0
CIRCLE
  5
302C
  8
AM_0
 10
1389.253855318349
 20
676.84592581292873
 30
0.0
 40
12.0
  0
ARC
  5
302D
  8
ﾁｭｳｼﾝｾﾝ1
 10
1230.1548403183499
 20
517.74685581292886
 30
0.0
 40
225.00000499999999
 50
38.696152999996329
 51
50.477014000001581
  0
LINE
  5
302E
  8
ﾁｭｳｼﾝｾﾝ
 10
1116.764721660727
 20
409.24688581292878
 30
0.0
 11
1343.544958975973
 21
409.24688581292878
 31
0.0
  0
ARC
  5
302F
  8
ﾁｭｳｼﾝｾﾝ1
 10
1230.1548403183499
 20
517.74685581292886
 30
0.0
 40
225.00000499999999
 50
129.52298599999841
 51
141.3038470000036
  0
LINE
  5
3030
  8
ﾁｭｳｼﾝｾﾝ1
 10
1055.8530653183491
 20
692.04867581292865
 30
0.0
 11
1087.508798412837
 21
660.39299973696643
 31
0.0
  0
ARC
  5
3031
  8
ﾁｭｳｼﾝｾﾝ1
 10
1230.1548403183499
 20
517.74685581292886
 30
0.0
 40
225.00000499999999
 50
309.52297999999792
 51
320.47702000000208
  0
LINE
  5
3032
  8
ﾁｭｳｼﾝｾﾝ1
 10
1404.456690318349
 20
343.44506581292882
 30
0.0
 11
1374.0511103183501
 21
373.85064081292887
 31
0.0
  0
TEXT
  5
3211
  8
AM_0
 10
1087.9188043293409
 20
1090.5438816374549
 30
0.0
 40
20.0
  1
VX22-240AF~VX22-300AF
  0
ENDSEC
  0
EOF
