  0
SECTION
  2
HEADER
  9
$ACADVER
  1
AC1009
  9
$INSBASE
 10
0.0
 20
0.0
 30
0.0
  9
$EXTMIN
 10
281.04446775052247
 20
246.19637099118111
 30
-0.0000000000112498
  9
$EXTMAX
 10
1105.8583098281611
 20
946.66353661321125
 30
0.0000000000002956
  9
$LIMMIN
 10
0.0
 20
0.0
  9
$LIMMAX
 10
1422.5
 20
925.0
  9
$ORTHOMODE
 70
     0
  9
$REGENMODE
 70
     1
  9
$FILLMODE
 70
     1
  9
$QTEXTMODE
 70
     0
  9
$MIRRTEXT
 70
     1
  9
$DRAGMODE
 70
     2
  9
$LTSCALE
 40
5.0
  9
$OSMODE
 70
   551
  9
$ATTMODE
 70
     1
  9
$TEXTSIZE
 40
2.5
  9
$TRACEWID
 40
1.0
  9
$TEXTSTYLE
  7
STANDARD
  9
$CLAYER
  8
AM_0
  9
$CELTYPE
  6
BYLAYER
  9
$CECOLOR
 62
   256
  9
$DIMSCALE
 40
1.0
  9
$DIMASZ
 40
2.5
  9
$DIMEXO
 40
1.0
  9
$DIMDLI
 40
8.0
  9
$DIMRND
 40
0.0
  9
$DIMDLE
 40
0.0
  9
$DIMEXE
 40
0.6
  9
$DIMTP
 40
0.1
  9
$DIMTM
 40
0.1
  9
$DIMTXT
 40
2.5
  9
$DIMCEN
 40
0.0
  9
$DIMTSZ
 40
0.0
  9
$DIMTOL
 70
     0
  9
$DIMLIM
 70
     0
  9
$DIMTIH
 70
     0
  9
$DIMTOH
 70
     0
  9
$DIMSE1
 70
     0
  9
$DIMSE2
 70
     0
  9
$DIMTAD
 70
     1
  9
$DIMZIN
 70
     8
  9
$DIMBLK
  1

  9
$DIMASO
 70
     1
  9
$DIMSHO
 70
     1
  9
$DIMPOST
  1

  9
$DIMAPOST
  1
"
  9
$DIMALT
 70
     0
  9
$DIMALTD
 70
     2
  9
$DIMALTF
 40
0.0393701
  9
$DIMLFAC
 40
1.0
  9
$DIMTOFL
 70
     1
  9
$DIMTVP
 40
0.0
  9
$DIMTIX
 70
     0
  9
$DIMSOXD
 70
     0
  9
$DIMSAH
 70
     0
  9
$DIMBLK1
  1

  9
$DIMBLK2
  1

  9
$DIMSTYLE
  2
AM_ISO
  9
$DIMCLRD
 70
   256
  9
$DIMCLRE
 70
   256
  9
$DIMCLRT
 70
     4
  9
$DIMTFAC
 40
0.71
  9
$DIMGAP
 40
0.8
  9
$LUNITS
 70
     2
  9
$LUPREC
 70
     2
  9
$SKETCHINC
 40
1.0
  9
$FILLETRAD
 40
25.0
  9
$AUNITS
 70
     0
  9
$AUPREC
 70
     0
  9
$MENU
  1
.
  9
$ELEVATION
 40
0.0
  9
$PELEVATION
 40
0.0
  9
$THICKNESS
 40
0.0
  9
$LIMCHECK
 70
     0
  9
$BLIPMODE
 70
     0
  9
$CHAMFERA
 40
10.0
  9
$CHAMFERB
 40
5.0
  9
$SKPOLY
 70
     0
  9
$TDCREATE
 40
2452066.6964930561
  9
$TDUPDATE
 40
2458541.5563954632
  9
$TDINDWG
 40
0.1209032176
  9
$TDUSRTIMER
 40
0.1209030208
  9
$USRTIMER
 70
     1
  9
$ANGBASE
 50
0.0
  9
$ANGDIR
 70
     0
  9
$PDMODE
 70
     0
  9
$PDSIZE
 40
0.0
  9
$PLINEWID
 40
0.0
  9
$COORDS
 70
     1
  9
$SPLFRAME
 70
     0
  9
$SPLINETYPE
 70
     6
  9
$SPLINESEGS
 70
     8
  9
$ATTDIA
 70
     1
  9
$ATTREQ
 70
     1
  9
$HANDLING
 70
     1
  9
$HANDSEED
  5
348C
  9
$SURFTAB1
 70
     6
  9
$SURFTAB2
 70
     6
  9
$SURFTYPE
 70
     6
  9
$SURFU
 70
     6
  9
$SURFV
 70
     6
  9
$UCSNAME
  2

  9
$UCSORG
 10
0.0
 20
0.0
 30
0.0
  9
$UCSXDIR
 10
1.0
 20
0.0
 30
0.0
  9
$UCSYDIR
 10
0.0
 20
1.0
 30
0.0
  9
$PUCSNAME
  2

  9
$PUCSORG
 10
0.0
 20
0.0
 30
0.0
  9
$PUCSXDIR
 10
1.0
 20
0.0
 30
0.0
  9
$PUCSYDIR
 10
0.0
 20
1.0
 30
0.0
  9
$USERI1
 70
     0
  9
$USERI2
 70
     0
  9
$USERI3
 70
     0
  9
$USERI4
 70
     0
  9
$USERI5
 70
     0
  9
$USERR1
 40
0.0
  9
$USERR2
 40
0.0
  9
$USERR3
 40
0.0
  9
$USERR4
 40
0.0
  9
$USERR5
 40
0.0
  9
$WORLDVIEW
 70
     1
  9
$SHADEDGE
 70
     3
  9
$SHADEDIF
 70
    70
  9
$TILEMODE
 70
     1
  9
$MAXACTVP
 70
    64
  9
$PLIMCHECK
 70
     0
  9
$PEXTMIN
 10
1.0000000000000000E+020
 20
1.0000000000000000E+020
 30
1.0000000000000000E+020
  9
$PEXTMAX
 10
-1.0000000000000000E+020
 20
-1.0000000000000000E+020
 30
-1.0000000000000000E+020
  9
$PLIMMIN
 10
0.0
 20
0.0
  9
$PLIMMAX
 10
420.0
 20
297.0
  9
$UNITMODE
 70
     0
  9
$VISRETAIN
 70
     1
  9
$PLINEGEN
 70
     0
  9
$PSLTSCALE
 70
     1
  0
ENDSEC
  0
SECTION
  2
TABLES
  0
TABLE
  2
VPORT
 70
     1
  0
VPORT
  2
*ACTIVE
 70
     0
 10
0.0
 20
0.0
 11
1.0
 21
1.0
 12
693.45138878934199
 22
596.42995380219622
 13
0.0
 23
0.0
 14
12.5
 24
12.5
 15
50.0
 25
50.0
 16
0.0
 26
0.0
 36
1.0
 17
0.0
 27
0.0
 37
0.0
 40
705.27586469952712
 41
1.7571592210767459
 42
50.0
 43
0.0
 44
0.0
 50
0.0
 51
0.0
 71
     0
 72
   100
 73
     1
 74
     3
 75
     0
 76
     0
 77
     0
 78
     0
  0
ENDTAB
  0
TABLE
  2
LTYPE
 70
    26
  0
LTYPE
  2
CONTINUOUS
 70
     0
  3
Solid line
 72
    65
 73
     0
 40
0.0
  0
LTYPE
  2
AM_ISO02W050
 70
     0
  3
__ __ __ __ __ __ __ __ __ __ __ __ __ __ __
 72
    65
 73
     2
 40
7.5
 49
6.0
 49
-1.5
  0
LTYPE
  2
AM_ISO08W050
 70
     0
  3
____ . ____ . ____ . ____ . ____ . ____ . ____
 72
    65
 73
     4
 40
18.0
 49
12.0
 49
-1.5
 49
3.0
 49
-1.5
  0
LTYPE
  2
AM_ISO09W050
 70
     0
  3
_____ . . _____ . . _____ . . ____ .. ____
 72
    65
 73
     6
 40
22.5
 49
12.0
 49
-1.5
 49
3.0
 49
-1.5
 49
3.0
 49
-1.5
  0
LTYPE
  2
AMCONSTR
 70
     0
  3
_______________________
 72
    65
 73
     2
 40
9999.0
 49
9999.0
 49
0.0
  0
LTYPE
  2
AM_ISO08W050X2
 70
     0
  3
__ . __ . __ . __ . __ . __
 72
    65
 73
     4
 40
9.0
 49
6.0
 49
-0.75
 49
1.5
 49
-0.75
  0
LTYPE
  2
AM_ISO02W050X2
 70
     0
  3
 _ _ _ _ _ _ _ _ _ _ _ _
 72
    65
 73
     2
 40
3.75
 49
3.0
 49
-0.75
  0
LTYPE
  2
AMZIGZAG
 70
     0
  3
/\/-/\/-/\/-/\/-/\/-/\/
 72
    65
 73
     2
 40
11.000099999999991
 49
0.0001
 49
-11.0
  0
LTYPE
  2
ACISOWELD
 70
     0
  3
_ _ _ _ _
 72
    65
 73
     2
 40
2.0
 49
2.0
 49
-1.0
  0
LTYPE
  2
ACISOTGB
 70
     0
  3
__ . . __ . .
 72
    65
 73
     6
 40
9.0
 49
4.0
 49
-1.0
 49
1.0
 49
-1.0
 49
1.0
 49
-1.0
  0
LTYPE
  2
ACISOTGL
 70
     0
  3
_ _ _ _ _
 72
    65
 73
     2
 40
3.0
 49
2.0
 49
-1.0
  0
LTYPE
  2
CENTER
 70
     0
  3
__ . __
 72
    65
 73
     4
 40
7.0
 49
4.0
 49
-1.0
 49
1.0
 49
-1.0
  0
LTYPE
  2
PHANTOM2
 70
     0
  3
Phantom (.5x) ___ _ _ ___ _ _ ___ _ _ ___ _ _
 72
    65
 73
     6
 40
31.75
 49
15.875
 49
-3.174999999999998
 49
3.174999999999998
 49
-3.174999999999998
 49
3.174999999999998
 49
-3.174999999999998
  0
LTYPE
  2
ACANSTGBM
 70
     0
  3
__ . . __ . .
 72
    65
 73
     6
 40
9.0
 49
4.0
 49
-1.0
 49
1.0
 49
-1.0
 49
1.0
 49
-1.0
  0
LTYPE
  2
ACANSTGLM
 70
     0
  3
_ _ _ _ _
 72
    65
 73
     2
 40
3.0
 49
2.0
 49
-1.0
  0
LTYPE
  2
GEN7
 70
     0
  3
____ . ____ . ____ . ____ . ____ . ____ . ____
 72
    65
 73
     4
 40
14.25
 49
9.75
 49
-1.5
 49
1.5
 49
-1.5
  0
LTYPE
  2
GEN7A
 70
     0
  3
__ . __ . __
 72
    65
 73
     4
 40
7.375
 49
4.75
 49
-0.875
 49
0.875
 49
-0.875
  0
LTYPE
  2
ACJISTGB
 70
     0
  3
__ . . __ . .
 72
    65
 73
     6
 40
9.0
 49
4.0
 49
-1.0
 49
1.0
 49
-1.0
 49
1.0
 49
-1.0
  0
LTYPE
  2
ACJISTGL
 70
     0
  3
_ _ _ _ _
 72
    65
 73
     2
 40
3.0
 49
2.0
 49
-1.0
  0
LTYPE
  2
HIDDEN
 70
     0
  3
Hidden __ __ __ __ __ __ __ __ __ __ __ __ __ _
 72
    65
 73
     2
 40
0.375
 49
0.25
 49
-0.125
  0
LTYPE
  2
CENTER2
 70
     0
  3
Center (.5x) ___ _ ___ _ ___ _ ___ _ ___ _ ___
 72
    65
 73
     4
 40
1.125
 49
0.75
 49
-0.125
 49
0.125
 49
-0.125
  0
LTYPE
  2
HIDDEN2
 70
     0
  3
Hidden (.5x) _ _ _ _ _ _ _ _ _ _ _ _ _ _ _ _ _
 72
    65
 73
     2
 40
0.1875
 49
0.125
 49
-0.0625
  0
LTYPE
  2
AMZIGZAG2
 70
     0
  3
/\/-/\/-/\/-/\/-/\/-/\/
 72
    65
 73
     2
 40
0.4401
 49
0.0001
 49
-0.4400000000000002
  0
LTYPE
  2
ACANSTGB
 70
     0
  3
__ . . __ . .
 72
    65
 73
     6
 40
0.35433070866
 49
0.15748031496
 49
-0.03937007874
 49
0.03937007874
 49
-0.03937007874
 49
0.03937007874
 49
-0.03937007874
  0
LTYPE
  2
ACANSTGL
 70
     0
  3
_ _ _ _ _
 72
    65
 73
     2
 40
0.11811023622
 49
0.07874015748
 49
-0.03937007874
  0
ENDTAB
  0
TABLE
  2
LAYER
 70
     6
  0
LAYER
  2
0
 70
     0
 62
     7
  6
CONTINUOUS
  0
LAYER
  2
AM_0
 70
     0
 62
     7
  6
CONTINUOUS
  0
LAYER
  2
AM_5
 70
     0
 62
     2
  6
CONTINUOUS
  0
LAYER
  2
DEFPOINTS
 70
     0
 62
     7
  6
CONTINUOUS
  0
LAYER
  2
ﾁｭｳｼﾝｾﾝ
 70
     0
 62
     1
  6
GEN7
  0
LAYER
  2
ﾁｭｳｼﾝｾﾝ1
 70
     0
 62
     1
  6
GEN7A
  0
ENDTAB
  0
TABLE
  2
STYLE
 70
     9
  0
STYLE
  2
STANDARD
 70
     0
 40
0.0
 41
0.8299999999999999
 50
0.0
 71
     0
 42
2.5
  3
txt.shx
  4
bigfont.shx
  0
STYLE
  2
ANNOTATIVE
 70
     0
 40
0.0
 41
1.0
 50
0.0
 71
     0
 42
0.2
  3
txt
  4

  0
STYLE
  2

 70
     1
 40
0.0
 41
1.0
 50
0.0
 71
     0
 42
2.5
  3
ltypeshp.shx
  4

  0
STYLE
  2
ACISOTS
 70
     0
 40
1.0
 41
1.0
 50
0.0
 71
     0
 42
2.5
  3
isocp.shx
  4
extfont.shx
  0
STYLE
  2
ACISOGDT
 70
     0
 40
0.0
 41
1.0
 50
0.0
 71
     0
 42
2.5
  3
amgdt.shx
  4

  0
STYLE
  2
ACANSTS
 70
     0
 40
1.0
 41
1.0
 50
0.0
 71
     0
 42
2.5
  3
romans.shx
  4
bigfont.shx
  0
STYLE
  2
ACANSGDT
 70
     0
 40
0.0
 41
1.0
 50
0.0
 71
     0
 42
2.5
  3
amgdt.shx
  4

  0
STYLE
  2
ACJISTS
 70
     0
 40
1.0
 41
1.0
 50
0.0
 71
     0
 42
2.5
  3
isocp.shx
  4
bigfont.shx
  0
STYLE
  2
ACJISGDT
 70
     0
 40
0.0
 41
1.0
 50
0.0
 71
     0
 42
2.5
  3
amgdt.shx
  4

  0
ENDTAB
  0
TABLE
  2
VIEW
 70
     6
  0
VIEW
  2
AM_VIEW1
 70
     0
 40
462.5
 10
416.07965009208078
 20
693.75
 41
832.15930018416213
 11
0.0
 21
0.0
 31
1.0
 12
0.0
 22
0.0
 32
0.0
 42
50.0
 43
0.0
 44
0.0
 50
0.0
 71
     0
  0
VIEW
  2
AM_VIEW2
 70
     0
 40
462.5
 10
1006.420349907918
 20
693.75
 41
832.15930018416213
 11
0.0
 21
0.0
 31
1.0
 12
0.0
 22
0.0
 32
0.0
 42
50.0
 43
0.0
 44
0.0
 50
0.0
 71
     0
  0
VIEW
  2
AM_VIEW3
 70
     0
 40
462.5
 10
416.07965009208078
 20
231.25
 41
832.15930018416213
 11
0.0
 21
0.0
 31
1.0
 12
0.0
 22
0.0
 32
0.0
 42
50.0
 43
0.0
 44
0.0
 50
0.0
 71
     0
  0
VIEW
  2
AM_VIEW4
 70
     0
 40
462.5
 10
1006.420349907918
 20
231.25
 41
832.15930018416213
 11
0.0
 21
0.0
 31
1.0
 12
0.0
 22
0.0
 32
0.0
 42
50.0
 43
0.0
 44
0.0
 50
0.0
 71
     0
  0
VIEW
  2
AM_VIEW5
 70
     0
 40
462.5
 10
711.24999999999966
 20
462.5
 41
832.15930018416179
 11
0.0
 21
0.0
 31
1.0
 12
0.0
 22
0.0
 32
0.0
 42
50.0
 43
0.0
 44
0.0
 50
0.0
 71
     0
  0
VIEW
  2
AM_VIEW6
 70
     0
 40
924.99075000000005
 10
711.24999999999966
 20
462.5
 41
1664.3019571823199
 11
0.0
 21
0.0
 31
1.0
 12
0.0
 22
0.0
 32
0.0
 42
50.0
 43
0.0
 44
0.0
 50
0.0
 71
     0
  0
ENDTAB
  0
TABLE
  2
UCS
 70
     0
  0
ENDTAB
  0
TABLE
  2
APPID
 70
    95
  0
APPID
  2
ACAD
 70
     0
  0
APPID
  2
ACADANNOTATIVE
 70
     0
  0
APPID
  2
MCAD_NO_VIS
 70
     0
  0
APPID
  2
ACAD_TEMP_GRAPHIC
 70
     0
  0
APPID
  2
ACATTRIBSERVICES
 70
     0
  0
APPID
  2
GENIUS_GENREC_14
 70
     0
  0
APPID
  2
GENIUS_GENOBJ-N-REC_13
 70
     0
  0
APPID
  2
GENIUS_GENODEF_13
 70
     0
  0
APPID
  2
GENIUS_GENOLIS_13
 70
     0
  0
APPID
  2
GENIUS_GENOBJ-N-TIT_13
 70
     0
  0
APPID
  2
GENIUS_GENOENT_13
 70
     0
  0
APPID
  2
GENIUS_GENTITLE_13
 70
     0
  0
APPID
  2
GENIUS_GENOREF_13
 70
     0
  0
APPID
  2
GENIUS_GENSCREG_15
 70
     0
  0
APPID
  2
GENIUS_GENOBJ-N-SDF_13
 70
     0
  0
APPID
  2
GENIUS_GENFIL_13
 70
     0
  0
APPID
  2
GENIUS_GENOBJ-N-CHA_13
 70
     0
  0
APPID
  2
GENIUS_GENDTOL_13
 70
     0
  0
APPID
  2
GENIUS_GENOBJ-N-FIL_13
 70
     0
  0
APPID
  2
AD_DRAW
 70
     0
  0
APPID
  2
DESIGNERASSEMBLIES
 70
     0
  0
APPID
  2
ASURF_PCURVE_APPNAME
 70
     0
  0
APPID
  2
GENIUS_GE3SECT_13
 70
     0
  0
APPID
  2
GENIUS_GENCFG_13
 70
     0
  0
APPID
  2
GENIUS_GE3CFG0_13
 70
     0
  0
APPID
  2
GENIUS_GENCFG0_13
 70
     0
  0
APPID
  2
GENIUS_GENCFG1_13
 70
     0
  0
APPID
  2
GENIUS_GENCFG2_13
 70
     0
  0
APPID
  2
GENIUS_GENCFG3_13
 70
     0
  0
APPID
  2
GENIUS_GENCFG4_13
 70
     0
  0
APPID
  2
GENIUS_GEVCFG0_13
 70
     0
  0
APPID
  2
GENIUS_GENHINW_13
 70
     0
  0
APPID
  2
GENIUS_FIRSTVISTXT_14
 70
     0
  0
APPID
  2
GENIUS_GENOBJ-N-LEADER_13
 70
     0
  0
APPID
  2
GEV_VCCNULL_SWITCH_OFF
 70
     0
  0
APPID
  2
GENIUS_GEFCFG0_13
 70
     0
  0
APPID
  2
GENIUS_GENZVEED_13
 70
     0
  0
APPID
  2
GENIUS_GENSCREG_13
 70
     0
  0
APPID
  2
GENIUS_DUMCFG0_13
 70
     0
  0
APPID
  2
GEVID936201362
 70
     0
  0
APPID
  2
GEVDC
 70
     0
  0
APPID
  2
GEVCON
 70
     0
  0
APPID
  2
VCC
 70
     0
  0
APPID
  2
GEVPT
 70
     0
  0
APPID
  2
GEVIT
 70
     0
  0
APPID
  2
GENBH
 70
     0
  0
APPID
  2
GEVMK
 70
     0
  0
APPID
  2
GENIUS_GENBH_13
 70
     0
  0
APPID
  2
GENIUS_GENOBJ-NBEHI-BHF_13
 70
     0
  0
APPID
  2
GENIUS_GENOBJ-NBEHI-BHB_13
 70
     0
  0
APPID
  2
GENIUS_GENOBJ-F-DESC_13
 70
     0
  0
APPID
  2
GENIUS_GEFDESC_14
 70
     0
  0
APPID
  2
GENIUS_GENOBJ-F-PART_13
 70
     0
  0
APPID
  2
GENIUS_GEFSTDP_13
 70
     0
  0
APPID
  2
GENIUS_GEFPARTINS_13
 70
     0
  0
APPID
  2
GENIUS_GENTRA_14
 70
     0
  0
APPID
  2
GENIUS_GENINF13_13
 70
     0
  0
APPID
  2
GENIUS_GENOBJ-N-INFOPT_13
 70
     0
  0
APPID
  2
GENIUS_GENOBJ-N-RSSYM_13
 70
     0
  0
APPID
  2
GENIUS_GENSYMENT_13
 70
     0
  0
APPID
  2
GENIUS_GENSCSYM_13
 70
     0
  0
APPID
  2
GENIUS_GEFINFNAM_13
 70
     0
  0
APPID
  2
GENIUS_GENOBJ-N-CEN_13
 70
     0
  0
APPID
  2
GENIUS_GENOBJ-N-CRS_13
 70
     0
  0
APPID
  2
GENIUS_GENOBJ-N-CRC_13
 70
     0
  0
APPID
  2
GENIUS_GENCRC_14
 70
     0
  0
APPID
  2
GEVID942827039
 70
     0
  0
APPID
  2
GEVID942827040
 70
     0
  0
APPID
  2
GEVID942827041
 70
     0
  0
APPID
  2
GENIUS_GENOBJ-F-SCPASSM_13
 70
     0
  0
APPID
  2
GENIUS_GENDIMSH_14
 70
     0
  0
APPID
  2
GEVID942827042
 70
     0
  0
APPID
  2
GEVID946020473
 70
     0
  0
APPID
  2
GEVID946020474
 70
     0
  0
APPID
  2
GEVID946020475
 70
     0
  0
APPID
  2
GENIUS_GENOBJ-N-HTC_13
 70
     0
  0
APPID
  2
GENIUS_GENHATCH_13
 70
     0
  0
APPID
  2
GEVID948854295
 70
     0
  0
APPID
  2
GEVID939402019
 70
     0
  0
APPID
  2
GEVID952919491
 70
     0
  0
APPID
  2
GEVID952919492
 70
     0
  0
APPID
  2
GENIUS_GEFWELD_13
 70
     0
  0
APPID
  2
GENIUS_GENOBJ-F-WELS_13
 70
     0
  0
APPID
  2
GEVID952919493
 70
     0
  0
APPID
  2
GENIUS_GENOBJ-N-RSBK_13
 70
     0
  0
APPID
  2
GENIUS_GENOBJ-N-LIB_13
 70
     0
  0
APPID
  2
GENIUS_GENSCALE_13
 70
     0
  0
APPID
  2
GEVID986376691
 70
     0
  0
APPID
  2
DCO15
 70
     0
  0
APPID
  2
ACAD_DSTYLE_DIMBREAK
 70
     0
  0
APPID
  2
ACAD_DSTYLE_DIMJAG
 70
     0
  0
APPID
  2
ACAD_NAV_VCDISPLAY
 70
     0
  0
APPID
  2
ACADANNOPO
 70
     0
  0
APPID
  2
ACAD_EXEMPT_FROM_CAD_STANDARDS
 70
     0
  0
APPID
  2
ACAD_MLEADERVER
 70
     0
  0
ENDTAB
  0
TABLE
  2
DIMSTYLE
 70
    22
  0
DIMSTYLE
  2
STANDARD
 70
     0
  3

  4

  5

  6

  7

 40
1.0
 41
0.18
 42
0.0625
 43
0.38
 44
0.18
 45
0.0
 46
0.0
 47
0.0
 48
0.0
140
0.18
141
0.09
142
0.0
143
25.399999999999999
144
1.0
145
0.0
146
1.0
147
0.09
 71
     0
 72
     0
 73
     1
 74
     1
 75
     0
 76
     0
 77
     0
 78
     0
170
     0
171
     2
172
     0
173
     0
174
     0
175
     0
176
     0
177
     0
178
     0
  0
DIMSTYLE
  2
ANNOTATIVE
 70
     0
  3

  4

  5

  6

  7

 40
1.0
 41
0.18
 42
0.0625
 43
0.38
 44
0.18
 45
0.0
 46
0.0
 47
0.0
 48
0.0
140
0.18
141
0.09
142
0.0
143
25.399999999999999
144
1.0
145
0.0
146
1.0
147
0.09
 71
     0
 72
     0
 73
     1
 74
     1
 75
     0
 76
     0
 77
     0
 78
     0
170
     0
171
     2
172
     0
173
     0
174
     0
175
     0
176
     0
177
     0
178
     0
  0
DIMSTYLE
  2
AM_ISO
 70
     0
  3

  4
"
  5

  6

  7

 40
1.0
 41
2.5
 42
1.0
 43
8.0
 44
0.6
 45
0.0
 46
0.0
 47
0.1
 48
0.1
140
2.5
141
0.0
142
0.0
143
0.0393701
144
1.0
145
0.0
146
0.71
147
0.8
 71
     0
 72
     0
 73
     0
 74
     0
 75
     0
 76
     0
 77
     1
 78
     8
170
     0
171
     2
172
     1
173
     0
174
     0
175
     0
176
   256
177
   256
178
     4
  0
DIMSTYLE
  2
AM_ISO$3
 70
     0
  3

  4
"
  5

  6

  7

 40
1.0
 41
2.5
 42
1.0
 43
8.0
 44
0.6
 45
0.0
 46
0.0
 47
0.1
 48
0.1
140
2.5
141
0.0
142
0.0
143
0.0393701
144
1.0
145
0.0
146
0.71
147
0.8
 71
     0
 72
     0
 73
     0
 74
     1
 75
     0
 76
     0
 77
     1
 78
     8
170
     0
171
     2
172
     0
173
     0
174
     0
175
     0
176
   256
177
   256
178
     4
  0
DIMSTYLE
  2
AM_ISO$4
 70
     0
  3

  4
"
  5

  6

  7

 40
1.0
 41
2.5
 42
1.0
 43
8.0
 44
0.6
 45
0.0
 46
0.0
 47
0.1
 48
0.1
140
2.5
141
0.0
142
0.0
143
0.0393701
144
1.0
145
0.0
146
0.71
147
0.8
 71
     0
 72
     0
 73
     0
 74
     1
 75
     0
 76
     0
 77
     1
 78
     8
170
     0
171
     2
172
     0
173
     0
174
     0
175
     0
176
   256
177
   256
178
     4
  0
DIMSTYLE
  2
AM_ISO$6
 70
     0
  3

  4
"
  5

  6

  7

 40
1.0
 41
2.5
 42
1.0
 43
8.0
 44
0.6
 45
0.0
 46
0.0
 47
0.1
 48
0.1
140
2.5
141
0.0
142
0.0
143
0.0393701
144
1.0
145
0.0
146
0.71
147
0.8
 71
     0
 72
     0
 73
     0
 74
     0
 75
     0
 76
     0
 77
     0
 78
     8
170
     0
171
     2
172
     1
173
     0
174
     0
175
     0
176
   256
177
   256
178
     4
  0
DIMSTYLE
  2
AM_ISO$7
 70
     0
  3

  4
"
  5

  6

  7

 40
1.0
 41
2.5
 42
1.0
 43
8.0
 44
0.6
 45
0.0
 46
0.0
 47
0.1
 48
0.1
140
2.5
141
0.0
142
0.0
143
0.0393701
144
1.0
145
0.0
146
0.71
147
0.8
 71
     0
 72
     0
 73
     0
 74
     0
 75
     0
 76
     0
 77
     1
 78
     8
170
     0
171
     2
172
     1
173
     0
174
     0
175
     0
176
   256
177
   256
178
     4
  0
DIMSTYLE
  2
AM_ISO$SF
 70
     0
  3

  4
"
  5

  6

  7

 40
1.0
 41
2.5
 42
1.0
 43
10.0
 44
1.0
 45
0.0
 46
0.0
 47
0.1
 48
0.1
140
3.5
141
0.0
142
0.0
143
0.0393701
144
1.0
145
0.0
146
0.71
147
1.5
 71
     0
 72
     0
 73
     0
 74
     0
 75
     1
 76
     1
 77
     1
 78
     8
170
     0
171
     2
172
     1
173
     0
174
     0
175
     0
176
   256
177
   256
178
     2
  0
DIMSTYLE
  2
AM_ISO$SH
 70
     0
  3

  4
"
  5

  6

  7

 40
1.0
 41
2.5
 42
1.0
 43
10.0
 44
1.0
 45
0.0
 46
0.0
 47
0.1
 48
0.1
140
3.5
141
0.0
142
0.0
143
0.0393701
144
2.0
145
0.0
146
0.71
147
1.5
 71
     0
 72
     0
 73
     0
 74
     0
 75
     1
 76
     1
 77
     1
 78
     8
170
     0
171
     2
172
     1
173
     1
174
     0
175
     0
176
   256
177
   256
178
     2
  0
DIMSTYLE
  2
AM_JIS
 70
     0
  3

  4
"
  5

  6

  7

 40
1.0
 41
2.5
 42
1.0
 43
7.0
 44
1.0
 45
0.0
 46
0.0
 47
0.1
 48
0.1000000001
140
2.5
141
0.0
142
0.0
143
0.0393701
144
1.0
145
0.0
146
0.71
147
1.0
 71
     0
 72
     0
 73
     0
 74
     0
 75
     0
 76
     0
 77
     3
 78
     8
170
     0
171
     2
172
     1
173
     0
174
     0
175
     0
176
   256
177
   256
178
     4
  0
DIMSTYLE
  2
AM_JIS$3
 70
     0
  3

  4
"
  5

  6

  7

 40
1.0
 41
2.5
 42
1.0
 43
7.0
 44
1.0
 45
0.0
 46
0.0
 47
0.1
 48
0.1000000001
140
2.5
141
0.0
142
0.0
143
0.0393701
144
1.0
145
0.0
146
0.71
147
1.0
 71
     0
 72
     0
 73
     0
 74
     1
 75
     0
 76
     0
 77
     3
 78
     8
170
     0
171
     2
172
     0
173
     0
174
     0
175
     0
176
   256
177
   256
178
     4
  0
DIMSTYLE
  2
AM_JIS$4
 70
     0
  3

  4
"
  5

  6

  7

 40
1.0
 41
2.5
 42
1.0
 43
7.0
 44
1.0
 45
0.0
 46
0.0
 47
0.1
 48
0.1000000001
140
2.5
141
0.0
142
0.0
143
0.0393701
144
1.0
145
0.0
146
0.71
147
1.0
 71
     0
 72
     0
 73
     0
 74
     0
 75
     0
 76
     0
 77
     3
 78
     8
170
     0
171
     2
172
     0
173
     0
174
     0
175
     0
176
   256
177
   256
178
     4
  0
DIMSTYLE
  2
AM_JIS$6
 70
     0
  3

  4
"
  5

  6

  7

 40
1.0
 41
2.5
 42
1.0
 43
7.0
 44
1.0
 45
0.0
 46
0.0
 47
0.1
 48
0.1000000001
140
2.5
141
0.0
142
0.0
143
0.0393701
144
1.0
145
0.0
146
0.71
147
1.0
 71
     0
 72
     0
 73
     0
 74
     0
 75
     0
 76
     0
 77
     0
 78
     8
170
     0
171
     2
172
     1
173
     0
174
     0
175
     0
176
   256
177
   256
178
     4
  0
DIMSTYLE
  2
AM_JIS$7
 70
     0
  3

  4
"
  5

  6

  7

 40
1.0
 41
2.5
 42
1.0
 43
7.0
 44
1.0
 45
0.0
 46
0.0
 47
0.1
 48
0.1000000001
140
2.5
141
0.0
142
0.0
143
0.0393701
144
1.0
145
0.0
146
0.71
147
1.0
 71
     0
 72
     0
 73
     0
 74
     0
 75
     0
 76
     0
 77
     3
 78
     8
170
     0
171
     2
172
     1
173
     0
174
     0
175
     0
176
   256
177
   256
178
     4
  0
DIMSTYLE
  2
AM_JIS$SF
 70
     0
  3

  4
"
  5

  6

  7

 40
1.0
 41
2.5
 42
1.0
 43
10.0
 44
1.0
 45
0.0
 46
0.0
 47
0.1
 48
0.1
140
3.5
141
0.0
142
0.0
143
0.0393701
144
1.0
145
0.0
146
0.71
147
1.5
 71
     0
 72
     0
 73
     0
 74
     0
 75
     1
 76
     1
 77
     3
 78
     8
170
     0
171
     2
172
     1
173
     0
174
     0
175
     0
176
   256
177
   256
178
     4
  0
DIMSTYLE
  2
AM_JIS$SH
 70
     0
  3

  4
"
  5

  6

  7

 40
1.0
 41
2.5
 42
1.0
 43
10.0
 44
1.0
 45
0.0
 46
0.0
 47
0.1
 48
0.1
140
3.5
141
0.0
142
0.0
143
0.0393701
144
1.0
145
0.0
146
0.71
147
1.5
 71
     0
 72
     0
 73
     0
 74
     0
 75
     1
 76
     0
 77
     3
 78
     8
170
     0
171
     2
172
     1
173
     1
174
     0
175
     0
176
   256
177
   256
178
     4
  0
DIMSTYLE
  2
AM_ANSI
 70
     0
  3

  4
mm
  5

  6

  7

 40
1.0
 41
0.1
 42
0.05
 43
0.5
 44
0.1
 45
0.0
 46
0.0
 47
0.1
 48
0.1
140
0.12
141
0.0
142
0.0
143
25.399999999999999
144
1.0
145
0.0
146
0.71
147
0.06
 71
     0
 72
     0
 73
     1
 74
     1
 75
     0
 76
     0
 77
     0
 78
     7
170
     0
171
     2
172
     0
173
     0
174
     0
175
     0
176
   256
177
   256
178
     2
  0
DIMSTYLE
  2
AM_ANSI$3
 70
     0
  3

  4
mm
  5

  6

  7

 40
1.0
 41
0.1
 42
0.05
 43
0.5
 44
0.1
 45
0.0
 46
0.0
 47
0.1
 48
0.1
140
0.12
141
0.0
142
0.0
143
25.399999999999999
144
1.0
145
0.0
146
0.71
147
0.06
 71
     0
 72
     0
 73
     1
 74
     1
 75
     0
 76
     0
 77
     0
 78
     7
170
     0
171
     2
172
     0
173
     0
174
     0
175
     0
176
   256
177
   256
178
     2
  0
DIMSTYLE
  2
AM_ANSI$4
 70
     0
  3

  4
mm
  5

  6

  7

 40
1.0
 41
0.1
 42
0.05
 43
0.5
 44
0.1
 45
0.0
 46
0.0
 47
0.1
 48
0.1
140
0.12
141
0.0
142
0.0
143
25.399999999999999
144
1.0
145
0.0
146
0.71
147
0.06
 71
     0
 72
     0
 73
     1
 74
     1
 75
     0
 76
     0
 77
     0
 78
     7
170
     0
171
     2
172
     0
173
     0
174
     0
175
     0
176
   256
177
   256
178
     2
  0
DIMSTYLE
  2
AM_ANSI$7
 70
     0
  3

  4
mm
  5

  6

  7

 40
1.0
 41
0.1
 42
0.05
 43
0.5
 44
0.1
 45
0.0
 46
0.0
 47
0.1
 48
0.1
140
0.24
141
0.0
142
0.0
143
25.399999999999999
144
1.0
145
0.0
146
0.71
147
0.06
 71
     0
 72
     0
 73
     1
 74
     1
 75
     0
 76
     0
 77
     0
 78
     7
170
     0
171
     2
172
     0
173
     0
174
     0
175
     0
176
   256
177
   256
178
     2
  0
DIMSTYLE
  2
AM_ANSI$SF
 70
     0
  3

  4
mm
  5

  6

  7

 40
1.0
 41
0.1
 42
0.05
 43
0.5
 44
0.1
 45
0.0
 46
0.0
 47
0.1
 48
0.1
140
0.12
141
0.0
142
0.0
143
25.399999999999999
144
1.0
145
0.0
146
0.71
147
0.06
 71
     0
 72
     0
 73
     1
 74
     1
 75
     1
 76
     1
 77
     0
 78
     7
170
     0
171
     2
172
     0
173
     0
174
     0
175
     0
176
   256
177
   256
178
     2
  0
DIMSTYLE
  2
AM_ANSI$SH
 70
     0
  3

  4
mm
  5

  6

  7

 40
1.0
 41
0.1
 42
0.05
 43
0.5
 44
0.1
 45
0.0
 46
0.0
 47
0.1
 48
0.1
140
0.12
141
0.0
142
0.0
143
25.399999999999999
144
1.0
145
0.0
146
0.71
147
0.06
 71
     0
 72
     0
 73
     1
 74
     1
 75
     1
 76
     1
 77
     0
 78
     7
170
     0
171
     2
172
     0
173
     1
174
     0
175
     0
176
   256
177
   256
178
     2
  0
ENDTAB
  0
ENDSEC
  0
SECTION
  2
BLOCKS
  0
BLOCK
  8
0
  2
$MODEL_SPACE
 70
     0
 10
0.0
 20
0.0
 30
0.0
  3
$MODEL_SPACE
  1

  0
ENDBLK
  5
32F2
  8
0
  0
BLOCK
 67
     1
  8
0
  2
$PAPER_SPACE
 70
     0
 10
0.0
 20
0.0
 30
0.0
  3
$PAPER_SPACE
  1

  0
ENDBLK
  5
32EE
 67
     1
  8
0
  0
BLOCK
  8
0
  2
GENAXEH
 70
     0
 10
0.0
 20
0.0
 30
0.0
  3
GENAXEH
  1

  0
LINE
  5
3079
  8
0
 10
-1.0
 20
0.0
 30
0.0
 11
1.0
 21
0.0
 31
0.0
  0
ENDBLK
  5
307A
  8
0
  0
BLOCK
  8
0
  2
_OPEN30
 70
     0
 10
0.0
 20
0.0
 30
0.0
  3
_OPEN30
  1

  0
LINE
  5
307D
  8
0
 62
     0
 10
-1.0
 20
0.26794919
 30
0.0
 11
0.0
 21
0.0
 31
0.0
  0
LINE
  5
307E
  8
0
 62
     0
 10
0.0
 20
0.0
 30
0.0
 11
-1.0
 21
-0.26794919
 31
0.0
  0
LINE
  5
307F
  8
0
 62
     0
 10
0.0
 20
0.0
 30
0.0
 11
-1.0
 21
0.0
 31
0.0
  0
ENDBLK
  5
3080
  8
0
  0
BLOCK
  8
0
  2
_NONE
 70
     0
 10
0.0
 20
0.0
 30
0.0
  3
_NONE
  1

  0
ENDBLK
  5
3083
  8
0
  0
BLOCK
  8
0
  2
*U5
 70
     1
 10
0.0
 20
0.0
 30
0.0
  3
*U5
  1

  0
TEXT
  5
3086
  8
AM_0
 62
     4
 10
844.58442160602965
 20
385.24961666666678
 30
0.0
 40
12.5
  1
\U+2205
 50
90.0
 41
0.8299999999999999
  0
TEXT
  5
3087
  8
AM_0
 62
     4
 10
844.58442160602965
 20
395.6246166666669
 30
0.0
 40
12.5
  1
240
 50
90.0
 41
0.8299999999999999
  0
TEXT
  5
3088
  8
AM_0
 62
     4
 10
844.58442160602965
 20
425.0204500000001
 30
0.0
 40
10.0
  1
h7
 50
90.0
 41
0.8299999999999999
  0
ENDBLK
  5
3089
  8
0
  0
BLOCK
  8
0
  2
*U6
 70
     1
 10
0.0
 20
0.0
 30
0.0
  3
*U6
  1

  0
TEXT
  5
308C
  8
AM_0
 62
     4
 10
376.8607019839788
 20
348.97878333333352
 30
0.0
 40
12.5
  1
\U+2205
 50
90.0
 41
0.8299999999999999
  0
TEXT
  5
308D
  8
AM_0
 62
     4
 10
376.8607019839788
 20
359.35378333333358
 30
0.0
 40
12.5
  1
180
 50
90.0
 41
0.8299999999999999
  0
TEXT
  5
308E
  8
AM_0
 62
     4
 10
376.8607019839788
 20
385.29128333333358
 30
0.0
 40
10.0
  1
G7
 50
90.0
 41
0.8299999999999999
  0
ENDBLK
  5
308F
  8
0
  0
BLOCK
  8
0
  2
*U7
 70
     1
 10
0.0
 20
0.0
 30
0.0
  3
*U7
  1

  0
TEXT
  5
3092
  8
AM_0
 62
     4
 10
347.72775955510872
 20
355.89545000000021
 30
0.0
 40
12.5
  1
\U+2205
 50
90.0
 41
0.8299999999999999
  0
TEXT
  5
3093
  8
AM_0
 62
     4
 10
347.72775955510872
 20
366.27045000000021
 30
0.0
 40
12.5
  1
250
 50
90.0
 41
0.8299999999999999
  0
ENDBLK
  5
3094
  8
0
  0
BLOCK
  8
0
  2
*U8
 70
     1
 10
0.0
 20
0.0
 30
0.0
  3
*U8
  1

  0
TEXT
  5
3097
  8
AM_0
 62
     4
 10
1081.4360811552131
 20
612.36586485062912
 30
0.0
 40
12.5
  1
o
 41
0.8299999999999999
  0
TEXT
  5
3098
  8
AM_0
 62
     4
 10
1093.7872716314041
 20
612.36586485062912
 30
0.0
 40
12.5
  1
 285
 41
0.8299999999999999
  0
ENDBLK
  5
3099
  8
0
  0
BLOCK
  8
0
  2
*U9
 70
     1
 10
0.0
 20
0.0
 30
0.0
  3
*U9
  1

  0
TEXT
  5
309C
  8
AM_0
 62
     4
 10
723.63491866452898
 20
395.41385389071769
 30
0.0
 40
12.5
  1
\U+2205
 50
90.0
 41
0.8299999999999999
  0
TEXT
  5
309D
  8
AM_0
 62
     4
 10
723.63491866452898
 20
405.78885389071758
 30
0.0
 40
12.5
  1
240
 50
90.0
 41
0.8299999999999999
  0
TEXT
  5
309E
  8
AM_0
 62
     4
 10
723.63491866452898
 20
435.184687224051
 30
0.0
 40
10.0
  1
h7
 50
90.0
 41
0.8299999999999999
  0
ENDBLK
  5
309F
  8
0
  0
BLOCK
  8
0
  2
*U10
 70
     1
 10
0.0
 20
0.0
 30
0.0
  3
*U10
  1

  0
TEXT
  5
30A2
  8
AM_0
 62
     4
 10
226.77825661360831
 20
366.05968722405089
 30
0.0
 40
12.5
  1
\U+2205
 50
90.0
 41
0.8299999999999999
  0
TEXT
  5
30A3
  8
AM_0
 62
     4
 10
226.77825661360831
 20
376.43468722405078
 30
0.0
 40
12.5
  1
250
 50
90.0
 41
0.8299999999999999
  0
ENDBLK
  5
30A4
  8
0
  0
BLOCK
  8
0
  2
*U11
 70
     1
 10
0.0
 20
0.0
 30
0.0
  3
*U11
  1

  0
TEXT
  5
30A7
  8
AM_0
 62
     4
 10
255.9111990424785
 20
359.14302055738432
 30
0.0
 40
12.5
  1
\U+2205
 50
90.0
 41
0.8299999999999999
  0
TEXT
  5
30A8
  8
AM_0
 62
     4
 10
255.9111990424785
 20
369.51802055738432
 30
0.0
 40
12.5
  1
180
 50
90.0
 41
0.8299999999999999
  0
TEXT
  5
30A9
  8
AM_0
 62
     4
 10
255.9111990424785
 20
395.45552055738432
 30
0.0
 40
10.0
  1
G7
 50
90.0
 41
0.8299999999999999
  0
ENDBLK
  5
30AA
  8
0
  0
BLOCK
  8
0
  2
*U12
 70
     1
 10
0.0
 20
0.0
 30
0.0
  3
*U12
  1

  0
TEXT
  5
30AD
  8
AM_0
 62
     4
 10
960.48657821371421
 20
622.53010207467969
 30
0.0
 40
12.5
  1
o
 41
0.8299999999999999
  0
TEXT
  5
30AE
  8
AM_0
 62
     4
 10
972.83776868990435
 20
622.53010207467969
 30
0.0
 40
12.5
  1
 285
 41
0.8299999999999999
  0
ENDBLK
  5
30AF
  8
0
  0
BLOCK
  8
0
  2
_ACMFILLEDHALF
 70
     0
 10
0.0
 20
0.0
 30
0.0
  3
_ACMFILLEDHALF
  1

  0
TRACE
  5
33F8
  8
AM_0
 62
     0
 10
-0.8
 20
0.0
 30
0.0
 11
-1.0
 21
0.166666666
 31
0.0
 12
0.0
 22
0.0
 32
0.0
 13
0.0
 23
0.0
 33
0.0
  0
LINE
  5
33F9
  8
AM_0
 62
     0
 10
-1.0
 20
0.0
 30
0.0
 11
-0.8
 21
0.0
 31
0.0
  0
ENDBLK
  5
33F7
  8
0
  0
ENDSEC
  0
SECTION
  2
ENTITIES
  0
ARC
  5
30B0
  8
AM_0
 10
593.76107974243075
 20
804.09153558056209
 30
0.0
 40
6.000003999999997
 50
90.00000299999769
 51
270.0
  0
LINE
  5
30B1
  8
AM_0
 10
579.76107974243075
 20
783.09165558056213
 30
0.0
 11
649.76100974243036
 21
783.09165558056213
 31
0.0
  0
LINE
  5
30B2
  8
AM_0
 10
579.76107974243075
 20
825.09165558056225
 30
0.0
 11
649.76100974243036
 21
825.09165558056225
 31
0.0
  0
LINE
  5
30B3
  8
ﾁｭｳｼﾝｾﾝ
 10
281.05106449415081
 20
804.09165558056168
 30
0.0
 11
661.27501974243069
 21
804.09165558056213
 31
0.0
  0
POLYLINE
  5
30B4
  8
AM_0
 66
     1
 10
0.0
 20
0.0
 30
0.0
  0
VERTEX
  5
30B5
  8
AM_0
 10
534.62527974243085
 20
855.65612558056216
 30
0.0
  0
VERTEX
  5
30B6
  8
AM_0
 10
532.68889174243066
 20
844.29156758056217
 30
0.0
  0
VERTEX
  5
30B7
  8
AM_0
 10
531.21822374243084
 20
832.85741158056192
 30
0.0
  0
VERTEX
  5
30B8
  8
AM_0
 10
530.21572974243065
 20
821.37273558056211
 30
0.0
  0
VERTEX
  5
30B9
  8
AM_0
 10
529.66837274243085
 20
807.54918758056215
 30
0.0
  0
VERTEX
  5
30BA
  8
AM_0
 10
529.83705974243082
 20
793.71583558056216
 30
0.0
  0
VERTEX
  5
30BB
  8
AM_0
 10
530.72133774243082
 20
779.90974458056223
 30
0.0
  0
VERTEX
  5
30BC
  8
AM_0
 10
532.31883774243056
 20
766.16790858056231
 30
0.0
  0
VERTEX
  5
30BD
  8
AM_0
 10
534.62527974243085
 20
752.52714558056232
 30
0.0
  0
SEQEND
  5
30BE
  8
AM_0
  0
ARC
  5
30BF
  8
AM_0
 10
441.7610797424307
 20
804.09165558056213
 30
0.0
 40
11.0
 50
201.32377999999781
 51
262.81880000000041
  0
ARC
  5
30C0
  8
AM_0
 10
441.7610797424307
 20
804.09165558056213
 30
0.0
 40
10.0
 50
203.5782699999985
 51
336.4217200000013
  0
LINE
  5
30C1
  8
AM_0
 10
577.76094974243074
 20
684.09165558056213
 30
0.0
 11
577.76094974243074
 21
924.09153558056244
 31
0.0
  0
LINE
  5
30C2
  8
AM_0
 10
563.76094974243074
 20
693.13426558056244
 30
0.0
 11
563.76094974243074
 21
915.04893558056165
 31
0.0
  0
LINE
  5
30C3
  8
AM_0
 10
573.76094974243074
 20
661.59165558056213
 30
0.0
 11
573.76094974243074
 21
946.59153558056232
 31
0.0
  0
LINE
  5
30C4
  8
AM_0
 10
555.76107974243075
 20
665.10056558056215
 30
0.0
 11
555.76107974243075
 21
943.06602558056181
 31
0.0
  0
LINE
  5
30C5
  8
AM_0
 10
579.76107974243075
 20
781.59165558056213
 30
0.0
 11
579.76107974243075
 21
826.59165558056168
 31
0.0
  0
LINE
  5
30C6
  8
AM_0
 10
397.2610797424307
 20
706.59165558056213
 30
0.0
 11
397.2610797424307
 21
901.59165558056168
 31
0.0
  0
LINE
  5
30C7
  8
AM_0
 10
430.7610797424307
 20
689.95048558056214
 30
0.0
 11
430.7610797424307
 21
800.09159558056217
 31
0.0
  0
LINE
  5
30C8
  8
AM_0
 10
457.7610797424307
 20
664.35362558056215
 30
0.0
 11
457.7610797424307
 21
800.09159558056217
 31
0.0
  0
LINE
  5
30C9
  8
AM_0
 10
433.24013974243047
 20
687.01261558056206
 30
0.0
 11
442.28194974243081
 21
685.41831558056185
 31
0.0
  0
LINE
  5
30CA
  8
AM_0
 10
399.2610797424307
 20
747.31584558056215
 30
0.0
 11
399.2610797424307
 21
720.47886558056211
 31
0.0
  0
LINE
  5
30CB
  8
AM_0
 10
397.2610797424307
 20
706.59159558056206
 30
0.0
 11
425.93544974243082
 21
705.59025558056214
 31
0.0
  0
ARC
  5
30CC
  8
AM_0
 10
433.7610797424307
 20
689.96702558056245
 30
0.0
 40
3.0
 50
179.68307000000101
 51
260.00000000000119
  0
LINE
  5
30CD
  8
AM_0
 10
399.2610797424307
 20
720.47886558056211
 30
0.0
 11
430.7610797424307
 21
720.47886558056211
 31
0.0
  0
LINE
  5
30CE
  8
AM_0
 10
399.2610797424307
 20
731.08543558056215
 30
0.0
 11
430.7610797424307
 21
731.08543558056215
 31
0.0
  0
ARC
  5
30CF
  8
AM_0
 10
425.7610797424307
 20
700.59336558056214
 30
0.0
 40
5.0
 50
0.0
 51
87.999999999996248
  0
LINE
  5
30D0
  8
AM_0
 10
399.2610797424307
 20
747.31584558056215
 30
0.0
 11
430.7610797424307
 21
747.31584558056215
 31
0.0
  0
LINE
  5
30D1
  8
AM_0
 10
444.76094974243063
 20
667.88181558056215
 30
0.0
 11
444.76094974243063
 21
794.55222558056232
 31
0.0
  0
LINE
  5
30D2
  8
AM_0
 10
457.76100974243082
 20
664.35362558056215
 30
0.0
 11
558.69454974243081
 21
662.1179655805621
 31
0.0
  0
LINE
  5
30D3
  8
AM_0
 10
457.7610797424307
 20
664.35362558056215
 30
0.0
 11
447.60396974243048
 21
664.88596558056213
 31
0.0
  0
ARC
  5
30D4
  8
AM_0
 10
447.76094974243051
 20
667.88181558056215
 30
0.0
 40
3.0
 50
180.00001000000091
 51
266.99999000000008
  0
LINE
  5
30D5
  8
AM_0
 10
558.65627974243046
 20
662.11900558056197
 30
0.0
 11
573.76100974243047
 21
661.59153558056232
 31
0.0
  0
ARC
  5
30D6
  8
AM_0
 10
558.76094974243074
 20
665.11717558056205
 30
0.0
 40
3.0
 50
179.9999899999988
 51
268.00000999999861
  0
LINE
  5
30D7
  8
AM_0
 10
457.7610797424307
 20
752.52708558056213
 30
0.0
 11
555.76107974243075
 21
752.52708558056213
 31
0.0
  0
LINE
  5
30D8
  8
AM_0
 10
553.32729974243057
 20
700.84495558056244
 30
0.0
 11
511.90871974243072
 21
725.61479558056215
 31
0.0
  0
LINE
  5
30D9
  8
AM_0
 10
457.7610797424307
 20
674.96128558056205
 30
0.0
 11
555.76107974243075
 21
671.53904558056206
 31
0.0
  0
LINE
  5
30DA
  8
AM_0
 10
513.44857974243075
 20
731.18955558056234
 30
0.0
 11
555.76107974243075
 21
731.18955558056234
 31
0.0
  0
ARC
  5
30DB
  8
AM_0
 10
513.44857974243075
 20
728.18955558056234
 30
0.0
 40
3.0
 50
90.00000299999769
 51
239.11901999999981
  0
LINE
  5
30DC
  8
AM_0
 10
457.7610797424307
 20
726.52586558056214
 30
0.0
 11
509.55672974243078
 21
726.52586558056214
 31
0.0
  0
LINE
  5
30DD
  8
AM_0
 10
446.69124974243073
 20
675.34782558056213
 30
0.0
 11
457.7610797424307
 21
674.96128558056205
 31
0.0
  0
ARC
  5
30DE
  8
AM_0
 10
441.7610797424307
 20
682.46391558056234
 30
0.0
 40
3.0
 50
0.0
 51
79.999998000001099
  0
ARC
  5
30DF
  8
AM_0
 10
446.7610797424307
 20
677.34666558056233
 30
0.0
 40
2.0
 50
179.9999899999988
 51
268.00000999999861
  0
LINE
  5
30E0
  8
AM_0
 10
444.76094974243063
 20
726.52586558056214
 30
0.0
 11
457.7610797424307
 21
726.52586558056214
 31
0.0
  0
ARC
  5
30E1
  8
AM_0
 10
509.55672974243078
 20
723.52586558056214
 30
0.0
 40
3.0
 50
59.11902300000196
 51
90.00000299999769
  0
LINE
  5
30E2
  8
AM_0
 10
444.76094974243063
 20
752.52708558056213
 30
0.0
 11
457.7610797424307
 21
752.52708558056213
 31
0.0
  0
ARC
  5
30E3
  8
AM_0
 10
439.76094974243051
 20
788.21714558056215
 30
0.0
 40
5.0
 50
0.0
 51
82.818802999995938
  0
POLYLINE
  5
30E4
  8
AM_0
 66
     1
 10
0.0
 20
0.0
 30
0.0
  0
VERTEX
  5
30E5
  8
AM_0
 10
548.10217974243085
 20
703.96967558056224
 30
0.0
  0
VERTEX
  5
30E6
  8
AM_0
 10
549.29547474243066
 20
700.75841158056244
 30
0.0
  0
VERTEX
  5
30E7
  8
AM_0
 10
550.52239974243082
 20
697.55984558056218
 30
0.0
  0
VERTEX
  5
30E8
  8
AM_0
 10
551.78268374243078
 20
694.37428258056207
 30
0.0
  0
VERTEX
  5
30E9
  8
AM_0
 10
553.07606974243083
 20
691.20201558056215
 30
0.0
  0
VERTEX
  5
30EA
  8
AM_0
 10
554.40226774243047
 20
688.04345458056218
 30
0.0
  0
VERTEX
  5
30EB
  8
AM_0
 10
555.76107974243075
 20
684.89878558056216
 30
0.0
  0
SEQEND
  5
30EC
  8
AM_0
  0
LINE
  5
30ED
  8
AM_0
 10
553.61360974243075
 20
707.08793558056209
 30
0.0
 11
521.11086974243074
 21
726.52580558056172
 31
0.0
  0
LINE
  5
30EE
  8
AM_0
 10
545.62960974243083
 20
731.18949558056215
 30
0.0
 11
555.76100974243082
 21
723.6313955805623
 31
0.0
  0
ARC
  5
30EF
  8
AM_0
 10
550.76107974243075
 20
696.55381558056217
 30
0.0
 40
5.0
 50
0.0
 51
59.11901699999779
  0
ARC
  5
30F0
  8
AM_0
 10
558.76094974243074
 20
693.13426558056244
 30
0.0
 40
5.0
 50
267.99999999999631
 51
0.0
  0
LINE
  5
30F1
  8
AM_0
 10
573.76094974243074
 20
684.09165558056213
 30
0.0
 11
577.76094974243074
 21
684.09165558056213
 31
0.0
  0
ARC
  5
30F2
  8
AM_0
 10
560.76107974243075
 20
737.95713558056173
 30
0.0
 40
5.0
 50
90.00000299999769
 51
180.00001000000091
  0
LINE
  5
30F3
  8
AM_0
 10
577.76094974243074
 20
781.59165558056213
 30
0.0
 11
579.76107974243075
 21
781.59165558056213
 31
0.0
  0
ARC
  5
30F4
  8
AM_0
 10
441.7610797424307
 20
804.09165558056213
 30
0.0
 40
11.0
 50
97.181195000004124
 51
158.67647999999841
  0
ARC
  5
30F5
  8
AM_0
 10
441.7610797424307
 20
804.09165558056213
 30
0.0
 40
10.0
 50
23.57803699999776
 51
156.42196000000081
  0
LINE
  5
30F6
  8
AM_0
 10
433.24007974243051
 20
921.17057558056194
 30
0.0
 11
442.28194974243081
 21
922.76493558056222
 31
0.0
  0
LINE
  5
30F7
  8
AM_0
 10
425.2610797424307
 20
808.09159558056217
 30
0.0
 11
458.2610797424307
 21
808.09159558056217
 31
0.0
  0
LINE
  5
30F8
  8
AM_0
 10
425.2610797424307
 20
800.09159558056217
 30
0.0
 11
458.2610797424307
 21
800.09159558056217
 31
0.0
  0
ARC
  5
30F9
  8
AM_0
 10
433.7610797424307
 20
918.21616558056223
 30
0.0
 40
3.0
 50
99.999999999998593
 51
180.31692999999879
  0
LINE
  5
30FA
  8
AM_0
 10
430.7610797424307
 20
808.09159558056217
 30
0.0
 11
430.7610797424307
 21
918.23277558056157
 31
0.0
  0
ARC
  5
30FB
  8
AM_0
 10
425.2610797424307
 20
804.09159558056172
 30
0.0
 40
3.999995999999999
 50
90.00000299999769
 51
270.0
  0
LINE
  5
30FC
  8
AM_0
 10
397.2610797424307
 20
901.59165558056168
 30
0.0
 11
425.93544974243082
 21
902.59300558056225
 31
0.0
  0
LINE
  5
30FD
  8
AM_0
 10
399.2610797424307
 20
860.86741558056235
 30
0.0
 11
430.7610797424307
 21
860.86741558056235
 31
0.0
  0
LINE
  5
30FE
  8
AM_0
 10
399.2610797424307
 20
887.70438558056219
 30
0.0
 11
430.7610797424307
 21
887.70438558056219
 31
0.0
  0
LINE
  5
30FF
  8
AM_0
 10
399.2610797424307
 20
877.09776558056183
 30
0.0
 11
430.7610797424307
 21
877.09776558056183
 31
0.0
  0
LINE
  5
3100
  8
AM_0
 10
399.2610797424307
 20
887.70438558056219
 30
0.0
 11
399.2610797424307
 21
860.86741558056235
 31
0.0
  0
ARC
  5
3101
  8
AM_0
 10
425.7610797424307
 20
907.58994558056224
 30
0.0
 40
5.0
 50
272.00000000000369
 51
0.0
  0
LINE
  5
3102
  8
AM_0
 10
555.76107974243075
 20
923.28440558056172
 30
0.0
 11
548.10224974243079
 21
904.21372558056225
 31
0.0
  0
LINE
  5
3103
  8
AM_0
 10
444.76094974243063
 20
813.6310255805621
 30
0.0
 11
444.76094974243063
 21
940.30137558056185
 31
0.0
  0
LINE
  5
3104
  8
AM_0
 10
457.7610797424307
 20
808.09159558056217
 30
0.0
 11
457.7610797424307
 21
943.82957558056194
 31
0.0
  0
LINE
  5
3105
  8
AM_0
 10
553.32729974243057
 20
907.3381755805616
 30
0.0
 11
511.90877974243051
 21
882.56840558056217
 31
0.0
  0
LINE
  5
3106
  8
AM_0
 10
457.7610797424307
 20
855.65611558056219
 30
0.0
 11
555.76107974243075
 21
855.65611558056219
 31
0.0
  0
LINE
  5
3107
  8
AM_0
 10
513.44857974243075
 20
876.99363558056245
 30
0.0
 11
555.76107974243075
 21
876.99363558056245
 31
0.0
  0
ARC
  5
3108
  8
AM_0
 10
458.2610797424307
 20
804.09159558056172
 30
0.0
 40
3.999995999999999
 50
270.0
 51
90.00000299999769
  0
ARC
  5
3109
  8
AM_0
 10
439.76094974243051
 20
819.96610558056216
 30
0.0
 40
5.0
 50
277.18119999999942
 51
0.0
  0
LINE
  5
310A
  8
AM_0
 10
444.76094974243063
 20
855.65617558056215
 30
0.0
 11
457.7610797424307
 21
855.65617558056215
 31
0.0
  0
LINE
  5
310B
  8
AM_0
 10
457.7610797424307
 20
881.65733558056172
 30
0.0
 11
509.55672974243078
 21
881.65733558056172
 31
0.0
  0
LINE
  5
310C
  8
AM_0
 10
444.76094974243063
 20
881.65739558056214
 30
0.0
 11
457.7610797424307
 21
881.65739558056214
 31
0.0
  0
ARC
  5
310D
  8
AM_0
 10
509.55672974243078
 20
884.65733558056218
 30
0.0
 40
3.0
 50
270.0
 51
300.88098000000002
  0
ARC
  5
310E
  8
AM_0
 10
513.44857974243075
 20
879.99363558056234
 30
0.0
 40
3.0
 50
120.8809700000043
 51
270.0
  0
LINE
  5
310F
  8
AM_0
 10
577.76094974243074
 20
826.59165558056168
 30
0.0
 11
579.76107974243075
 21
826.59165558056168
 31
0.0
  0
LINE
  5
3110
  8
AM_0
 10
545.62960974243083
 20
876.99369558056219
 30
0.0
 11
555.76100974243082
 21
884.55174558056183
 31
0.0
  0
LINE
  5
3111
  8
AM_0
 10
553.61360974243075
 20
901.09525558056157
 30
0.0
 11
521.11086974243074
 21
881.65739558056214
 31
0.0
  0
ARC
  5
3112
  8
AM_0
 10
560.76107974243075
 20
870.22605558056193
 30
0.0
 40
5.0
 50
179.9999899999988
 51
270.0
  0
ARC
  5
3113
  8
AM_0
 10
558.76094974243074
 20
915.04893558056165
 30
0.0
 40
5.0
 50
0.0
 51
91.999998000000545
  0
ARC
  5
3114
  8
AM_0
 10
550.76107974243075
 20
911.62937558056171
 30
0.0
 40
5.0
 50
300.88098000000002
 51
0.0
  0
LINE
  5
3115
  8
AM_0
 10
457.76100974243082
 20
933.22196558056157
 30
0.0
 11
555.76100974243082
 21
936.64420558056167
 31
0.0
  0
LINE
  5
3116
  8
AM_0
 10
457.76100974243082
 20
943.82957558056194
 30
0.0
 11
558.69454974243081
 21
946.06522558056156
 31
0.0
  0
LINE
  5
3117
  8
AM_0
 10
457.7610797424307
 20
943.82957558056194
 30
0.0
 11
447.60396974243048
 21
943.29728558056172
 31
0.0
  0
LINE
  5
3118
  8
AM_0
 10
446.69124974243073
 20
932.83543558056169
 30
0.0
 11
457.76100974243082
 21
933.22196558056157
 31
0.0
  0
ARC
  5
3119
  8
AM_0
 10
446.7610797424307
 20
930.83659558056172
 30
0.0
 40
2.0
 50
91.999998000000545
 51
180.00001000000091
  0
ARC
  5
311A
  8
AM_0
 10
441.7610797424307
 20
925.71934558056182
 30
0.0
 40
3.0
 50
280.00001000000128
 51
0.0
  0
ARC
  5
311B
  8
AM_0
 10
447.76094974243051
 20
940.30137558056185
 30
0.0
 40
3.0
 50
92.999999000001679
 51
180.00001000000091
  0
LINE
  5
311C
  8
AM_0
 10
558.65627974243046
 20
946.06419558056245
 30
0.0
 11
573.76094974243074
 21
946.59165558056156
 31
0.0
  0
ARC
  5
311D
  8
AM_0
 10
558.76094974243074
 20
943.06602558056181
 30
0.0
 40
3.0
 50
91.999998000000545
 51
180.00001000000091
  0
LINE
  5
311E
  8
AM_0
 10
573.76094974243074
 20
924.09153558056244
 30
0.0
 11
577.76094974243074
 21
924.09153558056244
 31
0.0
  0
LINE
  5
311F
  8
AM_0
 10
649.76100974243036
 20
783.09165558056213
 30
0.0
 11
649.76100974243036
 21
825.09165558056225
 31
0.0
  0
LINE
  5
3120
  8
AM_0
 10
593.76107974243075
 20
798.09153558056187
 30
0.0
 11
649.76100974243036
 21
798.09153558056187
 31
0.0
  0
LINE
  5
3121
  8
AM_0
 10
593.76107974243075
 20
810.09153558056209
 30
0.0
 11
649.76100974243036
 21
810.09153558056209
 31
0.0
  0
LINE
  5
3122
  8
AM_0
 10
593.76107974243075
 20
810.09153558056209
 30
0.0
 11
593.76107974243075
 21
798.09153558056187
 31
0.0
  0
LINE
  5
3124
  8
ﾁｭｳｼﾝｾﾝ
 10
416.03645974243102
 20
422.21594222405071
 30
0.0
 11
657.7054097424309
 21
422.21594222405071
 31
0.0
  0
LINE
  5
3125
  8
AM_0
 10
579.7610097424307
 20
401.21594222405071
 30
0.0
 11
649.76100974243036
 21
401.21594222405071
 31
0.0
  0
LINE
  5
3126
  8
AM_0
 10
579.7610097424307
 20
443.21597222405057
 30
0.0
 11
649.76100974243036
 21
443.21597222405057
 31
0.0
  0
ARC
  5
3127
  8
AM_0
 10
310.26100974243082
 20
473.83373422405077
 30
0.0
 40
3.0
 50
180.0
 51
268.0000000000029
  0
LINE
  5
3128
  8
AM_0
 10
307.26100974243082
 20
506.21593722405078
 30
0.0
 11
307.26100974243082
 21
384.21593722405089
 31
0.0
  0
LINE
  5
3129
  8
AM_0
 10
291.26100974243087
 20
259.21593722405078
 30
0.0
 11
291.26100974243087
 21
509.21593722405078
 31
0.0
  0
LINE
  5
312A
  8
AM_0
 10
430.7610597424308
 20
270.09139722405081
 30
0.0
 11
430.7610597424308
 21
512.215937224051
 31
0.0
  0
LINE
  5
312B
  8
AM_0
 10
444.76100974243082
 20
256.60129722405082
 30
0.0
 11
444.76100974243082
 21
511.83063722405092
 31
0.0
  0
LINE
  5
312C
  8
AM_0
 10
397.26100974243082
 20
286.71593722405089
 30
0.0
 11
397.26100974243082
 21
481.71594222405082
 31
0.0
  0
LINE
  5
312D
  8
AM_0
 10
457.76100974243082
 20
254.2159372240508
 30
0.0
 11
457.76100974243082
 21
514.21593722405089
 31
0.0
  0
LINE
  5
312E
  8
AM_0
 10
555.76105974243126
 20
443.70278722405078
 30
0.0
 11
555.76105974243126
 21
561.19028722405085
 31
0.0
  0
LINE
  5
312F
  8
AM_0
 10
573.76100974243127
 20
279.71593722405078
 30
0.0
 11
573.76100974243127
 21
564.71593722405078
 31
0.0
  0
LINE
  5
3130
  8
AM_0
 10
554.62645974243082
 20
440.5689372240509
 30
0.0
 11
538.37355974243064
 21
489.70489222405092
 31
0.0
  0
LINE
  5
3131
  8
AM_0
 10
563.76100974243116
 20
422.21594222405071
 30
0.0
 11
563.76100974243116
 21
533.17323722405104
 31
0.0
  0
LINE
  5
3132
  8
AM_0
 10
577.76100974243047
 20
422.21594222405071
 30
0.0
 11
577.76100974243047
 21
542.215937224051
 31
0.0
  0
LINE
  5
3133
  8
AM_0
 10
310.26100974243082
 20
327.4401482240508
 30
0.0
 11
396.26100974243082
 21
327.4401482240508
 31
0.0
  0
LINE
  5
3134
  8
AM_0
 10
393.3657077424308
 20
300.50204722405078
 30
0.0
 11
310.15631074243089
 21
297.59631122405079
 31
0.0
  0
LINE
  5
3135
  8
AM_0
 10
392.51586974243082
 20
311.07897222405069
 30
0.0
 11
311.03750574243082
 21
308.23368522405087
 31
0.0
  0
LINE
  5
3136
  8
AM_0
 10
397.26100974243082
 20
286.71593722405089
 30
0.0
 11
312.13012474243078
 21
284.48670622405081
 31
0.0
  0
LINE
  5
3137
  8
ﾁｭｳｼﾝｾﾝ
 10
281.05106449415081
 20
384.21593722405089
 30
0.0
 11
427.0971951046925
 21
384.21593722405089
 31
0.0
  0
LINE
  5
3138
  8
AM_0
 10
392.51586974243082
 20
457.35290122405092
 30
0.0
 11
311.03750574243082
 21
460.1981882240508
 31
0.0
  0
LINE
  5
3139
  8
AM_0
 10
393.3657077424308
 20
467.92982622405083
 30
0.0
 11
310.15631074243089
 21
470.83556222405082
 31
0.0
  0
LINE
  5
313A
  8
AM_0
 10
310.26100974243082
 20
440.99172522405092
 30
0.0
 11
396.26100974243082
 21
440.99172522405092
 31
0.0
  0
LINE
  5
313B
  8
AM_0
 10
307.26100974243082
 20
262.21593722405078
 30
0.0
 11
307.26100974243082
 21
384.21593722405089
 31
0.0
  0
LINE
  5
313C
  8
AM_0
 10
291.26100974243087
 20
259.21593722405078
 30
0.0
 11
304.26100974243082
 21
259.21593722405078
 31
0.0
  0
ARC
  5
313D
  8
AM_0
 10
304.26100974243082
 20
262.21593722405078
 30
0.0
 40
3.0
 50
270.0
 51
0.0
  0
ARC
  5
313E
  8
AM_0
 10
312.26100974243082
 20
279.4884192240508
 30
0.0
 40
5.0
 50
91.499999999996206
 51
180.0
  0
ARC
  5
313F
  8
AM_0
 10
310.26100974243082
 20
294.59813922405078
 30
0.0
 40
3.0
 50
91.999999999997087
 51
180.0
  0
ARC
  5
3140
  8
AM_0
 10
310.26100974243082
 20
324.4401482240508
 30
0.0
 40
3.0
 50
90.0
 51
180.0
  0
ARC
  5
3141
  8
AM_0
 10
310.26100974243082
 20
443.99172522405092
 30
0.0
 40
3.0
 50
180.0
 51
270.0
  0
LINE
  5
3142
  8
AM_0
 10
555.76105974243126
 20
282.19396722405088
 30
0.0
 11
555.76105974243126
 21
330.70910222405081
 31
0.0
  0
LINE
  5
3143
  8
AM_0
 10
577.76100974243047
 20
422.21594222405071
 30
0.0
 11
577.76100974243047
 21
302.21593722405078
 31
0.0
  0
LINE
  5
3144
  8
AM_0
 10
563.76100974243116
 20
422.21594222405071
 30
0.0
 11
563.76100974243116
 21
311.25863222405093
 31
0.0
  0
LINE
  5
3145
  8
AM_0
 10
457.76100974243082
 20
254.2159522240508
 30
0.0
 11
517.48950974243076
 21
252.6519122240509
 31
0.0
  0
LINE
  5
3146
  8
AM_0
 10
444.76100974243082
 20
262.49866722405079
 30
0.0
 11
534.54465974243089
 21
262.49866722405079
 31
0.0
  0
LINE
  5
3147
  8
AM_0
 10
444.76100974243082
 20
276.95547222405088
 30
0.0
 11
559.58445974243102
 21
276.95547222405088
 31
0.0
  0
ARC
  5
3148
  8
AM_0
 10
485.76105974243097
 20
311.13283722405077
 30
0.0
 40
9.7211409999999994
 50
90.00000299999769
 51
270.0
  0
ARC
  5
3149
  8
AM_0
 10
446.76100974243087
 20
256.60129722405082
 30
0.0
 40
2.0000000500000001
 50
179.9999899999988
 51
268.00000999999861
  0
LINE
  5
314A
  8
AM_0
 10
446.69115974243061
 20
254.60247222405081
 30
0.0
 11
457.76100974243082
 21
254.2159072240508
 31
0.0
  0
LINE
  5
314B
  8
AM_0
 10
397.26090974243078
 20
286.71593722405089
 30
0.0
 11
425.93550974243072
 21
285.71459722405081
 31
0.0
  0
LINE
  5
314C
  8
AM_0
 10
399.26100974243082
 20
327.44015222405091
 30
0.0
 11
430.7610597424308
 21
327.44015222405091
 31
0.0
  0
LINE
  5
314D
  8
AM_0
 10
399.26100974243082
 20
311.20977222405088
 30
0.0
 11
430.7610597424308
 21
311.20977222405088
 31
0.0
  0
LINE
  5
314E
  8
AM_0
 10
399.26100974243082
 20
300.60314722405082
 30
0.0
 11
430.7610597424308
 21
300.60314722405082
 31
0.0
  0
LINE
  5
314F
  8
AM_0
 10
394.34289574243093
 20
286.71593722405089
 30
0.0
 11
397.26100974243082
 21
286.71593722405089
 31
0.0
  0
ARC
  5
3150
  8
AM_0
 10
393.26100974243087
 20
303.50022022405091
 30
0.0
 40
3.0
 50
271.99999999999687
 51
0.0
  0
LINE
  5
3151
  8
AM_0
 10
396.26100974243082
 20
303.50022022405091
 30
0.0
 11
396.26100974243082
 21
327.4401482240508
 31
0.0
  0
LINE
  5
3152
  8
AM_0
 10
399.26100974243082
 20
327.44015222405091
 30
0.0
 11
399.26100974243082
 21
300.60314722405082
 31
0.0
  0
LINE
  5
3153
  8
AM_0
 10
433.24000974243103
 20
267.13698722405093
 30
0.0
 11
442.28185974243081
 21
265.5426572240508
 31
0.0
  0
ARC
  5
3154
  8
AM_0
 10
433.7610097424311
 20
270.09139722405081
 30
0.0
 40
3.0000000500000001
 50
179.9999899999988
 51
260.00000000000119
  0
ARC
  5
3155
  8
AM_0
 10
441.76100974243082
 20
262.58823722405077
 30
0.0
 40
3.0000000500000001
 50
0.0
 51
79.999998000001099
  0
ARC
  5
3156
  8
AM_0
 10
425.7610597424308
 20
280.71767722405082
 30
0.0
 40
5.0
 50
0.0
 51
88.000000000002899
  0
LINE
  5
3157
  8
AM_0
 10
517.48955974243086
 20
252.65188222405081
 30
0.0
 11
563.76100974243116
 21
279.36672722405081
 31
0.0
  0
LINE
  5
3158
  8
AM_0
 10
485.76105974243097
 20
320.8539672240509
 30
0.0
 11
555.76105974243126
 21
320.8539672240509
 31
0.0
  0
LINE
  5
3159
  8
AM_0
 10
485.76105974243097
 20
301.41167722405078
 30
0.0
 11
555.76105974243126
 21
301.41167722405078
 31
0.0
  0
LINE
  5
315A
  8
AM_0
 10
485.76105974243097
 20
303.2583272240509
 30
0.0
 11
485.76105974243097
 21
319.35833222405091
 31
0.0
  0
LINE
  5
315B
  8
AM_0
 10
558.86565974243092
 20
279.19579722405081
 30
0.0
 11
573.76100974243127
 21
279.71593722405078
 31
0.0
  0
ARC
  5
315C
  8
AM_0
 10
558.76100974243116
 20
282.19396722405088
 30
0.0
 40
3.0000000500000001
 50
179.9999899999988
 51
271.99999000000139
  0
ARC
  5
315D
  8
AM_0
 10
558.76100974243116
 20
311.25863222405093
 30
0.0
 40
5.0
 50
268.0000000000029
 51
0.0
  0
LINE
  5
315E
  8
AM_0
 10
573.76100974243127
 20
302.21593722405078
 30
0.0
 11
577.76100974243047
 21
302.21593722405078
 31
0.0
  0
LINE
  5
315F
  8
AM_0
 10
444.76100974243082
 20
374.23495222405091
 30
0.0
 11
563.76100974243116
 21
374.23495222405091
 31
0.0
  0
LINE
  5
3160
  8
AM_0
 10
444.76100974243082
 20
394.19695722405089
 30
0.0
 11
563.76100974243116
 21
394.19695722405089
 31
0.0
  0
LINE
  5
3161
  8
AM_0
 10
399.26100974243082
 20
467.8287322240509
 30
0.0
 11
430.7610597424308
 21
467.8287322240509
 31
0.0
  0
LINE
  5
3162
  8
AM_0
 10
399.26100974243082
 20
457.22210722405077
 30
0.0
 11
430.7610597424308
 21
457.22210722405077
 31
0.0
  0
LINE
  5
3163
  8
AM_0
 10
399.26100974243082
 20
440.99172722405092
 30
0.0
 11
430.7610597424308
 21
440.99172722405092
 31
0.0
  0
ARC
  5
3164
  8
AM_0
 10
393.26100974243087
 20
464.93165322405088
 30
0.0
 40
3.0
 50
0.0
 51
88.000000000002899
  0
LINE
  5
3165
  8
AM_0
 10
396.26100974243082
 20
464.93165322405088
 30
0.0
 11
396.26100974243082
 21
440.99172522405092
 31
0.0
  0
LINE
  5
3166
  8
AM_0
 10
399.26100974243082
 20
467.8287322240509
 30
0.0
 11
399.26100974243082
 21
440.99172722405092
 31
0.0
  0
LINE
  5
3167
  8
AM_0
 10
579.7610097424307
 20
399.71594222405082
 30
0.0
 11
579.7610097424307
 21
444.71594222405088
 31
0.0
  0
ARC
  5
3168
  8
AM_0
 10
560.76105974243114
 20
330.70910222405081
 30
0.0
 40
5.0
 50
90.00000299999769
 51
180.00001000000091
  0
LINE
  5
3169
  8
AM_0
 10
577.76100974243047
 20
399.71594222405082
 30
0.0
 11
579.7610097424307
 21
399.71594222405082
 31
0.0
  0
ARC
  5
316A
  8
AM_0
 10
559.37355974243064
 20
442.13909722405089
 30
0.0
 40
5.0
 50
198.30292000000031
 51
270.0
  0
LINE
  5
316B
  8
AM_0
 10
559.37355974243064
 20
437.13909722405089
 30
0.0
 11
563.76100974243116
 21
437.13909722405089
 31
0.0
  0
LINE
  5
316C
  8
AM_0
 10
577.76100974243047
 20
444.71594222405088
 30
0.0
 11
579.7610097424307
 21
444.71594222405088
 31
0.0
  0
LINE
  5
316D
  8
AM_0
 10
397.26100974243082
 20
481.71593722405078
 30
0.0
 11
312.13012474243078
 21
483.94516722405081
 31
0.0
  0
ARC
  5
316E
  8
AM_0
 10
304.26100974243082
 20
506.21593722405078
 30
0.0
 40
3.0
 50
0.0
 51
90.0
  0
ARC
  5
316F
  8
AM_0
 10
312.26100974243082
 20
488.94345422405081
 30
0.0
 40
5.0
 50
180.0
 51
268.4999999999971
  0
LINE
  5
3170
  8
AM_0
 10
291.26100974243087
 20
509.21593722405078
 30
0.0
 11
304.26100974243082
 21
509.21593722405078
 31
0.0
  0
LINE
  5
3171
  8
AM_0
 10
457.76105974243092
 20
514.21593722405089
 30
0.0
 11
527.64915974243092
 21
516.04603722405091
 31
0.0
  0
LINE
  5
3172
  8
AM_0
 10
444.76100974243082
 20
491.47647222405089
 30
0.0
 11
506.8225097424309
 21
491.47647222405089
 31
0.0
  0
LINE
  5
3173
  8
AM_0
 10
444.76100974243082
 20
505.93325722405092
 30
0.0
 11
520.67150974243054
 21
505.93325722405092
 31
0.0
  0
CIRCLE
  5
3174
  8
AM_0
 10
441.76100974243082
 20
534.71593722405089
 30
0.0
 40
12.5
  0
ARC
  5
3175
  8
AM_0
 10
441.76100974243082
 20
534.71593722405089
 30
0.0
 40
20.500000499999992
 50
304.61364000000401
 51
235.3863500000021
  0
LINE
  5
3176
  8
AM_0
 10
397.26100974243082
 20
481.7159722240508
 30
0.0
 11
425.93555974243083
 21
482.7172822240509
 31
0.0
  0
ARC
  5
3177
  8
AM_0
 10
425.7610597424308
 20
487.7142622240508
 30
0.0
 40
5.0
 50
271.99999999999687
 51
0.0
  0
LINE
  5
3178
  8
AM_0
 10
433.24010974243117
 20
501.29492222405082
 30
0.0
 11
442.28195974243101
 21
502.88925222405089
 31
0.0
  0
ARC
  5
3179
  8
AM_0
 10
433.7610097424311
 20
498.34051222405083
 30
0.0
 40
3.0000000500000001
 50
99.999999999998593
 51
159.3455099999999
  0
ARC
  5
317A
  8
AM_0
 10
441.76100974243082
 20
505.84368722405083
 30
0.0
 40
3.0000000500000001
 50
279.99999999999852
 51
0.0
  0
LINE
  5
317B
  8
AM_0
 10
446.69120974243089
 20
513.82938722405083
 30
0.0
 11
457.76100974243082
 21
514.21593722405089
 31
0.0
  0
LINE
  5
317C
  8
AM_0
 10
451.68385974243091
 20
514.00368722405085
 30
0.0
 11
450.04870974243102
 21
520.10603722405085
 31
0.0
  0
ARC
  5
317D
  8
AM_0
 10
455.67790974243093
 20
514.55243722405055
 30
0.0
 40
4.000000049999997
 50
124.6136499999977
 51
187.8682199999983
  0
LINE
  5
317E
  8
AM_0
 10
434.257559742431
 20
520.83063722405075
 30
0.0
 11
441.76100974243082
 21
522.21598722405076
 31
0.0
  0
LINE
  5
317F
  8
AM_0
 10
431.43810974243081
 20
513.71593722405089
 30
0.0
 11
446.09355974243101
 21
513.71593722405089
 31
0.0
  0
LINE
  5
3180
  8
AM_0
 10
433.94385974243107
 20
520.71598722405088
 30
0.0
 11
449.57805974243092
 21
520.71598722405088
 31
0.0
  0
ARC
  5
3181
  8
AM_0
 10
434.43915974243089
 20
519.84718722405091
 30
0.0
 40
1.0
 50
100.4607200000025
 51
164.99999000000179
  0
ARC
  5
3182
  8
AM_0
 10
432.76100974243082
 20
512.215937224051
 30
0.0
 40
2.0000000500000001
 50
131.4096200000032
 51
180.00001000000091
  0
ARC
  5
3183
  8
AM_0
 10
427.84400974243101
 20
514.55243722405055
 30
0.0
 40
4.000000049999997
 50
347.9293300000017
 51
55.386359000001512
  0
LINE
  5
3184
  8
AM_0
 10
431.76105974243097
 20
513.71593722405089
 30
0.0
 11
433.4732597424312
 21
520.10603722405085
 31
0.0
  0
ARC
  5
3185
  8
AM_0
 10
449.08290974243113
 20
519.84718722405091
 30
0.0
 40
1.0
 50
15.000000000000741
 51
79.539281000002589
  0
LINE
  5
3186
  8
AM_0
 10
441.76100974243082
 20
522.21593722405089
 30
0.0
 11
449.26440974243098
 21
520.83058722405076
 31
0.0
  0
ARC
  5
3187
  8
AM_0
 10
446.76100974243087
 20
511.83063722405092
 30
0.0
 40
2.0000000500000001
 50
91.999998000000545
 51
180.00001000000091
  0
LINE
  5
3188
  8
AM_0
 10
531.05380974243053
 20
517.50878722405082
 30
0.0
 11
554.296509742431
 21
540.75148722405095
 31
0.0
  0
LINE
  5
3189
  8
AM_0
 10
553.32730974243111
 20
525.46258722405105
 30
0.0
 11
516.268409742431
 21
503.29998722405082
 31
0.0
  0
LINE
  5
318A
  8
AM_0
 10
553.61365974243085
 20
519.21958722405088
 30
0.0
 11
511.855609742431
 21
494.2467322240509
 31
0.0
  0
LINE
  5
318B
  8
AM_0
 10
509.2610097424307
 20
489.70486222405083
 30
0.0
 11
536.71400974243113
 21
489.70486222405083
 31
0.0
  0
ARC
  5
318C
  8
AM_0
 10
509.2610097424307
 20
494.70486222405083
 30
0.0
 40
5.0
 50
229.76332999999909
 51
270.0
  0
ARC
  5
318D
  8
AM_0
 10
487.96080974243102
 20
516.01108722405093
 30
0.0
 40
30.946884499999999
 50
307.55230999999719
 51
335.59612999999888
  0
LINE
  5
318E
  8
AM_0
 10
530.96870974243075
 20
512.0913372240509
 30
0.0
 11
529.64330974243092
 21
516.09823722405088
 31
0.0
  0
ARC
  5
318F
  8
AM_0
 10
527.51830974243092
 20
521.04433722405088
 30
0.0
 40
5.0
 50
271.50000000000261
 51
315.0
  0
LINE
  5
3190
  8
AM_0
 10
539.70380974243085
 20
490.69720222405078
 30
0.0
 11
555.76100974243116
 21
502.67602222405083
 31
0.0
  0
ARC
  5
3191
  8
AM_0
 10
536.71400974243113
 20
494.70486222405083
 30
0.0
 40
5.0
 50
270.0
 51
306.72320999999818
  0
ARC
  5
3192
  8
AM_0
 10
558.76100974243116
 20
533.17323722405104
 30
0.0
 40
5.0
 50
0.0
 51
91.999998000000545
  0
ARC
  5
3193
  8
AM_0
 10
550.76105974243114
 20
529.75373722405095
 30
0.0
 40
5.0
 50
300.88098000000002
 51
0.0
  0
ARC
  5
3194
  8
AM_0
 10
550.76105974243114
 20
544.2869872240509
 30
0.0
 40
5.0
 50
315.0
 51
0.0
  0
LINE
  5
3195
  8
AM_0
 10
573.76100974243127
 20
542.215937224051
 30
0.0
 11
577.76100974243047
 21
542.215937224051
 31
0.0
  0
LINE
  5
3196
  8
AM_0
 10
558.65630974243084
 20
564.18848722405085
 30
0.0
 11
573.76105974243114
 21
564.71593722405078
 31
0.0
  0
ARC
  5
3197
  8
AM_0
 10
558.76100974243116
 20
561.19028722405085
 30
0.0
 40
3.0000000500000001
 50
91.999998000000545
 51
180.00001000000091
  0
LINE
  5
3198
  8
AM_0
 10
1065.6896510207639
 20
543.88773722405085
 30
0.0
 11
1068.192491020764
 21
472.21591222405078
 31
0.0
  0
LINE
  5
3199
  8
AM_0
 10
998.19642602076465
 20
501.7909522240509
 30
0.0
 11
969.00242602076503
 21
472.59698222405052
 31
0.0
  0
LINE
  5
319A
  8
AM_0
 10
785.69532602076504
 20
543.88773722405085
 30
0.0
 11
783.19248602076505
 21
472.21594222405071
 31
0.0
  0
LINE
  5
319B
  8
AM_0
 10
846.11747602076514
 20
494.71987722405089
 30
0.0
 11
875.31147602076464
 21
465.52590722405091
 31
0.0
  0
LINE
  5
319C
  8
AM_0
 10
1005.267471020765
 20
494.71987722405089
 30
0.0
 11
976.07350102076475
 21
465.52590722405091
 31
0.0
  0
LINE
  5
319D
  8
AM_0
 10
853.18855102076452
 20
501.7909522240509
 30
0.0
 11
882.38255102076459
 21
472.59695222405082
 31
0.0
  0
LINE
  5
319E
  8
ﾁｭｳｼﾝｾﾝ
 10
925.69249102076469
 20
570.48768417073165
 30
0.0
 11
925.69249102076469
 21
246.24634722405079
 31
0.0
  0
ARC
  5
319F
  8
AM_0
 10
925.69249102076469
 20
384.21593722405089
 30
0.0
 40
122.0
 50
124.67318000000159
 51
157.4280199999998
  0
ARC
  5
31A0
  8
AM_0
 10
925.69249102076469
 20
384.21593722405089
 30
0.0
 40
122.0
 50
22.571981999999569
 51
55.326819999998243
  0
ARC
  5
31A1
  8
AM_0
 10
925.69249102076469
 20
422.21594222405071
 30
0.0
 40
61.999994999999998
 50
53.583681000000588
 51
126.41631999999819
  0
CIRCLE
  5
31A2
  8
AM_0
 10
925.69249102076469
 20
422.21594222405071
 30
0.0
 40
113.0
  0
CIRCLE
  5
31A3
  8
AM_0
 10
925.69249102076469
 20
422.21594222405071
 30
0.0
 40
120.0
  0
LINE
  5
31A4
  8
ﾁｭｳｼﾝｾﾝ
 10
779.38107540670535
 20
422.21594222405071
 30
0.0
 11
1074.253764942694
 21
422.21594222405071
 31
0.0
  0
ARC
  5
31A5
  8
AM_0
 10
925.69249102076469
 20
384.21593722405089
 30
0.0
 40
130.0
 50
246.6310400000028
 51
293.36895999999689
  0
LINE
  5
31A6
  8
AM_0
 10
1047.3643360207641
 20
282.21880722405081
 30
0.0
 11
975.69249102076469
 21
279.71596722405081
 31
0.0
  0
LINE
  5
31A7
  8
ﾁｭｳｼﾝｾﾝ
 10
863.69249102076481
 20
384.21593722405089
 30
0.0
 11
987.69249102076481
 21
384.21593722405089
 31
0.0
  0
ARC
  5
31A8
  8
AM_0
 10
925.69249102076469
 20
422.21594222405071
 30
0.0
 40
61.999994999999998
 50
0.0
 51
36.416318000003159
  0
LINE
  5
31A9
  8
AM_0
 10
593.76100974243116
 20
446.21594222405082
 30
0.0
 11
649.76100974243036
 21
446.21594222405082
 31
0.0
  0
LINE
  5
31AA
  8
AM_0
 10
593.76100974243116
 20
446.21594222405082
 30
0.0
 11
593.76100974243116
 21
443.21597222405057
 31
0.0
  0
LINE
  5
31AB
  8
AM_0
 10
649.76100974243036
 20
401.21594222405071
 30
0.0
 11
649.76100974243036
 21
446.21594222405082
 31
0.0
  0
LINE
  5
31AC
  8
AM_0
 10
785.69532602076504
 20
300.5441222240508
 30
0.0
 11
783.19248602076505
 21
372.21593722405089
 31
0.0
  0
LINE
  5
31AD
  8
AM_0
 10
804.02067602076465
 20
282.21877722405083
 30
0.0
 11
875.69249102076469
 21
279.71593722405078
 31
0.0
  0
LINE
  5
31AE
  8
AM_0
 10
863.28068602076507
 20
261.97339722405093
 30
0.0
 11
874.12791602076504
 21
264.8799072240509
 31
0.0
  0
CIRCLE
  5
31AF
  8
AM_0
 10
805.48432602076468
 20
302.00780722405079
 30
0.0
 40
9.5
  0
LINE
  5
31B0
  8
ﾁｭｳｼﾝｾﾝ1
 10
793.34442814739532
 20
289.86790379564172
 30
0.0
 11
819.1061459349437
 21
315.62959918845053
 31
0.0
  0
ARC
  5
31B1
  8
ﾁｭｳｼﾝｾﾝ1
 10
925.69249102076355
 20
422.21594222405071
 30
0.0
 40
170.00000499999911
 50
218.7511002556808
 51
231.01461
  0
ARC
  5
31B2
  8
AM_0
 10
804.68373102076509
 20
301.20721222405081
 30
0.0
 40
19.000000499999999
 50
182.0000000000004
 51
268.0000000000029
  0
LINE
  5
31B3
  8
AM_0
 10
851.03321602076483
 20
269.0444572240508
 30
0.0
 11
847.91386102076524
 21
280.6860322240509
 31
0.0
  0
ARC
  5
31B4
  8
AM_0
 10
860.69249102076503
 20
271.63262722405079
 30
0.0
 40
10.0
 50
195.0000099999981
 51
285.00000000000148
  0
LINE
  5
31B5
  8
AM_0
 10
875.69249102076469
 20
279.71593722405078
 30
0.0
 11
925.69249102076469
 21
279.71593722405078
 31
0.0
  0
LINE
  5
31B6
  8
AM_0
 10
975.69249102076469
 20
279.71593722405078
 30
0.0
 11
925.69249102076469
 21
279.71593722405078
 31
0.0
  0
ARC
  5
31B7
  8
AM_0
 10
855.69248602076505
 20
402.21594222405082
 30
0.0
 40
8.0
 50
270.0
 51
0.0
  0
ARC
  5
31B8
  8
AM_0
 10
925.69249102076469
 20
422.21594222405071
 30
0.0
 40
61.999994999999998
 50
142.1149900000004
 51
180.00001000000091
  0
LINE
  5
31B9
  8
AM_0
 10
783.19248602076505
 20
372.21593722405089
 30
0.0
 11
783.19248602076505
 21
422.21594222405071
 31
0.0
  0
LINE
  5
31BA
  8
AM_0
 10
820.16999602076464
 20
394.21594222405088
 30
0.0
 11
855.69248602076505
 21
394.21594222405088
 31
0.0
  0
ARC
  5
31BB
  8
AM_0
 10
820.16999602076464
 20
399.21594222405082
 30
0.0
 40
5.0
 50
192.29603999999881
 51
270.0
  0
LINE
  5
31BC
  8
AM_0
 10
783.19248602076505
 20
472.21594222405071
 30
0.0
 11
783.19248602076505
 21
422.21594222405071
 31
0.0
  0
LINE
  5
31BD
  8
AM_0
 10
863.69249102076481
 20
422.21594222405071
 30
0.0
 11
863.69249102076481
 21
402.21594222405082
 31
0.0
  0
CIRCLE
  5
31BE
  8
AM_0
 10
925.69249102076469
 20
422.21594222405071
 30
0.0
 40
41.000000499999992
  0
ARC
  5
31BF
  8
AM_0
 10
925.69249102076469
 20
422.21594222405071
 30
0.0
 40
20.9999985
 50
106.6015499999988
 51
73.398451999997818
  0
CIRCLE
  5
31C0
  8
AM_5
 10
925.69249102076469
 20
422.21594222405071
 30
0.0
 40
5.0
  0
LINE
  5
31C1
  8
AM_0
 10
919.69249102076481
 20
438.21597222405057
 30
0.0
 11
931.69249102076481
 21
438.21597222405057
 31
0.0
  0
LINE
  5
31C2
  8
AM_0
 10
919.69249102076481
 20
446.21594222405082
 30
0.0
 11
931.69249102076481
 21
446.21594222405082
 31
0.0
  0
ARC
  5
31C3
  8
AM_0
 10
871.77595602076406
 20
461.99038722405089
 30
0.0
 40
5.0
 50
323.58368000000172
 51
45.00000100000149
  0
ARC
  5
31C4
  8
AM_0
 10
885.91807602076494
 20
476.13253722405079
 30
0.0
 40
5.0
 50
225.0
 51
306.41631999999822
  0
LINE
  5
31C5
  8
AM_0
 10
919.69249102076481
 20
446.21594222405082
 30
0.0
 11
919.69249102076481
 21
438.21597222405057
 31
0.0
  0
POINT
  5
31C6
  8
AM_0
 10
925.69249102076469
 20
422.21594222405071
 30
0.0
  0
CIRCLE
  5
31C7
  8
AM_0
 10
925.69249102076469
 20
422.21594222405071
 30
0.0
 40
3.5000000500000001
  0
LINE
  5
31C8
  8
AM_0
 10
931.69249102076481
 20
446.21594222405082
 30
0.0
 11
931.69249102076481
 21
438.21597222405057
 31
0.0
  0
ARC
  5
31C9
  8
AM_0
 10
965.46690602076467
 20
476.13253722405079
 30
0.0
 40
5.0
 50
233.58368000000161
 51
315.0
  0
ARC
  5
31CA
  8
AM_0
 10
979.6090560207648
 20
461.99038722405089
 30
0.0
 40
5.0
 50
135.0
 51
216.41631999999831
  0
LINE
  5
31CB
  8
AM_0
 10
1065.689671020765
 20
300.5441222240508
 30
0.0
 11
1068.192506020765
 21
372.21593722405089
 31
0.0
  0
LINE
  5
31CC
  8
AM_0
 10
1000.351761020765
 20
269.0444572240508
 30
0.0
 11
1003.471116020764
 21
280.68600222405081
 31
0.0
  0
ARC
  5
31CD
  8
AM_0
 10
990.69249102076469
 20
271.63262722405079
 30
0.0
 40
10.0
 50
254.99999999999821
 51
344.99999999999909
  0
LINE
  5
31CE
  8
AM_0
 10
988.10432602076469
 20
261.97338222405091
 30
0.0
 11
977.25706602076502
 21
264.87989222405082
 31
0.0
  0
ARC
  5
31CF
  8
AM_0
 10
1046.701236020765
 20
301.20721222405081
 30
0.0
 40
19.000000499999999
 50
271.99999999999687
 51
357.9999999999992
  0
CIRCLE
  5
31D0
  8
AM_0
 10
1045.9006510207651
 20
302.00780722405079
 30
0.0
 40
9.5
  0
LINE
  5
31D1
  8
AM_0
 10
1068.192506020765
 20
372.21593722405089
 30
0.0
 11
1068.192506020765
 21
422.21594222405071
 31
0.0
  0
ARC
  5
31D2
  8
AM_0
 10
995.69249102076481
 20
402.21594222405082
 30
0.0
 40
8.0
 50
179.9999899999988
 51
270.0
  0
ARC
  5
31D3
  8
AM_0
 10
1031.214996020763
 20
399.21594222405082
 30
0.0
 40
5.0
 50
270.0
 51
347.70395000000082
  0
LINE
  5
31D4
  8
AM_0
 10
1031.214996020763
 20
394.21594222405088
 30
0.0
 11
995.69249102076481
 21
394.21594222405088
 31
0.0
  0
LINE
  5
31D5
  8
AM_0
 10
987.69249102076481
 20
422.21594222405071
 30
0.0
 11
987.69249102076481
 21
402.21594222405082
 31
0.0
  0
LINE
  5
31D6
  8
AM_0
 10
1068.192506020765
 20
472.21594222405071
 30
0.0
 11
1068.192506020765
 21
422.21594222405071
 31
0.0
  0
ARC
  5
31D7
  8
AM_0
 10
925.69249102076469
 20
384.21593722405089
 30
0.0
 40
122.0
 50
60.143060000003558
 51
86.162371999997163
  0
LINE
  5
31D8
  8
AM_0
 10
1047.3643360207641
 20
562.21308722405092
 30
0.0
 11
975.69249102076469
 21
564.71593722405078
 31
0.0
  0
LINE
  5
31D9
  8
AM_0
 10
804.02067602076465
 20
562.21308722405092
 30
0.0
 11
875.69249102076469
 21
564.71593722405078
 31
0.0
  0
CIRCLE
  5
31DA
  8
AM_0
 10
805.48432602076468
 20
542.42408722405094
 30
0.0
 40
9.5
  0
ARC
  5
31DB
  8
AM_0
 10
804.68373102076509
 20
543.22468722405085
 30
0.0
 40
19.000000499999999
 50
91.999998000000545
 51
177.9999999999994
  0
ARC
  5
31DC
  8
AM_0
 10
856.72410602076468
 20
505.3264772240509
 30
0.0
 40
5.0
 50
129.6872200000015
 51
225.0
  0
ARC
  5
31DD
  8
AM_0
 10
842.58195602076512
 20
491.18432722405089
 30
0.0
 40
5.0
 50
45.00000100000149
 51
140.31278000000091
  0
ARC
  5
31DE
  8
AM_0
 10
917.19249102076481
 20
510.93118722405092
 30
0.0
 40
5.0
 50
273.83763000000209
 51
0.0
  0
ARC
  5
31DF
  8
AM_0
 10
917.19249102076481
 20
529.88093722405085
 30
0.0
 40
5.0
 50
0.0
 51
94.514061000000083
  0
ARC
  5
31E0
  8
AM_0
 10
925.69249102076174
 20
384.21594222407538
 30
0.0
 40
121.9999999999761
 50
93.837626000003567
 51
119.8569400000037
  0
ARC
  5
31E1
  8
AM_0
 10
934.19249102076481
 20
510.93118722405092
 30
0.0
 40
5.0
 50
179.9999899999988
 51
266.16236000000072
  0
LINE
  5
31E2
  8
AM_0
 10
922.19249102076469
 20
529.88093722405085
 30
0.0
 11
922.19249102076469
 21
510.93118722405092
 31
0.0
  0
LINE
  5
31E3
  8
AM_0
 10
929.19249102076469
 20
529.88093722405085
 30
0.0
 11
929.19249102076469
 21
510.93118722405092
 31
0.0
  0
ARC
  5
31E4
  8
AM_0
 10
934.19249102076481
 20
529.88093722405085
 30
0.0
 40
5.0
 50
85.485944000000941
 51
180.00001000000091
  0
LINE
  5
31E5
  8
AM_0
 10
875.69249102076469
 20
564.71593722405078
 30
0.0
 11
925.69249102076469
 21
564.71593722405078
 31
0.0
  0
LINE
  5
31E6
  8
AM_0
 10
975.69249102076469
 20
564.71593722405078
 30
0.0
 11
925.69249102076469
 21
564.71593722405078
 31
0.0
  0
LINE
  5
31E7
  8
ﾁｭｳｼﾝｾﾝ1
 10
1057.212246818659
 20
553.73574344051008
 30
0.0
 11
1033.32618744963
 21
529.84966146631905
 31
0.0
  0
ARC
  5
31E8
  8
ﾁｭｳｼﾝｾﾝ1
 10
925.69249102075423
 20
422.21594222404087
 30
0.0
 40
170.00000500001411
 50
38.59885076757223
 51
51.014604000000709
  0
ARC
  5
31E9
  8
AM_0
 10
1046.701236020765
 20
543.22468722405085
 30
0.0
 40
19.000000499999999
 50
2.0000000000004712
 51
88.000000000002899
  0
CIRCLE
  5
31EA
  8
AM_0
 10
1045.9006510207651
 20
542.42408722405094
 30
0.0
 40
9.5
  0
ARC
  5
31EB
  8
AM_0
 10
994.6609060207652
 20
505.3264772240509
 30
0.0
 40
5.0
 50
315.0
 51
50.312775000000542
  0
ARC
  5
31EC
  8
AM_0
 10
1008.803026020764
 20
491.18432722405089
 30
0.0
 40
5.0
 50
39.687223999999532
 51
135.0
  0
LINE
  5
31ED
  8
AM_0
 10
291.26100974243087
 20
679.09165558056213
 30
0.0
 11
291.26100974243087
 21
929.09165558056168
 31
0.0
  0
LINE
  5
31EE
  8
AM_0
 10
307.26100974243082
 20
926.09165558056156
 30
0.0
 11
307.26100974243082
 21
804.09165558056213
 31
0.0
  0
ARC
  5
31EF
  8
AM_0
 10
310.26100974243082
 20
893.70945258056213
 30
0.0
 40
3.0
 50
180.0
 51
268.0000000000029
  0
LINE
  5
31F0
  8
AM_0
 10
396.26100974243082
 20
723.37593858056232
 30
0.0
 11
396.26100974243082
 21
747.3158665805621
 31
0.0
  0
ARC
  5
31F1
  8
AM_0
 10
310.26100974243082
 20
744.31586658056199
 30
0.0
 40
3.0
 50
90.0
 51
180.0
  0
LINE
  5
31F2
  8
AM_0
 10
307.26100974243082
 20
682.09165558056213
 30
0.0
 11
307.26100974243082
 21
804.09165558056213
 31
0.0
  0
LINE
  5
31F3
  8
AM_0
 10
397.26100974243082
 20
706.59165558056213
 30
0.0
 11
312.13012474243078
 21
704.36242458056211
 31
0.0
  0
LINE
  5
31F4
  8
AM_0
 10
392.51586974243082
 20
730.95469058056199
 30
0.0
 11
311.03750574243082
 21
728.10940358056212
 31
0.0
  0
LINE
  5
31F5
  8
AM_0
 10
393.3657077424308
 20
720.37776558056214
 30
0.0
 11
310.15631074243089
 21
717.47202958056175
 31
0.0
  0
LINE
  5
31F6
  8
AM_0
 10
291.26100974243087
 20
679.09165558056213
 30
0.0
 11
304.26100974243082
 21
679.09165558056213
 31
0.0
  0
ARC
  5
31F7
  8
AM_0
 10
304.26100974243082
 20
682.09165558056213
 30
0.0
 40
3.0
 50
270.0
 51
0.0
  0
ARC
  5
31F8
  8
AM_0
 10
312.26100974243082
 20
699.3641375805621
 30
0.0
 40
5.0
 50
91.499999999996206
 51
180.0
  0
ARC
  5
31F9
  8
AM_0
 10
310.26100974243082
 20
714.47385758056214
 30
0.0
 40
3.0
 50
91.999999999997087
 51
180.0
  0
LINE
  5
31FA
  8
AM_0
 10
394.34289574243093
 20
706.59165558056213
 30
0.0
 11
397.26100974243082
 21
706.59165558056213
 31
0.0
  0
ARC
  5
31FB
  8
AM_0
 10
393.26100974243087
 20
723.37593858056232
 30
0.0
 40
3.0
 50
271.99999999999687
 51
0.0
  0
LINE
  5
31FC
  8
AM_0
 10
310.26100974243082
 20
860.86744358056171
 30
0.0
 11
396.26100974243082
 21
860.86744358056171
 31
0.0
  0
LINE
  5
31FD
  8
AM_0
 10
393.3657077424308
 20
887.80554458056213
 30
0.0
 11
310.15631074243089
 21
890.71128058056195
 31
0.0
  0
LINE
  5
31FE
  8
AM_0
 10
392.51586974243082
 20
877.22861958056228
 30
0.0
 11
311.03750574243082
 21
880.07390658056215
 31
0.0
  0
LINE
  5
31FF
  8
AM_0
 10
310.26100974243082
 20
747.3158665805621
 30
0.0
 11
396.26100974243082
 21
747.3158665805621
 31
0.0
  0
ARC
  5
3200
  8
AM_0
 10
310.26100974243082
 20
863.86744358056217
 30
0.0
 40
3.0
 50
180.0
 51
270.0
  0
LINE
  5
3201
  8
AM_0
 10
396.26100974243082
 20
884.80737158056229
 30
0.0
 11
396.26100974243082
 21
860.86744358056171
 31
0.0
  0
ARC
  5
3202
  8
AM_0
 10
393.26100974243087
 20
884.80737158056229
 30
0.0
 40
3.0
 50
0.0
 51
88.000000000002899
  0
LINE
  5
3203
  8
AM_0
 10
397.26100974243082
 20
901.59165558056225
 30
0.0
 11
312.13012474243078
 21
903.82088558056194
 31
0.0
  0
LINE
  5
3204
  8
AM_0
 10
291.26100974243087
 20
929.09165558056168
 30
0.0
 11
304.26100974243082
 21
929.09165558056168
 31
0.0
  0
ARC
  5
3205
  8
AM_0
 10
312.26100974243082
 20
908.81917258056228
 30
0.0
 40
5.0
 50
180.0
 51
268.4999999999971
  0
ARC
  5
3206
  8
AM_0
 10
304.26100974243082
 20
926.09165558056156
 30
0.0
 40
3.0
 50
0.0
 51
90.0
  0
ARC
  5
3207
  8
ﾁｭｳｼﾝｾﾝ1
 10
925.6924910207747
 20
422.21594222404087
 30
0.0
 40
170.00000500001411
 50
128.98539599999921
 51
141.40114923242771
  0
LINE
  5
3208
  8
ﾁｭｳｼﾝｾﾝ1
 10
794.17273522286882
 20
553.73574344051008
 30
0.0
 11
818.0587945918993
 21
529.84966146631905
 31
0.0
  0
ARC
  5
3209
  8
ﾁｭｳｼﾝｾﾝ1
 10
925.6924910207656
 20
422.21594222405071
 30
0.0
 40
170.00000499999911
 50
308.98539
 51
321.24889974431909
  0
LINE
  5
320A
  8
ﾁｭｳｼﾝｾﾝ1
 10
1058.0405538941329
 20
289.86790379564172
 30
0.0
 11
1032.278836106585
 21
315.62959918845053
 31
0.0
  0
TEXT
  5
341D
  8
AM_0
 10
795.82992436160339
 20
840.73701948438304
 30
0.0
 40
15.0
  1
VX37-003AF~VX37-030AF
  0
ENDSEC
  0
EOF
