  0
SECTION
  2
HEADER
  9
$ACADVER
  1
AC1009
  9
$INSBASE
 10
0.0
 20
0.0
 30
0.0
  9
$EXTMIN
 10
268.99784450651811
 20
219.4324887736102
 30
-0.0000000000112498
  9
$EXTMAX
 10
1297.844584770902
 20
1053.703766985594
 30
0.0000000000002956
  9
$LIMMIN
 10
0.0
 20
0.0
  9
$LIMMAX
 10
1422.5
 20
925.0
  9
$ORTHOMODE
 70
     0
  9
$REGENMODE
 70
     1
  9
$FILLMODE
 70
     1
  9
$QTEXTMODE
 70
     0
  9
$MIRRTEXT
 70
     1
  9
$DRAGMODE
 70
     2
  9
$LTSCALE
 40
5.0
  9
$OSMODE
 70
   551
  9
$ATTMODE
 70
     1
  9
$TEXTSIZE
 40
2.5
  9
$TRACEWID
 40
1.0
  9
$TEXTSTYLE
  7
STANDARD
  9
$CLAYER
  8
AM_0
  9
$CELTYPE
  6
BYLAYER
  9
$CECOLOR
 62
   256
  9
$DIMSCALE
 40
1.0
  9
$DIMASZ
 40
2.5
  9
$DIMEXO
 40
1.0
  9
$DIMDLI
 40
8.0
  9
$DIMRND
 40
0.0
  9
$DIMDLE
 40
0.0
  9
$DIMEXE
 40
0.6
  9
$DIMTP
 40
0.1
  9
$DIMTM
 40
0.1
  9
$DIMTXT
 40
2.5
  9
$DIMCEN
 40
0.0
  9
$DIMTSZ
 40
0.0
  9
$DIMTOL
 70
     0
  9
$DIMLIM
 70
     0
  9
$DIMTIH
 70
     0
  9
$DIMTOH
 70
     0
  9
$DIMSE1
 70
     0
  9
$DIMSE2
 70
     0
  9
$DIMTAD
 70
     1
  9
$DIMZIN
 70
     8
  9
$DIMBLK
  1

  9
$DIMASO
 70
     1
  9
$DIMSHO
 70
     1
  9
$DIMPOST
  1

  9
$DIMAPOST
  1
"
  9
$DIMALT
 70
     0
  9
$DIMALTD
 70
     2
  9
$DIMALTF
 40
0.0393701
  9
$DIMLFAC
 40
1.0
  9
$DIMTOFL
 70
     1
  9
$DIMTVP
 40
0.0
  9
$DIMTIX
 70
     0
  9
$DIMSOXD
 70
     0
  9
$DIMSAH
 70
     0
  9
$DIMBLK1
  1

  9
$DIMBLK2
  1

  9
$DIMSTYLE
  2
AM_ISO
  9
$DIMCLRD
 70
   256
  9
$DIMCLRE
 70
   256
  9
$DIMCLRT
 70
     4
  9
$DIMTFAC
 40
0.71
  9
$DIMGAP
 40
0.8
  9
$LUNITS
 70
     2
  9
$LUPREC
 70
     2
  9
$SKETCHINC
 40
1.0
  9
$FILLETRAD
 40
25.0
  9
$AUNITS
 70
     0
  9
$AUPREC
 70
     0
  9
$MENU
  1
.
  9
$ELEVATION
 40
0.0
  9
$PELEVATION
 40
0.0
  9
$THICKNESS
 40
0.0
  9
$LIMCHECK
 70
     0
  9
$BLIPMODE
 70
     0
  9
$CHAMFERA
 40
10.0
  9
$CHAMFERB
 40
5.0
  9
$SKPOLY
 70
     0
  9
$TDCREATE
 40
2452066.7422092012
  9
$TDUPDATE
 40
2458541.5567770381
  9
$TDINDWG
 40
0.183576713
  9
$TDUSRTIMER
 40
0.1835765046
  9
$USRTIMER
 70
     1
  9
$ANGBASE
 50
0.0
  9
$ANGDIR
 70
     0
  9
$PDMODE
 70
     0
  9
$PDSIZE
 40
0.0
  9
$PLINEWID
 40
0.0
  9
$COORDS
 70
     1
  9
$SPLFRAME
 70
     0
  9
$SPLINETYPE
 70
     6
  9
$SPLINESEGS
 70
     8
  9
$ATTDIA
 70
     1
  9
$ATTREQ
 70
     1
  9
$HANDLING
 70
     1
  9
$HANDSEED
  5
3462
  9
$SURFTAB1
 70
     6
  9
$SURFTAB2
 70
     6
  9
$SURFTYPE
 70
     6
  9
$SURFU
 70
     6
  9
$SURFV
 70
     6
  9
$UCSNAME
  2

  9
$UCSORG
 10
0.0
 20
0.0
 30
0.0
  9
$UCSXDIR
 10
1.0
 20
0.0
 30
0.0
  9
$UCSYDIR
 10
0.0
 20
1.0
 30
0.0
  9
$PUCSNAME
  2

  9
$PUCSORG
 10
0.0
 20
0.0
 30
0.0
  9
$PUCSXDIR
 10
1.0
 20
0.0
 30
0.0
  9
$PUCSYDIR
 10
0.0
 20
1.0
 30
0.0
  9
$USERI1
 70
     0
  9
$USERI2
 70
     0
  9
$USERI3
 70
     0
  9
$USERI4
 70
     0
  9
$USERI5
 70
     0
  9
$USERR1
 40
0.0
  9
$USERR2
 40
0.0
  9
$USERR3
 40
0.0
  9
$USERR4
 40
0.0
  9
$USERR5
 40
0.0
  9
$WORLDVIEW
 70
     1
  9
$SHADEDGE
 70
     3
  9
$SHADEDIF
 70
    70
  9
$TILEMODE
 70
     1
  9
$MAXACTVP
 70
    64
  9
$PLIMCHECK
 70
     0
  9
$PEXTMIN
 10
1.0000000000000000E+020
 20
1.0000000000000000E+020
 30
1.0000000000000000E+020
  9
$PEXTMAX
 10
-1.0000000000000000E+020
 20
-1.0000000000000000E+020
 30
-1.0000000000000000E+020
  9
$PLIMMIN
 10
0.0
 20
0.0
  9
$PLIMMAX
 10
420.0
 20
297.0
  9
$UNITMODE
 70
     0
  9
$VISRETAIN
 70
     1
  9
$PLINEGEN
 70
     0
  9
$PSLTSCALE
 70
     1
  0
ENDSEC
  0
SECTION
  2
TABLES
  0
TABLE
  2
VPORT
 70
     1
  0
VPORT
  2
*ACTIVE
 70
     0
 10
0.0
 20
0.0
 11
1.0
 21
1.0
 12
783.42121463870978
 22
636.56812787960212
 13
0.0
 23
0.0
 14
12.5
 24
12.5
 15
50.0
 25
50.0
 16
0.0
 26
0.0
 36
1.0
 17
0.0
 27
0.0
 37
0.0
 40
839.99854099147115
 41
1.7571592210767459
 42
50.0
 43
0.0
 44
0.0
 50
0.0
 51
0.0
 71
     0
 72
   100
 73
     1
 74
     3
 75
     0
 76
     0
 77
     0
 78
     0
  0
ENDTAB
  0
TABLE
  2
LTYPE
 70
    26
  0
LTYPE
  2
CONTINUOUS
 70
     0
  3
Solid line
 72
    65
 73
     0
 40
0.0
  0
LTYPE
  2
AM_ISO02W050
 70
     0
  3
__ __ __ __ __ __ __ __ __ __ __ __ __ __ __
 72
    65
 73
     2
 40
7.5
 49
6.0
 49
-1.5
  0
LTYPE
  2
AM_ISO08W050
 70
     0
  3
____ . ____ . ____ . ____ . ____ . ____ . ____
 72
    65
 73
     4
 40
18.0
 49
12.0
 49
-1.5
 49
3.0
 49
-1.5
  0
LTYPE
  2
AM_ISO09W050
 70
     0
  3
_____ . . _____ . . _____ . . ____ .. ____
 72
    65
 73
     6
 40
22.5
 49
12.0
 49
-1.5
 49
3.0
 49
-1.5
 49
3.0
 49
-1.5
  0
LTYPE
  2
AMCONSTR
 70
     0
  3
_______________________
 72
    65
 73
     2
 40
9999.0
 49
9999.0
 49
0.0
  0
LTYPE
  2
AM_ISO08W050X2
 70
     0
  3
__ . __ . __ . __ . __ . __
 72
    65
 73
     4
 40
9.0
 49
6.0
 49
-0.75
 49
1.5
 49
-0.75
  0
LTYPE
  2
AM_ISO02W050X2
 70
     0
  3
 _ _ _ _ _ _ _ _ _ _ _ _
 72
    65
 73
     2
 40
3.75
 49
3.0
 49
-0.75
  0
LTYPE
  2
AMZIGZAG
 70
     0
  3
/\/-/\/-/\/-/\/-/\/-/\/
 72
    65
 73
     2
 40
11.000099999999991
 49
0.0001
 49
-11.0
  0
LTYPE
  2
ACISOWELD
 70
     0
  3
_ _ _ _ _
 72
    65
 73
     2
 40
2.0
 49
2.0
 49
-1.0
  0
LTYPE
  2
ACISOTGB
 70
     0
  3
__ . . __ . .
 72
    65
 73
     6
 40
9.0
 49
4.0
 49
-1.0
 49
1.0
 49
-1.0
 49
1.0
 49
-1.0
  0
LTYPE
  2
ACISOTGL
 70
     0
  3
_ _ _ _ _
 72
    65
 73
     2
 40
3.0
 49
2.0
 49
-1.0
  0
LTYPE
  2
CENTER
 70
     0
  3
__ . __
 72
    65
 73
     4
 40
7.0
 49
4.0
 49
-1.0
 49
1.0
 49
-1.0
  0
LTYPE
  2
PHANTOM2
 70
     0
  3
Phantom (.5x) ___ _ _ ___ _ _ ___ _ _ ___ _ _
 72
    65
 73
     6
 40
31.75
 49
15.875
 49
-3.174999999999998
 49
3.174999999999998
 49
-3.174999999999998
 49
3.174999999999998
 49
-3.174999999999998
  0
LTYPE
  2
ACANSTGBM
 70
     0
  3
__ . . __ . .
 72
    65
 73
     6
 40
9.0
 49
4.0
 49
-1.0
 49
1.0
 49
-1.0
 49
1.0
 49
-1.0
  0
LTYPE
  2
ACANSTGLM
 70
     0
  3
_ _ _ _ _
 72
    65
 73
     2
 40
3.0
 49
2.0
 49
-1.0
  0
LTYPE
  2
GEN7
 70
     0
  3
____ . ____ . ____ . ____ . ____ . ____ . ____
 72
    65
 73
     4
 40
14.25
 49
9.75
 49
-1.5
 49
1.5
 49
-1.5
  0
LTYPE
  2
GEN7A
 70
     0
  3
__ . __ . __
 72
    65
 73
     4
 40
7.375
 49
4.75
 49
-0.875
 49
0.875
 49
-0.875
  0
LTYPE
  2
ACJISTGB
 70
     0
  3
__ . . __ . .
 72
    65
 73
     6
 40
9.0
 49
4.0
 49
-1.0
 49
1.0
 49
-1.0
 49
1.0
 49
-1.0
  0
LTYPE
  2
ACJISTGL
 70
     0
  3
_ _ _ _ _
 72
    65
 73
     2
 40
3.0
 49
2.0
 49
-1.0
  0
LTYPE
  2
HIDDEN
 70
     0
  3
Hidden __ __ __ __ __ __ __ __ __ __ __ __ __ _
 72
    65
 73
     2
 40
0.375
 49
0.25
 49
-0.125
  0
LTYPE
  2
CENTER2
 70
     0
  3
Center (.5x) ___ _ ___ _ ___ _ ___ _ ___ _ ___
 72
    65
 73
     4
 40
1.125
 49
0.75
 49
-0.125
 49
0.125
 49
-0.125
  0
LTYPE
  2
HIDDEN2
 70
     0
  3
Hidden (.5x) _ _ _ _ _ _ _ _ _ _ _ _ _ _ _ _ _
 72
    65
 73
     2
 40
0.1875
 49
0.125
 49
-0.0625
  0
LTYPE
  2
AMZIGZAG2
 70
     0
  3
/\/-/\/-/\/-/\/-/\/-/\/
 72
    65
 73
     2
 40
0.4401
 49
0.0001
 49
-0.4400000000000002
  0
LTYPE
  2
ACANSTGB
 70
     0
  3
__ . . __ . .
 72
    65
 73
     6
 40
0.35433070866
 49
0.15748031496
 49
-0.03937007874
 49
0.03937007874
 49
-0.03937007874
 49
0.03937007874
 49
-0.03937007874
  0
LTYPE
  2
ACANSTGL
 70
     0
  3
_ _ _ _ _
 72
    65
 73
     2
 40
0.11811023622
 49
0.07874015748
 49
-0.03937007874
  0
ENDTAB
  0
TABLE
  2
LAYER
 70
     6
  0
LAYER
  2
0
 70
     0
 62
     7
  6
CONTINUOUS
  0
LAYER
  2
AM_0
 70
     0
 62
     7
  6
CONTINUOUS
  0
LAYER
  2
AM_5
 70
     0
 62
     2
  6
CONTINUOUS
  0
LAYER
  2
DEFPOINTS
 70
     0
 62
     7
  6
CONTINUOUS
  0
LAYER
  2
ﾁｭｳｼﾝｾﾝ
 70
     0
 62
     1
  6
GEN7
  0
LAYER
  2
ﾁｭｳｼﾝｾﾝ1
 70
     0
 62
     1
  6
GEN7A
  0
ENDTAB
  0
TABLE
  2
STYLE
 70
     9
  0
STYLE
  2
STANDARD
 70
     0
 40
0.0
 41
0.8299999999999999
 50
0.0
 71
     0
 42
2.5
  3
txt.shx
  4
bigfont.shx
  0
STYLE
  2
ANNOTATIVE
 70
     0
 40
0.0
 41
1.0
 50
0.0
 71
     0
 42
0.2
  3
txt
  4

  0
STYLE
  2

 70
     1
 40
0.0
 41
1.0
 50
0.0
 71
     0
 42
2.5
  3
ltypeshp.shx
  4

  0
STYLE
  2
ACISOTS
 70
     0
 40
1.0
 41
1.0
 50
0.0
 71
     0
 42
2.5
  3
isocp.shx
  4
extfont.shx
  0
STYLE
  2
ACISOGDT
 70
     0
 40
0.0
 41
1.0
 50
0.0
 71
     0
 42
2.5
  3
amgdt.shx
  4

  0
STYLE
  2
ACANSTS
 70
     0
 40
1.0
 41
1.0
 50
0.0
 71
     0
 42
2.5
  3
romans.shx
  4
bigfont.shx
  0
STYLE
  2
ACANSGDT
 70
     0
 40
0.0
 41
1.0
 50
0.0
 71
     0
 42
2.5
  3
amgdt.shx
  4

  0
STYLE
  2
ACJISTS
 70
     0
 40
1.0
 41
1.0
 50
0.0
 71
     0
 42
2.5
  3
isocp.shx
  4
bigfont.shx
  0
STYLE
  2
ACJISGDT
 70
     0
 40
0.0
 41
1.0
 50
0.0
 71
     0
 42
2.5
  3
amgdt.shx
  4

  0
ENDTAB
  0
TABLE
  2
VIEW
 70
     6
  0
VIEW
  2
AM_VIEW1
 70
     0
 40
462.5
 10
416.07965009208078
 20
693.75
 41
832.15930018416213
 11
0.0
 21
0.0
 31
1.0
 12
0.0
 22
0.0
 32
0.0
 42
50.0
 43
0.0
 44
0.0
 50
0.0
 71
     0
  0
VIEW
  2
AM_VIEW2
 70
     0
 40
462.5
 10
1006.420349907918
 20
693.75
 41
832.15930018416213
 11
0.0
 21
0.0
 31
1.0
 12
0.0
 22
0.0
 32
0.0
 42
50.0
 43
0.0
 44
0.0
 50
0.0
 71
     0
  0
VIEW
  2
AM_VIEW3
 70
     0
 40
462.5
 10
416.07965009208078
 20
231.25
 41
832.15930018416213
 11
0.0
 21
0.0
 31
1.0
 12
0.0
 22
0.0
 32
0.0
 42
50.0
 43
0.0
 44
0.0
 50
0.0
 71
     0
  0
VIEW
  2
AM_VIEW4
 70
     0
 40
462.5
 10
1006.420349907918
 20
231.25
 41
832.15930018416213
 11
0.0
 21
0.0
 31
1.0
 12
0.0
 22
0.0
 32
0.0
 42
50.0
 43
0.0
 44
0.0
 50
0.0
 71
     0
  0
VIEW
  2
AM_VIEW5
 70
     0
 40
462.5
 10
711.24999999999966
 20
462.5
 41
832.15930018416179
 11
0.0
 21
0.0
 31
1.0
 12
0.0
 22
0.0
 32
0.0
 42
50.0
 43
0.0
 44
0.0
 50
0.0
 71
     0
  0
VIEW
  2
AM_VIEW6
 70
     0
 40
924.99075000000005
 10
711.24999999999966
 20
462.5
 41
1664.3019571823199
 11
0.0
 21
0.0
 31
1.0
 12
0.0
 22
0.0
 32
0.0
 42
50.0
 43
0.0
 44
0.0
 50
0.0
 71
     0
  0
ENDTAB
  0
TABLE
  2
UCS
 70
     0
  0
ENDTAB
  0
TABLE
  2
APPID
 70
    95
  0
APPID
  2
ACAD
 70
     0
  0
APPID
  2
ACADANNOTATIVE
 70
     0
  0
APPID
  2
MCAD_NO_VIS
 70
     0
  0
APPID
  2
ACAD_TEMP_GRAPHIC
 70
     0
  0
APPID
  2
ACATTRIBSERVICES
 70
     0
  0
APPID
  2
GENIUS_GENREC_14
 70
     0
  0
APPID
  2
GENIUS_GENOBJ-N-REC_13
 70
     0
  0
APPID
  2
GENIUS_GENODEF_13
 70
     0
  0
APPID
  2
GENIUS_GENOLIS_13
 70
     0
  0
APPID
  2
GENIUS_GENOBJ-N-TIT_13
 70
     0
  0
APPID
  2
GENIUS_GENOENT_13
 70
     0
  0
APPID
  2
GENIUS_GENTITLE_13
 70
     0
  0
APPID
  2
GENIUS_GENOREF_13
 70
     0
  0
APPID
  2
GENIUS_GENSCREG_15
 70
     0
  0
APPID
  2
GENIUS_GENOBJ-N-SDF_13
 70
     0
  0
APPID
  2
GENIUS_GENFIL_13
 70
     0
  0
APPID
  2
GENIUS_GENOBJ-N-CHA_13
 70
     0
  0
APPID
  2
GENIUS_GENDTOL_13
 70
     0
  0
APPID
  2
GENIUS_GENOBJ-N-FIL_13
 70
     0
  0
APPID
  2
AD_DRAW
 70
     0
  0
APPID
  2
DESIGNERASSEMBLIES
 70
     0
  0
APPID
  2
ASURF_PCURVE_APPNAME
 70
     0
  0
APPID
  2
GENIUS_GE3SECT_13
 70
     0
  0
APPID
  2
GENIUS_GENCFG_13
 70
     0
  0
APPID
  2
GENIUS_GE3CFG0_13
 70
     0
  0
APPID
  2
GENIUS_GENCFG0_13
 70
     0
  0
APPID
  2
GENIUS_GENCFG1_13
 70
     0
  0
APPID
  2
GENIUS_GENCFG2_13
 70
     0
  0
APPID
  2
GENIUS_GENCFG3_13
 70
     0
  0
APPID
  2
GENIUS_GENCFG4_13
 70
     0
  0
APPID
  2
GENIUS_GEVCFG0_13
 70
     0
  0
APPID
  2
GENIUS_GENHINW_13
 70
     0
  0
APPID
  2
GENIUS_FIRSTVISTXT_14
 70
     0
  0
APPID
  2
GENIUS_GENOBJ-N-LEADER_13
 70
     0
  0
APPID
  2
GEV_VCCNULL_SWITCH_OFF
 70
     0
  0
APPID
  2
GENIUS_GEFCFG0_13
 70
     0
  0
APPID
  2
GENIUS_GENZVEED_13
 70
     0
  0
APPID
  2
GENIUS_GENSCREG_13
 70
     0
  0
APPID
  2
GENIUS_DUMCFG0_13
 70
     0
  0
APPID
  2
GEVID936201362
 70
     0
  0
APPID
  2
GEVDC
 70
     0
  0
APPID
  2
GEVCON
 70
     0
  0
APPID
  2
VCC
 70
     0
  0
APPID
  2
GEVPT
 70
     0
  0
APPID
  2
GEVIT
 70
     0
  0
APPID
  2
GENBH
 70
     0
  0
APPID
  2
GEVMK
 70
     0
  0
APPID
  2
GENIUS_GENBH_13
 70
     0
  0
APPID
  2
GENIUS_GENOBJ-NBEHI-BHF_13
 70
     0
  0
APPID
  2
GENIUS_GENOBJ-NBEHI-BHB_13
 70
     0
  0
APPID
  2
GENIUS_GENOBJ-F-DESC_13
 70
     0
  0
APPID
  2
GENIUS_GEFDESC_14
 70
     0
  0
APPID
  2
GENIUS_GENOBJ-F-PART_13
 70
     0
  0
APPID
  2
GENIUS_GEFSTDP_13
 70
     0
  0
APPID
  2
GENIUS_GEFPARTINS_13
 70
     0
  0
APPID
  2
GENIUS_GENTRA_14
 70
     0
  0
APPID
  2
GENIUS_GENINF13_13
 70
     0
  0
APPID
  2
GENIUS_GENOBJ-N-INFOPT_13
 70
     0
  0
APPID
  2
GENIUS_GENOBJ-N-RSSYM_13
 70
     0
  0
APPID
  2
GENIUS_GENSYMENT_13
 70
     0
  0
APPID
  2
GENIUS_GENSCSYM_13
 70
     0
  0
APPID
  2
GENIUS_GEFINFNAM_13
 70
     0
  0
APPID
  2
GENIUS_GENOBJ-N-CEN_13
 70
     0
  0
APPID
  2
GENIUS_GENOBJ-N-CRS_13
 70
     0
  0
APPID
  2
GENIUS_GENOBJ-N-CRC_13
 70
     0
  0
APPID
  2
GENIUS_GENCRC_14
 70
     0
  0
APPID
  2
GEVID942827039
 70
     0
  0
APPID
  2
GEVID942827040
 70
     0
  0
APPID
  2
GEVID942827041
 70
     0
  0
APPID
  2
GENIUS_GENOBJ-F-SCPASSM_13
 70
     0
  0
APPID
  2
GENIUS_GENDIMSH_14
 70
     0
  0
APPID
  2
GEVID942827042
 70
     0
  0
APPID
  2
GEVID946020473
 70
     0
  0
APPID
  2
GEVID946020474
 70
     0
  0
APPID
  2
GEVID946020475
 70
     0
  0
APPID
  2
GENIUS_GENOBJ-N-HTC_13
 70
     0
  0
APPID
  2
GENIUS_GENHATCH_13
 70
     0
  0
APPID
  2
GEVID948854295
 70
     0
  0
APPID
  2
GEVID939402019
 70
     0
  0
APPID
  2
GEVID952919491
 70
     0
  0
APPID
  2
GEVID952919492
 70
     0
  0
APPID
  2
GENIUS_GEFWELD_13
 70
     0
  0
APPID
  2
GENIUS_GENOBJ-F-WELS_13
 70
     0
  0
APPID
  2
GEVID952919493
 70
     0
  0
APPID
  2
GENIUS_GENOBJ-N-RSBK_13
 70
     0
  0
APPID
  2
GENIUS_GENOBJ-N-LIB_13
 70
     0
  0
APPID
  2
GENIUS_GENSCALE_13
 70
     0
  0
APPID
  2
GEVID986376691
 70
     0
  0
APPID
  2
DCO15
 70
     0
  0
APPID
  2
ACAD_DSTYLE_DIMBREAK
 70
     0
  0
APPID
  2
ACAD_DSTYLE_DIMJAG
 70
     0
  0
APPID
  2
ACAD_NAV_VCDISPLAY
 70
     0
  0
APPID
  2
ACADANNOPO
 70
     0
  0
APPID
  2
ACAD_EXEMPT_FROM_CAD_STANDARDS
 70
     0
  0
APPID
  2
ACAD_MLEADERVER
 70
     0
  0
ENDTAB
  0
TABLE
  2
DIMSTYLE
 70
    22
  0
DIMSTYLE
  2
STANDARD
 70
     0
  3

  4

  5

  6

  7

 40
1.0
 41
0.18
 42
0.0625
 43
0.38
 44
0.18
 45
0.0
 46
0.0
 47
0.0
 48
0.0
140
0.18
141
0.09
142
0.0
143
25.399999999999999
144
1.0
145
0.0
146
1.0
147
0.09
 71
     0
 72
     0
 73
     1
 74
     1
 75
     0
 76
     0
 77
     0
 78
     0
170
     0
171
     2
172
     0
173
     0
174
     0
175
     0
176
     0
177
     0
178
     0
  0
DIMSTYLE
  2
ANNOTATIVE
 70
     0
  3

  4

  5

  6

  7

 40
1.0
 41
0.18
 42
0.0625
 43
0.38
 44
0.18
 45
0.0
 46
0.0
 47
0.0
 48
0.0
140
0.18
141
0.09
142
0.0
143
25.399999999999999
144
1.0
145
0.0
146
1.0
147
0.09
 71
     0
 72
     0
 73
     1
 74
     1
 75
     0
 76
     0
 77
     0
 78
     0
170
     0
171
     2
172
     0
173
     0
174
     0
175
     0
176
     0
177
     0
178
     0
  0
DIMSTYLE
  2
AM_ISO
 70
     0
  3

  4
"
  5

  6

  7

 40
1.0
 41
2.5
 42
1.0
 43
8.0
 44
0.6
 45
0.0
 46
0.0
 47
0.1
 48
0.1
140
2.5
141
0.0
142
0.0
143
0.0393701
144
1.0
145
0.0
146
0.71
147
0.8
 71
     0
 72
     0
 73
     0
 74
     0
 75
     0
 76
     0
 77
     1
 78
     8
170
     0
171
     2
172
     1
173
     0
174
     0
175
     0
176
   256
177
   256
178
     4
  0
DIMSTYLE
  2
AM_ISO$3
 70
     0
  3

  4
"
  5

  6

  7

 40
1.0
 41
2.5
 42
1.0
 43
8.0
 44
0.6
 45
0.0
 46
0.0
 47
0.1
 48
0.1
140
2.5
141
0.0
142
0.0
143
0.0393701
144
1.0
145
0.0
146
0.71
147
0.8
 71
     0
 72
     0
 73
     0
 74
     1
 75
     0
 76
     0
 77
     1
 78
     8
170
     0
171
     2
172
     0
173
     0
174
     0
175
     0
176
   256
177
   256
178
     4
  0
DIMSTYLE
  2
AM_ISO$4
 70
     0
  3

  4
"
  5

  6

  7

 40
1.0
 41
2.5
 42
1.0
 43
8.0
 44
0.6
 45
0.0
 46
0.0
 47
0.1
 48
0.1
140
2.5
141
0.0
142
0.0
143
0.0393701
144
1.0
145
0.0
146
0.71
147
0.8
 71
     0
 72
     0
 73
     0
 74
     1
 75
     0
 76
     0
 77
     1
 78
     8
170
     0
171
     2
172
     0
173
     0
174
     0
175
     0
176
   256
177
   256
178
     4
  0
DIMSTYLE
  2
AM_ISO$6
 70
     0
  3

  4
"
  5

  6

  7

 40
1.0
 41
2.5
 42
1.0
 43
8.0
 44
0.6
 45
0.0
 46
0.0
 47
0.1
 48
0.1
140
2.5
141
0.0
142
0.0
143
0.0393701
144
1.0
145
0.0
146
0.71
147
0.8
 71
     0
 72
     0
 73
     0
 74
     0
 75
     0
 76
     0
 77
     0
 78
     8
170
     0
171
     2
172
     1
173
     0
174
     0
175
     0
176
   256
177
   256
178
     4
  0
DIMSTYLE
  2
AM_ISO$7
 70
     0
  3

  4
"
  5

  6

  7

 40
1.0
 41
2.5
 42
1.0
 43
8.0
 44
0.6
 45
0.0
 46
0.0
 47
0.1
 48
0.1
140
2.5
141
0.0
142
0.0
143
0.0393701
144
1.0
145
0.0
146
0.71
147
0.8
 71
     0
 72
     0
 73
     0
 74
     0
 75
     0
 76
     0
 77
     1
 78
     8
170
     0
171
     2
172
     1
173
     0
174
     0
175
     0
176
   256
177
   256
178
     4
  0
DIMSTYLE
  2
AM_ISO$SF
 70
     0
  3

  4
"
  5

  6

  7

 40
1.0
 41
2.5
 42
1.0
 43
10.0
 44
1.0
 45
0.0
 46
0.0
 47
0.1
 48
0.1
140
3.5
141
0.0
142
0.0
143
0.0393701
144
1.0
145
0.0
146
0.71
147
1.5
 71
     0
 72
     0
 73
     0
 74
     0
 75
     1
 76
     1
 77
     1
 78
     8
170
     0
171
     2
172
     1
173
     0
174
     0
175
     0
176
   256
177
   256
178
     2
  0
DIMSTYLE
  2
AM_ISO$SH
 70
     0
  3

  4
"
  5

  6

  7

 40
1.0
 41
2.5
 42
1.0
 43
10.0
 44
1.0
 45
0.0
 46
0.0
 47
0.1
 48
0.1
140
3.5
141
0.0
142
0.0
143
0.0393701
144
2.0
145
0.0
146
0.71
147
1.5
 71
     0
 72
     0
 73
     0
 74
     0
 75
     1
 76
     1
 77
     1
 78
     8
170
     0
171
     2
172
     1
173
     1
174
     0
175
     0
176
   256
177
   256
178
     2
  0
DIMSTYLE
  2
AM_JIS
 70
     0
  3

  4
"
  5

  6

  7

 40
1.0
 41
2.5
 42
1.0
 43
7.0
 44
1.0
 45
0.0
 46
0.0
 47
0.1
 48
0.1000000001
140
2.5
141
0.0
142
0.0
143
0.0393701
144
1.0
145
0.0
146
0.71
147
1.0
 71
     0
 72
     0
 73
     0
 74
     0
 75
     0
 76
     0
 77
     3
 78
     8
170
     0
171
     2
172
     1
173
     0
174
     0
175
     0
176
   256
177
   256
178
     4
  0
DIMSTYLE
  2
AM_JIS$3
 70
     0
  3

  4
"
  5

  6

  7

 40
1.0
 41
2.5
 42
1.0
 43
7.0
 44
1.0
 45
0.0
 46
0.0
 47
0.1
 48
0.1000000001
140
2.5
141
0.0
142
0.0
143
0.0393701
144
1.0
145
0.0
146
0.71
147
1.0
 71
     0
 72
     0
 73
     0
 74
     1
 75
     0
 76
     0
 77
     3
 78
     8
170
     0
171
     2
172
     0
173
     0
174
     0
175
     0
176
   256
177
   256
178
     4
  0
DIMSTYLE
  2
AM_JIS$4
 70
     0
  3

  4
"
  5

  6

  7

 40
1.0
 41
2.5
 42
1.0
 43
7.0
 44
1.0
 45
0.0
 46
0.0
 47
0.1
 48
0.1000000001
140
2.5
141
0.0
142
0.0
143
0.0393701
144
1.0
145
0.0
146
0.71
147
1.0
 71
     0
 72
     0
 73
     0
 74
     0
 75
     0
 76
     0
 77
     3
 78
     8
170
     0
171
     2
172
     0
173
     0
174
     0
175
     0
176
   256
177
   256
178
     4
  0
DIMSTYLE
  2
AM_JIS$6
 70
     0
  3

  4
"
  5

  6

  7

 40
1.0
 41
2.5
 42
1.0
 43
7.0
 44
1.0
 45
0.0
 46
0.0
 47
0.1
 48
0.1000000001
140
2.5
141
0.0
142
0.0
143
0.0393701
144
1.0
145
0.0
146
0.71
147
1.0
 71
     0
 72
     0
 73
     0
 74
     0
 75
     0
 76
     0
 77
     0
 78
     8
170
     0
171
     2
172
     1
173
     0
174
     0
175
     0
176
   256
177
   256
178
     4
  0
DIMSTYLE
  2
AM_JIS$7
 70
     0
  3

  4
"
  5

  6

  7

 40
1.0
 41
2.5
 42
1.0
 43
7.0
 44
1.0
 45
0.0
 46
0.0
 47
0.1
 48
0.1000000001
140
2.5
141
0.0
142
0.0
143
0.0393701
144
1.0
145
0.0
146
0.71
147
1.0
 71
     0
 72
     0
 73
     0
 74
     0
 75
     0
 76
     0
 77
     3
 78
     8
170
     0
171
     2
172
     1
173
     0
174
     0
175
     0
176
   256
177
   256
178
     4
  0
DIMSTYLE
  2
AM_JIS$SF
 70
     0
  3

  4
"
  5

  6

  7

 40
1.0
 41
2.5
 42
1.0
 43
10.0
 44
1.0
 45
0.0
 46
0.0
 47
0.1
 48
0.1
140
3.5
141
0.0
142
0.0
143
0.0393701
144
1.0
145
0.0
146
0.71
147
1.5
 71
     0
 72
     0
 73
     0
 74
     0
 75
     1
 76
     1
 77
     3
 78
     8
170
     0
171
     2
172
     1
173
     0
174
     0
175
     0
176
   256
177
   256
178
     4
  0
DIMSTYLE
  2
AM_JIS$SH
 70
     0
  3

  4
"
  5

  6

  7

 40
1.0
 41
2.5
 42
1.0
 43
10.0
 44
1.0
 45
0.0
 46
0.0
 47
0.1
 48
0.1
140
3.5
141
0.0
142
0.0
143
0.0393701
144
1.0
145
0.0
146
0.71
147
1.5
 71
     0
 72
     0
 73
     0
 74
     0
 75
     1
 76
     0
 77
     3
 78
     8
170
     0
171
     2
172
     1
173
     1
174
     0
175
     0
176
   256
177
   256
178
     4
  0
DIMSTYLE
  2
AM_ANSI
 70
     0
  3

  4
mm
  5

  6

  7

 40
1.0
 41
0.1
 42
0.05
 43
0.5
 44
0.1
 45
0.0
 46
0.0
 47
0.1
 48
0.1
140
0.12
141
0.0
142
0.0
143
25.399999999999999
144
1.0
145
0.0
146
0.71
147
0.06
 71
     0
 72
     0
 73
     1
 74
     1
 75
     0
 76
     0
 77
     0
 78
     7
170
     0
171
     2
172
     0
173
     0
174
     0
175
     0
176
   256
177
   256
178
     2
  0
DIMSTYLE
  2
AM_ANSI$3
 70
     0
  3

  4
mm
  5

  6

  7

 40
1.0
 41
0.1
 42
0.05
 43
0.5
 44
0.1
 45
0.0
 46
0.0
 47
0.1
 48
0.1
140
0.12
141
0.0
142
0.0
143
25.399999999999999
144
1.0
145
0.0
146
0.71
147
0.06
 71
     0
 72
     0
 73
     1
 74
     1
 75
     0
 76
     0
 77
     0
 78
     7
170
     0
171
     2
172
     0
173
     0
174
     0
175
     0
176
   256
177
   256
178
     2
  0
DIMSTYLE
  2
AM_ANSI$4
 70
     0
  3

  4
mm
  5

  6

  7

 40
1.0
 41
0.1
 42
0.05
 43
0.5
 44
0.1
 45
0.0
 46
0.0
 47
0.1
 48
0.1
140
0.12
141
0.0
142
0.0
143
25.399999999999999
144
1.0
145
0.0
146
0.71
147
0.06
 71
     0
 72
     0
 73
     1
 74
     1
 75
     0
 76
     0
 77
     0
 78
     7
170
     0
171
     2
172
     0
173
     0
174
     0
175
     0
176
   256
177
   256
178
     2
  0
DIMSTYLE
  2
AM_ANSI$7
 70
     0
  3

  4
mm
  5

  6

  7

 40
1.0
 41
0.1
 42
0.05
 43
0.5
 44
0.1
 45
0.0
 46
0.0
 47
0.1
 48
0.1
140
0.24
141
0.0
142
0.0
143
25.399999999999999
144
1.0
145
0.0
146
0.71
147
0.06
 71
     0
 72
     0
 73
     1
 74
     1
 75
     0
 76
     0
 77
     0
 78
     7
170
     0
171
     2
172
     0
173
     0
174
     0
175
     0
176
   256
177
   256
178
     2
  0
DIMSTYLE
  2
AM_ANSI$SF
 70
     0
  3

  4
mm
  5

  6

  7

 40
1.0
 41
0.1
 42
0.05
 43
0.5
 44
0.1
 45
0.0
 46
0.0
 47
0.1
 48
0.1
140
0.12
141
0.0
142
0.0
143
25.399999999999999
144
1.0
145
0.0
146
0.71
147
0.06
 71
     0
 72
     0
 73
     1
 74
     1
 75
     1
 76
     1
 77
     0
 78
     7
170
     0
171
     2
172
     0
173
     0
174
     0
175
     0
176
   256
177
   256
178
     2
  0
DIMSTYLE
  2
AM_ANSI$SH
 70
     0
  3

  4
mm
  5

  6

  7

 40
1.0
 41
0.1
 42
0.05
 43
0.5
 44
0.1
 45
0.0
 46
0.0
 47
0.1
 48
0.1
140
0.12
141
0.0
142
0.0
143
25.399999999999999
144
1.0
145
0.0
146
0.71
147
0.06
 71
     0
 72
     0
 73
     1
 74
     1
 75
     1
 76
     1
 77
     0
 78
     7
170
     0
171
     2
172
     0
173
     1
174
     0
175
     0
176
   256
177
   256
178
     2
  0
ENDTAB
  0
ENDSEC
  0
SECTION
  2
BLOCKS
  0
BLOCK
  8
0
  2
$MODEL_SPACE
 70
     0
 10
0.0
 20
0.0
 30
0.0
  3
$MODEL_SPACE
  1

  0
ENDBLK
  5
32D8
  8
0
  0
BLOCK
 67
     1
  8
0
  2
$PAPER_SPACE
 70
     0
 10
0.0
 20
0.0
 30
0.0
  3
$PAPER_SPACE
  1

  0
ENDBLK
  5
32D4
 67
     1
  8
0
  0
BLOCK
  8
0
  2
GENAXEH
 70
     0
 10
0.0
 20
0.0
 30
0.0
  3
GENAXEH
  1

  0
LINE
  5
3093
  8
0
 10
-1.0
 20
0.0
 30
0.0
 11
1.0
 21
0.0
 31
0.0
  0
ENDBLK
  5
3094
  8
0
  0
BLOCK
  8
0
  2
_OPEN30
 70
     0
 10
0.0
 20
0.0
 30
0.0
  3
_OPEN30
  1

  0
LINE
  5
3097
  8
0
 62
     0
 10
-1.0
 20
0.26794919
 30
0.0
 11
0.0
 21
0.0
 31
0.0
  0
LINE
  5
3098
  8
0
 62
     0
 10
0.0
 20
0.0
 30
0.0
 11
-1.0
 21
-0.26794919
 31
0.0
  0
LINE
  5
3099
  8
0
 62
     0
 10
0.0
 20
0.0
 30
0.0
 11
-1.0
 21
0.0
 31
0.0
  0
ENDBLK
  5
309A
  8
0
  0
BLOCK
  8
0
  2
_NONE
 70
     0
 10
0.0
 20
0.0
 30
0.0
  3
_NONE
  1

  0
ENDBLK
  5
309D
  8
0
  0
BLOCK
  8
0
  2
_ACMFILLEDHALF
 70
     0
 10
0.0
 20
0.0
 30
0.0
  3
_ACMFILLEDHALF
  1

  0
TRACE
  5
33CE
  8
AM_0
 62
     0
 10
-0.8
 20
0.0
 30
0.0
 11
-1.0
 21
0.166666666
 31
0.0
 12
0.0
 22
0.0
 32
0.0
 13
0.0
 23
0.0
 33
0.0
  0
LINE
  5
33CF
  8
AM_0
 62
     0
 10
-1.0
 20
0.0
 30
0.0
 11
-0.8
 21
0.0
 31
0.0
  0
ENDBLK
  5
33CD
  8
0
  0
ENDSEC
  0
SECTION
  2
ENTITIES
  0
LINE
  5
309F
  8
AM_0
 10
617.30948690278456
 20
916.13432733548132
 30
0.0
 11
699.30948690278444
 21
916.13432733548132
 31
0.0
  0
LINE
  5
30A0
  8
AM_0
 10
617.30948690278456
 20
861.13432733548154
 30
0.0
 11
699.30948690278444
 21
861.13432733548154
 31
0.0
  0
LINE
  5
30A1
  8
ﾁｭｳｼﾝｾﾝ
 10
269.08178217599828
 20
888.63432733548154
 30
0.0
 11
709.92673690278446
 21
888.6343273354812
 31
0.0
  0
POLYLINE
  5
30A2
  8
AM_0
 66
     1
 10
0.0
 20
0.0
 30
0.0
  0
VERTEX
  5
30A3
  8
AM_0
 10
575.21237690278451
 20
975.02257733548151
 30
0.0
  0
VERTEX
  5
30A4
  8
AM_0
 10
573.30161290278454
 20
955.93296733548152
 30
0.0
  0
VERTEX
  5
30A5
  8
AM_0
 10
571.82926490278453
 20
936.80454833548117
 30
0.0
  0
VERTEX
  5
30A6
  8
AM_0
 10
570.79610690278435
 20
917.64738733548131
 30
0.0
  0
VERTEX
  5
30A7
  8
AM_0
 10
570.30957290278445
 20
903.14402233548128
 30
0.0
  0
VERTEX
  5
30A8
  8
AM_0
 10
570.07925690278455
 20
888.6343273354812
 30
0.0
  0
VERTEX
  5
30A9
  8
AM_0
 10
570.2106269027845
 20
867.11302033548111
 30
0.0
  0
VERTEX
  5
30AA
  8
AM_0
 10
570.89959290278455
 20
845.60234233548124
 30
0.0
  0
VERTEX
  5
30AB
  8
AM_0
 10
572.14569190278428
 20
824.11673933548093
 30
0.0
  0
VERTEX
  5
30AC
  8
AM_0
 10
573.94808690278455
 20
802.67063733548093
 30
0.0
  0
SEQEND
  5
30AD
  8
AM_0
  0
ARC
  5
30AE
  8
AM_0
 10
429.30948690278461
 20
878.09873733548125
 30
0.0
 40
5.0
 50
0.0
 51
31.78801800000311
  0
ARC
  5
30AF
  8
AM_0
 10
446.30954690278452
 20
888.6343273354812
 30
0.0
 40
12.5
 50
203.5781799999973
 51
336.42183000000068
  0
LINE
  5
30B0
  8
AM_0
 10
596.30960690278437
 20
1012.98344733548
 30
0.0
 11
596.30960690278437
 21
764.28520733548123
 31
0.0
  0
LINE
  5
30B1
  8
AM_0
 10
614.30954690278452
 20
1028.6343273354801
 30
0.0
 11
614.30954690278452
 21
748.63432733548132
 31
0.0
  0
LINE
  5
30B2
  8
AM_0
 10
609.30954690278429
 20
1053.6343273354801
 30
0.0
 11
609.30954690278429
 21
723.63426733548124
 31
0.0
  0
LINE
  5
30B3
  8
AM_0
 10
587.30954690278452
 20
1048.037587335481
 30
0.0
 11
587.30954690278452
 21
729.23106733548093
 31
0.0
  0
LINE
  5
30B4
  8
AM_0
 10
617.30948690278456
 20
918.63432733548109
 30
0.0
 11
617.30948690278456
 21
858.63432733548109
 31
0.0
  0
LINE
  5
30B5
  8
AM_0
 10
385.30960690278448
 20
986.13432733548154
 30
0.0
 11
385.30960690278448
 21
791.13432733548132
 31
0.0
  0
LINE
  5
30B6
  8
AM_0
 10
464.30954690278452
 20
883.63432733548109
 30
0.0
 11
464.30954690278452
 21
755.63432733548132
 31
0.0
  0
LINE
  5
30B7
  8
AM_0
 10
408.3094869027845
 20
782.17863733548131
 30
0.0
 11
408.3094869027845
 21
995.09001733548121
 31
0.0
  0
LINE
  5
30B8
  8
AM_0
 10
464.30954690278452
 20
755.63432733548132
 30
0.0
 11
439.1350469027845
 21
756.51341733548122
 31
0.0
  0
LINE
  5
30B9
  8
AM_0
 10
387.3094869027845
 20
831.85850733548125
 30
0.0
 11
387.3094869027845
 21
805.43913733548118
 31
0.0
  0
LINE
  5
30BA
  8
AM_0
 10
434.3094869027845
 20
761.51042733548127
 30
0.0
 11
434.3094869027845
 21
878.09873733548125
 31
0.0
  0
LINE
  5
30BB
  8
AM_0
 10
429.48398690278452
 20
776.61070733548115
 30
0.0
 11
413.13498690278431
 21
777.18162733548115
 31
0.0
  0
LINE
  5
30BC
  8
AM_0
 10
385.3094869027845
 20
791.13426733548124
 30
0.0
 11
403.48404690278443
 21
790.49961733548093
 31
0.0
  0
LINE
  5
30BD
  8
AM_0
 10
387.3094869027845
 20
805.43913733548118
 30
0.0
 11
408.3094869027845
 21
805.43913733548118
 31
0.0
  0
ARC
  5
30BE
  8
AM_0
 10
403.30954690278452
 20
785.50266733548131
 30
0.0
 40
5.0
 50
0.0
 51
88.000000000002785
  0
ARC
  5
30BF
  8
AM_0
 10
413.3094869027845
 20
782.17863733548131
 30
0.0
 40
5.0
 50
180.00001000000091
 51
268.00000000000261
  0
ARC
  5
30C0
  8
AM_0
 10
439.30948690278427
 20
761.51042733548127
 30
0.0
 40
5.0
 50
180.00001000000091
 51
268.00000000000261
  0
ARC
  5
30C1
  8
AM_0
 10
429.30948690278461
 20
771.61381733548126
 30
0.0
 40
5.0
 50
0.0
 51
88.000000000002785
  0
LINE
  5
30C2
  8
AM_0
 10
387.3094869027845
 20
831.85850733548125
 30
0.0
 11
408.3094869027845
 21
831.85850733548125
 31
0.0
  0
LINE
  5
30C3
  8
AM_0
 10
387.3094869027845
 20
815.62809733548124
 30
0.0
 11
408.3094869027845
 21
815.62809733548124
 31
0.0
  0
LINE
  5
30C4
  8
AM_0
 10
592.13510690278451
 20
724.23405733548122
 30
0.0
 11
609.30960690278425
 21
723.63432733548132
 31
0.0
  0
ARC
  5
30C5
  8
AM_0
 10
592.30954690278452
 20
729.23106733548093
 30
0.0
 40
5.0
 50
179.9999899999988
 51
268.00000999999861
  0
LINE
  5
30C6
  8
AM_0
 10
464.30954690278452
 20
755.63426733548124
 30
0.0
 11
580.46628690278453
 21
751.57798733548123
 31
0.0
  0
ARC
  5
30C7
  8
AM_0
 10
580.29178690278445
 20
746.58109733548122
 30
0.0
 40
5.0
 50
45.000001000003799
 51
88.000000000002785
  0
LINE
  5
30C8
  8
AM_0
 10
549.23874690278456
 20
800.98380733548095
 30
0.0
 11
584.80777690278455
 21
779.45738733548126
 31
0.0
  0
LINE
  5
30C9
  8
AM_0
 10
546.6591569027845
 20
791.27024733548114
 30
0.0
 11
584.89840690278425
 21
768.12779733548132
 31
0.0
  0
LINE
  5
30CA
  8
AM_0
 10
575.95968690278426
 20
801.79264733548121
 30
0.0
 11
587.30960690278448
 21
793.46885733548118
 31
0.0
  0
POLYLINE
  5
30CB
  8
AM_0
 66
     1
 10
0.0
 20
0.0
 30
0.0
  0
VERTEX
  5
30CC
  8
AM_0
 10
577.39308690278449
 20
772.67002733548122
 30
0.0
  0
VERTEX
  5
30CD
  8
AM_0
 10
577.86865090278445
 20
769.14876233548125
 30
0.0
  0
VERTEX
  5
30CE
  8
AM_0
 10
578.35893690278454
 20
765.6295173354813
 30
0.0
  0
VERTEX
  5
30CF
  8
AM_0
 10
578.86388490278455
 20
762.11263733548128
 30
0.0
  0
VERTEX
  5
30D0
  8
AM_0
 10
579.38351690278455
 20
758.59789733548121
 30
0.0
  0
VERTEX
  5
30D1
  8
AM_0
 10
579.91758390278449
 20
755.08684333548115
 30
0.0
  0
VERTEX
  5
30D2
  8
AM_0
 10
580.46628690278453
 20
751.57804733548085
 30
0.0
  0
SEQEND
  5
30D3
  8
AM_0
  0
LINE
  5
30D4
  8
AM_0
 10
549.24795690278415
 20
802.76078733548115
 30
0.0
 11
573.00277690278415
 21
802.76078733548115
 31
0.0
  0
ARC
  5
30D5
  8
AM_0
 10
549.24795690278415
 20
795.54789733548125
 30
0.0
 40
5.0
 50
179.9999899999988
 51
238.81764999999689
  0
ARC
  5
30D6
  8
AM_0
 10
549.24795690278415
 20
797.76078733548127
 30
0.0
 40
5.0
 50
90.00000299999769
 51
180.00001000000091
  0
LINE
  5
30D7
  8
AM_0
 10
544.24795690278438
 20
795.54789733548125
 30
0.0
 11
544.24795690278438
 21
797.76078733548127
 31
0.0
  0
ARC
  5
30D8
  8
AM_0
 10
573.00277690278415
 20
797.76078733548127
 30
0.0
 40
5.0
 50
53.744453000003212
 51
90.00000299999769
  0
LINE
  5
30D9
  8
AM_0
 10
583.82736690278455
 20
750.11656733548125
 30
0.0
 11
587.30960690278448
 21
746.63432733548098
 31
0.0
  0
ARC
  5
30DA
  8
AM_0
 10
588.30954690278429
 20
764.28520733548123
 30
0.0
 40
8.0
 50
270.0
 51
0.0
  0
ARC
  5
30DB
  8
AM_0
 10
582.30954690278452
 20
763.85020733548095
 30
0.0
 40
5.0
 50
0.0
 51
58.817640999998339
  0
LINE
  5
30DC
  8
AM_0
 10
609.30954690278429
 20
748.63432733548132
 30
0.0
 11
614.30954690278452
 21
748.63432733548132
 31
0.0
  0
ARC
  5
30DD
  8
AM_0
 10
588.30954690278429
 20
822.29765733548152
 30
0.0
 40
8.0
 50
270.0
 51
0.0
  0
LINE
  5
30DE
  8
AM_0
 10
614.30954690278452
 20
858.63432733548109
 30
0.0
 11
617.30948690278456
 21
858.63432733548109
 31
0.0
  0
ARC
  5
30DF
  8
AM_0
 10
446.30954690278452
 20
888.6343273354812
 30
0.0
 40
12.5
 50
23.578179999997531
 51
156.42182000000241
  0
LINE
  5
30E0
  8
AM_0
 10
426.30954690278429
 20
893.63432733548109
 30
0.0
 11
466.30954690278452
 21
893.63432733548109
 31
0.0
  0
LINE
  5
30E1
  8
AM_0
 10
426.30954690278429
 20
883.63432733548109
 30
0.0
 11
466.30954690278452
 21
883.63432733548109
 31
0.0
  0
LINE
  5
30E2
  8
AM_0
 10
464.30948690278427
 20
1021.63432733548
 30
0.0
 11
439.13498690278448
 21
1020.755237335481
 31
0.0
  0
LINE
  5
30E3
  8
AM_0
 10
387.3094869027845
 20
971.82945733548115
 30
0.0
 11
387.3094869027845
 21
945.41007733548111
 31
0.0
  0
LINE
  5
30E4
  8
AM_0
 10
434.3094869027845
 20
899.16984733548122
 30
0.0
 11
434.3094869027845
 21
1015.75822733548
 31
0.0
  0
LINE
  5
30E5
  8
AM_0
 10
387.3094869027845
 20
945.41007733548111
 30
0.0
 11
408.3094869027845
 21
945.41007733548111
 31
0.0
  0
ARC
  5
30E6
  8
AM_0
 10
429.30948690278461
 20
899.16984733548122
 30
0.0
 40
5.0
 50
328.21198000000078
 51
0.0
  0
ARC
  5
30E7
  8
AM_0
 10
426.30954690278429
 20
888.6343273354812
 30
0.0
 40
5.0
 50
90.00000299999769
 51
270.0
  0
ARC
  5
30E8
  8
AM_0
 10
446.30954690278452
 20
888.6343273354812
 30
0.0
 40
15.0
 50
199.4712300000005
 51
211.78801999999919
  0
ARC
  5
30E9
  8
AM_0
 10
446.30954690278452
 20
888.6343273354812
 30
0.0
 40
15.0
 50
148.21198000000049
 51
160.52876999999901
  0
LINE
  5
30EA
  8
AM_0
 10
429.48398690278452
 20
1000.65788733548
 30
0.0
 11
413.13498690278431
 21
1000.086957335481
 31
0.0
  0
ARC
  5
30EB
  8
AM_0
 10
403.30954690278452
 20
991.76591733548128
 30
0.0
 40
5.0
 50
271.9999999999971
 51
0.0
  0
LINE
  5
30EC
  8
AM_0
 10
385.30960690278448
 20
986.13426733548124
 30
0.0
 11
403.48410690278428
 21
986.76896733548153
 31
0.0
  0
LINE
  5
30ED
  8
AM_0
 10
387.3094869027845
 20
961.64048733548111
 30
0.0
 11
408.3094869027845
 21
961.64048733548111
 31
0.0
  0
LINE
  5
30EE
  8
AM_0
 10
387.3094869027845
 20
971.82945733548115
 30
0.0
 11
408.3094869027845
 21
971.82945733548115
 31
0.0
  0
ARC
  5
30EF
  8
AM_0
 10
413.3094869027845
 20
995.09001733548121
 30
0.0
 40
5.0
 50
91.999998000000545
 51
180.00001000000091
  0
ARC
  5
30F0
  8
AM_0
 10
439.30948690278427
 20
1015.75822733548
 30
0.0
 40
5.0
 50
91.999998000000545
 51
180.00001000000091
  0
ARC
  5
30F1
  8
AM_0
 10
429.30948690278461
 20
1005.65482733548
 30
0.0
 40
5.0
 50
271.9999999999971
 51
0.0
  0
LINE
  5
30F2
  8
AM_0
 10
582.43466690278456
 20
1025.759327335481
 30
0.0
 11
579.20440690278451
 21
1005.69481733548
 31
0.0
  0
LINE
  5
30F3
  8
AM_0
 10
464.30954690278452
 20
1021.634267335481
 30
0.0
 11
580.46628690278453
 21
1025.69053733548
 31
0.0
  0
LINE
  5
30F4
  8
AM_0
 10
464.30954690278452
 20
1021.63432733548
 30
0.0
 11
464.30954690278452
 21
893.63432733548109
 31
0.0
  0
ARC
  5
30F5
  8
AM_0
 10
466.30954690278452
 20
888.6343273354812
 30
0.0
 40
5.0
 50
270.0
 51
90.00000299999769
  0
LINE
  5
30F6
  8
AM_0
 10
614.30954690278452
 20
918.63432733548109
 30
0.0
 11
617.30948690278456
 21
918.63432733548109
 31
0.0
  0
LINE
  5
30F7
  8
AM_0
 10
546.65909690278454
 20
985.9983373354811
 30
0.0
 11
584.89834690278451
 21
1009.140797335481
 31
0.0
  0
LINE
  5
30F8
  8
AM_0
 10
549.23868690278448
 20
976.28471733548122
 30
0.0
 11
584.80777690278455
 21
997.81114733548134
 31
0.0
  0
LINE
  5
30F9
  8
AM_0
 10
575.95975690278453
 20
975.47587733548153
 30
0.0
 11
587.30960690278448
 21
983.79960733548126
 31
0.0
  0
LINE
  5
30FA
  8
AM_0
 10
549.24795690278415
 20
974.50785733548128
 30
0.0
 11
573.00277690278415
 21
974.50785733548128
 31
0.0
  0
ARC
  5
30FB
  8
AM_0
 10
549.24795690278415
 20
979.50785733548116
 30
0.0
 40
5.0
 50
179.9999899999988
 51
270.0
  0
ARC
  5
30FC
  8
AM_0
 10
549.24795690278415
 20
981.72068733548133
 30
0.0
 40
5.0
 50
121.18235999999619
 51
180.00001000000091
  0
LINE
  5
30FD
  8
AM_0
 10
544.24795690278438
 20
981.72068733548133
 30
0.0
 11
544.24795690278438
 21
979.50785733548116
 31
0.0
  0
ARC
  5
30FE
  8
AM_0
 10
573.00277690278415
 20
979.50785733548116
 30
0.0
 40
5.0
 50
270.0
 51
306.25554999999889
  0
ARC
  5
30FF
  8
AM_0
 10
588.30954690278429
 20
954.97093733548127
 30
0.0
 40
8.0
 50
0.0
 51
90.00000299999769
  0
ARC
  5
3100
  8
AM_0
 10
588.30954690278429
 20
1012.98344733548
 30
0.0
 40
8.0
 50
0.0
 51
90.00000299999769
  0
ARC
  5
3101
  8
AM_0
 10
582.30954690278452
 20
1013.418377335481
 30
0.0
 40
5.0
 50
301.18235999999632
 51
0.0
  0
ARC
  5
3102
  8
AM_0
 10
580.29178690278445
 20
1030.687547335481
 30
0.0
 40
5.0
 50
271.9999999999971
 51
315.0
  0
LINE
  5
3103
  8
AM_0
 10
592.13516690278448
 20
1053.034527335481
 30
0.0
 11
609.30960690278425
 21
1053.6343273354801
 31
0.0
  0
LINE
  5
3104
  8
AM_0
 10
583.82736690278455
 20
1027.1519673354801
 30
0.0
 11
587.30966690278456
 21
1030.6341973354811
 31
0.0
  0
ARC
  5
3105
  8
AM_0
 10
592.30954690278452
 20
1048.037587335481
 30
0.0
 40
5.0
 50
91.999998000000545
 51
180.00001000000091
  0
LINE
  5
3106
  8
AM_0
 10
609.30954690278429
 20
1028.6343273354801
 30
0.0
 11
614.30954690278452
 21
1028.6343273354801
 31
0.0
  0
LINE
  5
3107
  8
AM_0
 10
699.30948690278444
 20
916.13432733548132
 30
0.0
 11
699.30948690278444
 21
861.13432733548154
 31
0.0
  0
LINE
  5
3108
  8
AM_0
 10
637.30954690278452
 20
880.63426733548124
 30
0.0
 11
699.30948690278444
 21
880.63426733548124
 31
0.0
  0
LINE
  5
3109
  8
AM_0
 10
637.30954690278452
 20
896.63426733548124
 30
0.0
 11
699.30948690278444
 21
896.63426733548124
 31
0.0
  0
ARC
  5
310A
  8
AM_0
 10
637.30954690278452
 20
888.63426733548124
 30
0.0
 40
8.0000110000000006
 50
90.00000299999769
 51
270.0
  0
LINE
  5
310B
  8
AM_0
 10
637.30948690278456
 20
896.63426733548124
 30
0.0
 11
637.30948690278456
 21
880.63426733548124
 31
0.0
  0
LINE
  5
310C
  8
ﾁｭｳｼﾝｾﾝ
 10
419.73612973079139
 20
426.47413714633262
 30
0.0
 11
704.73833690278411
 21
426.47413714633262
 31
0.0
  0
LINE
  5
310D
  8
AM_0
 10
617.30948690278365
 20
398.97413714633262
 30
0.0
 11
699.30948690278444
 21
398.97413714633262
 31
0.0
  0
LINE
  5
310E
  8
AM_0
 10
617.30948690278365
 20
453.97414214633238
 30
0.0
 11
699.30948690278444
 21
453.97414214633238
 31
0.0
  0
LINE
  5
310F
  8
AM_0
 10
279.30953690278398
 20
256.47413714633262
 30
0.0
 11
279.30953690278398
 21
506.47413714633223
 31
0.0
  0
LINE
  5
3110
  8
AM_0
 10
295.30953690278398
 20
503.4741371463324
 30
0.0
 11
295.30953690278398
 21
381.47413714633268
 31
0.0
  0
LINE
  5
3111
  8
AM_0
 10
385.30953690278398
 20
478.97414214633238
 30
0.0
 11
385.30953690278398
 21
283.97413714633262
 31
0.0
  0
LINE
  5
3112
  8
AM_0
 10
434.30948690278422
 20
545.49517714633225
 30
0.0
 11
434.30948690278422
 21
236.45312714633241
 31
0.0
  0
LINE
  5
3113
  8
AM_0
 10
408.30948690278387
 20
494.45811714633231
 30
0.0
 11
408.30948690278387
 21
269.03163214633253
 31
0.0
  0
LINE
  5
3114
  8
AM_0
 10
586.6360869027842
 20
383.98604214633241
 30
0.0
 11
574.73228690278427
 21
512.34767714633279
 31
0.0
  0
LINE
  5
3115
  8
AM_0
 10
596.30948690278376
 20
550.82327714633243
 30
0.0
 11
596.30948690278376
 21
302.12501714633248
 31
0.0
  0
LINE
  5
3116
  8
AM_0
 10
614.30948690278456
 20
566.47417714633252
 30
0.0
 11
614.30948690278456
 21
286.47413714633262
 31
0.0
  0
LINE
  5
3117
  8
AM_0
 10
609.30948690278456
 20
591.47417714633252
 30
0.0
 11
609.30948690278456
 21
261.4741371463324
 31
0.0
  0
LINE
  5
3118
  8
AM_0
 10
587.30948690278387
 20
585.87742714633248
 30
0.0
 11
587.30948690278387
 21
392.21077214633249
 31
0.0
  0
LINE
  5
3119
  8
AM_0
 10
464.30948690278422
 20
548.47412714633242
 30
0.0
 11
464.30948690278422
 21
233.4741371463324
 31
0.0
  0
LINE
  5
311A
  8
ﾁｭｳｼﾝｾﾝ
 10
269.08178217599828
 20
381.47413714633268
 30
0.0
 11
468.5041369027839
 21
381.47413714633268
 31
0.0
  0
LINE
  5
311B
  8
AM_0
 10
432.2357369027842
 20
249.20501714633241
 30
0.0
 11
410.38328690278388
 21
264.97738714633232
 31
0.0
  0
LINE
  5
311C
  8
AM_0
 10
295.30953690278398
 20
259.47413714633262
 30
0.0
 11
295.30953690278398
 21
381.47413714633268
 31
0.0
  0
LINE
  5
311D
  8
AM_0
 10
385.30953690278398
 20
283.97413714633262
 30
0.0
 11
300.17865190278388
 21
281.74490614633248
 31
0.0
  0
LINE
  5
311E
  8
AM_0
 10
380.56439690278398
 20
308.33717214633259
 30
0.0
 11
299.08603290278393
 21
305.49188514633261
 31
0.0
  0
LINE
  5
311F
  8
AM_0
 10
381.41423490278368
 20
297.76024714633252
 30
0.0
 11
298.20483790278399
 21
294.85451114633253
 31
0.0
  0
LINE
  5
3120
  8
AM_0
 10
298.30953690278398
 20
324.69834814633248
 30
0.0
 11
384.30953690278398
 21
324.69834814633248
 31
0.0
  0
LINE
  5
3121
  8
AM_0
 10
279.30953690278398
 20
256.47413714633262
 30
0.0
 11
292.30953690278398
 21
256.47413714633262
 31
0.0
  0
ARC
  5
3122
  8
AM_0
 10
292.30953690278398
 20
259.47413714633262
 30
0.0
 40
3.0
 50
270.0
 51
0.0
  0
ARC
  5
3123
  8
AM_0
 10
300.30953690278398
 20
276.74661914633242
 30
0.0
 40
5.0
 50
91.499999999996206
 51
180.0
  0
ARC
  5
3124
  8
AM_0
 10
298.30953690278398
 20
291.85633914633257
 30
0.0
 40
3.0
 50
91.999999999997087
 51
180.0
  0
ARC
  5
3125
  8
AM_0
 10
298.30953690278398
 20
321.69834814633259
 30
0.0
 40
3.0
 50
90.0
 51
180.0
  0
LINE
  5
3126
  8
AM_0
 10
382.3914229027842
 20
283.97413714633262
 30
0.0
 11
385.30953690278398
 21
283.97413714633262
 31
0.0
  0
ARC
  5
3127
  8
AM_0
 10
413.30948690278387
 20
269.03163214633253
 30
0.0
 40
5.0
 50
179.9999899999988
 51
234.17957000000149
  0
LINE
  5
3128
  8
AM_0
 10
385.30948690278399
 20
283.97413714633262
 30
0.0
 11
403.48398690278378
 21
283.33946214633249
 31
0.0
  0
ARC
  5
3129
  8
AM_0
 10
403.30948690278399
 20
278.3425171463324
 30
0.0
 40
5.0
 50
0.0
 51
88.000000000002899
  0
ARC
  5
312A
  8
AM_0
 10
381.30953690278398
 20
300.75842014633253
 30
0.0
 40
3.0
 50
271.99999999999687
 51
0.0
  0
LINE
  5
312B
  8
AM_0
 10
384.30953690278398
 20
300.75842014633253
 30
0.0
 11
384.30953690278398
 21
324.69834814633248
 31
0.0
  0
LINE
  5
312C
  8
AM_0
 10
387.30948690278399
 20
324.69832214633237
 30
0.0
 11
387.30948690278399
 21
298.27894714633243
 31
0.0
  0
LINE
  5
312D
  8
AM_0
 10
387.30948690278399
 20
308.46794214633252
 30
0.0
 11
408.30948690278387
 21
308.46794214633252
 31
0.0
  0
LINE
  5
312E
  8
AM_0
 10
387.30948690278399
 20
298.27894714633243
 30
0.0
 11
408.30948690278387
 21
298.27894714633243
 31
0.0
  0
LINE
  5
312F
  8
AM_0
 10
387.30948690278399
 20
324.69832214633237
 30
0.0
 11
408.30948690278387
 21
324.69832214633237
 31
0.0
  0
LINE
  5
3130
  8
AM_0
 10
298.30953690278398
 20
438.24992514633237
 30
0.0
 11
384.30953690278398
 21
438.24992514633237
 31
0.0
  0
LINE
  5
3131
  8
AM_0
 10
381.41423490278368
 20
465.1880261463325
 30
0.0
 11
298.20483790278399
 21
468.09376214633249
 31
0.0
  0
LINE
  5
3132
  8
AM_0
 10
380.56439690278398
 20
454.6111011463326
 30
0.0
 11
299.08603290278393
 21
457.45638814633242
 31
0.0
  0
ARC
  5
3133
  8
AM_0
 10
298.30953690278398
 20
441.2499251463326
 30
0.0
 40
3.0
 50
180.0
 51
270.0
  0
ARC
  5
3134
  8
AM_0
 10
298.30953690278398
 20
471.09193414633228
 30
0.0
 40
3.0
 50
180.0
 51
268.0000000000029
  0
LINE
  5
3135
  8
AM_0
 10
384.30953690278398
 20
462.18985314633261
 30
0.0
 11
384.30953690278398
 21
438.24992514633237
 31
0.0
  0
LINE
  5
3136
  8
AM_0
 10
387.30948690278399
 20
464.66930214633271
 30
0.0
 11
387.30948690278399
 21
438.24992714633231
 31
0.0
  0
LINE
  5
3137
  8
AM_0
 10
387.30948690278399
 20
438.24992714633231
 30
0.0
 11
408.30948690278387
 21
438.24992714633231
 31
0.0
  0
ARC
  5
3138
  8
AM_0
 10
381.30953690278398
 20
462.18985314633261
 30
0.0
 40
3.0
 50
0.0
 51
88.000000000002899
  0
LINE
  5
3139
  8
AM_0
 10
387.30948690278399
 20
454.48033714633237
 30
0.0
 11
408.30948690278387
 21
454.48033714633237
 31
0.0
  0
LINE
  5
313A
  8
AM_0
 10
387.30948690278399
 20
464.66930214633271
 30
0.0
 11
408.30948690278387
 21
464.66930214633271
 31
0.0
  0
LINE
  5
313B
  8
AM_0
 10
587.30948690278387
 20
334.20024214633253
 30
0.0
 11
587.30948690278387
 21
266.4741371463324
 31
0.0
  0
LINE
  5
313C
  8
AM_0
 10
509.30948690278427
 20
282.07518214633251
 30
0.0
 11
587.30948690278387
 21
282.07518214633251
 31
0.0
  0
LINE
  5
313D
  8
AM_0
 10
509.30948690278427
 20
306.7200471463326
 30
0.0
 11
587.30948690278387
 21
306.7200471463326
 31
0.0
  0
LINE
  5
313E
  8
AM_0
 10
464.30953690278398
 20
233.47412214633241
 30
0.0
 11
546.15288690278419
 21
231.33097714633249
 31
0.0
  0
LINE
  5
313F
  8
AM_0
 10
436.23973690278387
 20
234.4543621463325
 30
0.0
 11
464.30943690278389
 21
233.4741371463324
 31
0.0
  0
ARC
  5
3140
  8
AM_0
 10
436.30948690278399
 20
236.45312714633241
 30
0.0
 40
2.0000000500000001
 50
179.9999899999988
 51
268.00000999999861
  0
ARC
  5
3141
  8
AM_0
 10
429.30948690278422
 20
245.1507421463325
 30
0.0
 40
5.0
 50
0.0
 51
54.179553999998987
  0
LINE
  5
3142
  8
AM_0
 10
504.30948690278422
 20
301.7200471463326
 30
0.0
 11
504.30948690278422
 21
287.07518214633251
 31
0.0
  0
ARC
  5
3143
  8
AM_0
 10
509.30948690278427
 20
287.07518214633251
 30
0.0
 40
5.0
 50
179.9999899999988
 51
270.0
  0
ARC
  5
3144
  8
AM_0
 10
509.30948690278427
 20
301.7200471463326
 30
0.0
 40
5.0
 50
90.00000299999769
 51
180.00001000000091
  0
LINE
  5
3145
  8
AM_0
 10
551.41463690278431
 20
232.6672971463324
 30
0.0
 11
601.30948690278365
 21
261.47410714633253
 31
0.0
  0
ARC
  5
3146
  8
AM_0
 10
546.41463690278431
 20
241.3275771463326
 30
0.0
 40
10.0
 50
268.4999999999971
 51
300.00000000000051
  0
ARC
  5
3147
  8
AM_0
 10
588.30948690278365
 20
302.12501714633248
 30
0.0
 40
8.0
 50
270.0
 51
0.0
  0
LINE
  5
3148
  8
AM_0
 10
592.30948690278365
 20
261.4741371463324
 30
0.0
 11
609.30948690278456
 21
261.4741371463324
 31
0.0
  0
ARC
  5
3149
  8
AM_0
 10
592.30948690278365
 20
266.4741371463324
 30
0.0
 40
5.0
 50
179.9999899999988
 51
270.0
  0
LINE
  5
314A
  8
AM_0
 10
609.30948690278456
 20
286.47413714633262
 30
0.0
 11
614.30948690278456
 21
286.47413714633262
 31
0.0
  0
LINE
  5
314B
  8
AM_0
 10
436.30948690278399
 20
333.14494714633253
 30
0.0
 11
587.30948690278387
 21
333.14494714633253
 31
0.0
  0
LINE
  5
314C
  8
AM_0
 10
436.30948690278399
 20
434.94054214633229
 30
0.0
 11
581.91078690278425
 21
434.94054214633229
 31
0.0
  0
LINE
  5
314D
  8
AM_0
 10
617.30948690278365
 20
456.47414214633261
 30
0.0
 11
617.30948690278365
 21
396.47413714633262
 31
0.0
  0
ARC
  5
314E
  8
AM_0
 10
588.30948690278365
 20
342.13749714633252
 30
0.0
 40
8.0
 50
270.0
 51
0.0
  0
ARC
  5
314F
  8
AM_0
 10
594.60188690278426
 20
384.72478214633247
 30
0.0
 40
8.0
 50
185.2982400000015
 51
270.0
  0
LINE
  5
3150
  8
AM_0
 10
614.30948690278456
 20
396.47413714633262
 30
0.0
 11
617.30948690278365
 21
396.47413714633262
 31
0.0
  0
LINE
  5
3151
  8
AM_0
 10
614.30948690278456
 20
456.47414214633261
 30
0.0
 11
617.30948690278365
 21
456.47414214633261
 31
0.0
  0
LINE
  5
3152
  8
AM_0
 10
409.70793690278413
 20
497.92622714633251
 30
0.0
 11
429.91108690278429
 21
518.90647714633235
 31
0.0
  0
LINE
  5
3153
  8
AM_0
 10
385.30953690278398
 20
478.97413714633268
 30
0.0
 11
300.17865190278388
 21
481.2033671463326
 31
0.0
  0
ARC
  5
3154
  8
AM_0
 10
300.30953690278398
 20
486.20165414633283
 30
0.0
 40
5.0
 50
180.0
 51
268.4999999999971
  0
LINE
  5
3155
  8
AM_0
 10
279.30953690278398
 20
506.47413714633223
 30
0.0
 11
292.30953690278398
 21
506.47413714633223
 31
0.0
  0
ARC
  5
3156
  8
AM_0
 10
292.30953690278398
 20
503.4741371463324
 30
0.0
 40
3.0
 50
0.0
 51
90.0
  0
ARC
  5
3157
  8
AM_0
 10
413.30948690278387
 20
494.45811714633231
 30
0.0
 40
5.0
 50
136.08091999999979
 51
180.00001000000091
  0
LINE
  5
3158
  8
AM_0
 10
385.30948690278399
 20
478.97414214633238
 30
0.0
 11
403.48398690278378
 21
479.6088121463323
 31
0.0
  0
ARC
  5
3159
  8
AM_0
 10
403.30948690278399
 20
484.60576214633249
 30
0.0
 40
5.0
 50
271.99999999999687
 51
0.0
  0
LINE
  5
315A
  8
AM_0
 10
464.30948690278422
 20
548.47412714633242
 30
0.0
 11
566.09093690278394
 21
551.13937714633244
 31
0.0
  0
LINE
  5
315B
  8
AM_0
 10
458.80948690278387
 20
548.47412714633242
 30
0.0
 11
456.55898690278389
 21
556.87307714633255
 31
0.0
  0
ARC
  5
315C
  8
AM_0
 10
464.73448690278423
 20
549.54387714633242
 30
0.0
 40
6.0
 50
126.46669999999671
 51
190.27005999999909
  0
LINE
  5
315D
  8
AM_0
 10
433.80948690278387
 20
548.47412714633242
 30
0.0
 11
436.05998690278392
 21
556.87302714633245
 31
0.0
  0
ARC
  5
315E
  8
AM_0
 10
427.8844369027841
 20
549.54387714633242
 30
0.0
 40
6.0
 50
349.72994999999878
 51
53.533291000002919
  0
LINE
  5
315F
  8
AM_0
 10
433.30948690278387
 20
548.47412714633242
 30
0.0
 11
464.30948690278422
 21
548.47412714633242
 31
0.0
  0
LINE
  5
3160
  8
AM_0
 10
436.23968690278417
 20
547.49392714633245
 30
0.0
 11
464.30948690278422
 21
548.47412714633242
 31
0.0
  0
LINE
  5
3161
  8
AM_0
 10
431.30948690278399
 20
546.47417714633252
 30
0.0
 11
431.30948690278399
 21
522.37477714633235
 31
0.0
  0
LINE
  5
3162
  8
AM_0
 10
429.91108690278429
 20
518.90647714633235
 30
0.0
 11
432.91108690278389
 21
522.0218771463326
 31
0.0
  0
ARC
  5
3163
  8
AM_0
 10
429.30948690278422
 20
525.4901771463326
 30
0.0
 40
5.0
 50
316.08091999999982
 51
0.0
  0
ARC
  5
3164
  8
AM_0
 10
426.30948690278387
 20
522.37477714633235
 30
0.0
 40
5.0
 50
316.08091999999982
 51
0.0
  0
ARC
  5
3165
  8
AM_0
 10
436.30948690278399
 20
545.49517714633225
 30
0.0
 40
2.0000000500000001
 50
91.999998000000545
 51
180.00001000000091
  0
ARC
  5
3166
  8
AM_0
 10
433.30948690278387
 20
546.47417714633252
 30
0.0
 40
2.0000000500000001
 50
90.00000299999769
 51
180.00001000000091
  0
ARC
  5
3167
  8
AM_0
 10
446.30948690278387
 20
574.47412714633265
 30
0.0
 40
25.000000499999999
 50
306.46672000000012
 51
233.53329000000139
  0
CIRCLE
  5
3168
  8
AM_0
 10
446.30948690278387
 20
574.47412714633265
 30
0.0
 40
15.0
  0
LINE
  5
3169
  8
AM_0
 10
436.51543690278402
 20
557.47412714633242
 30
0.0
 11
456.10348690278403
 21
557.47412714633242
 31
0.0
  0
LINE
  5
316A
  8
AM_0
 10
436.83153690278419
 20
557.59512714633252
 30
0.0
 11
446.30948690278387
 21
559.47412714633265
 31
0.0
  0
ARC
  5
316B
  8
AM_0
 10
437.02593690278411
 20
556.61422714633272
 30
0.0
 40
1.0
 50
101.213289999998
 51
164.99999000000179
  0
LINE
  5
316C
  8
AM_0
 10
446.30943690278411
 20
559.47417714633252
 30
0.0
 11
455.7875369027841
 21
557.59512714633252
 31
0.0
  0
ARC
  5
316D
  8
AM_0
 10
455.59313690278429
 20
556.61422714633272
 30
0.0
 40
1.0
 50
15.000000000000741
 51
78.786710000001847
  0
LINE
  5
316E
  8
AM_0
 10
572.10733690278425
 20
540.65347714633242
 30
0.0
 11
571.03643690278432
 21
552.20107714633264
 31
0.0
  0
ARC
  5
316F
  8
AM_0
 10
582.30948690278399
 20
551.25822714633227
 30
0.0
 40
5.0
 50
301.18235999999791
 51
0.0
  0
LINE
  5
3170
  8
AM_0
 10
546.65908690278388
 20
523.83817714633255
 30
0.0
 11
584.89828690278398
 21
546.98057714633251
 31
0.0
  0
LINE
  5
3171
  8
AM_0
 10
549.23858690278428
 20
514.12456214633255
 30
0.0
 11
584.80773690278409
 21
535.65102714633235
 31
0.0
  0
LINE
  5
3172
  8
AM_0
 10
575.95963690278393
 20
513.31578714633235
 30
0.0
 11
587.30948690278387
 21
521.63952714633251
 31
0.0
  0
ARC
  5
3173
  8
AM_0
 10
573.00273690278357
 20
517.34767714633256
 30
0.0
 40
5.0
 50
270.0
 51
306.25555000000082
  0
ARC
  5
3174
  8
AM_0
 10
549.24788690278399
 20
517.34767714633256
 30
0.0
 40
5.0
 50
179.9999899999988
 51
270.0
  0
LINE
  5
3175
  8
AM_0
 10
549.24788690278399
 20
512.34767714633279
 30
0.0
 11
573.00273690278357
 21
512.34767714633279
 31
0.0
  0
LINE
  5
3176
  8
AM_0
 10
544.24788690278399
 20
519.56052714633256
 30
0.0
 11
544.24788690278399
 21
517.34767714633256
 31
0.0
  0
ARC
  5
3177
  8
AM_0
 10
549.24788690278399
 20
519.56052714633256
 30
0.0
 40
5.0
 50
121.182359999998
 51
180.00001000000091
  0
ARC
  5
3178
  8
AM_0
 10
588.30948690278365
 20
492.8107821463322
 30
0.0
 40
8.0
 50
0.0
 51
90.00000299999769
  0
LINE
  5
3179
  8
AM_0
 10
572.90018690278407
 20
554.06487714633249
 30
0.0
 11
587.30948690278387
 21
568.47417714633252
 31
0.0
  0
ARC
  5
317A
  8
AM_0
 10
565.82913690278417
 20
561.13592714633239
 30
0.0
 40
10.0
 50
271.50000000000261
 51
315.0
  0
ARC
  5
317B
  8
AM_0
 10
588.30948690278365
 20
550.82327714633243
 30
0.0
 40
8.0
 50
0.0
 51
90.00000299999769
  0
LINE
  5
317C
  8
AM_0
 10
609.30948690278456
 20
566.47417714633252
 30
0.0
 11
614.30948690278456
 21
566.47417714633252
 31
0.0
  0
LINE
  5
317D
  8
AM_0
 10
592.13498690278425
 20
590.87442714633244
 30
0.0
 11
609.30948690278456
 21
591.47417714633252
 31
0.0
  0
ARC
  5
317E
  8
AM_0
 10
592.30948690278365
 20
585.87742714633248
 30
0.0
 40
5.0
 50
91.999998000000545
 51
180.00001000000091
  0
ARC
  5
317F
  8
AM_0
 10
1090.9381008824039
 20
474.72722214633228
 30
0.0
 40
5.0
 50
135.0
 51
217.09680000000159
  0
CIRCLE
  5
3180
  8
AM_0
 10
1027.128710882404
 20
426.47413714633262
 30
0.0
 40
132.0
  0
ARC
  5
3181
  8
AM_0
 10
1027.128710882404
 20
426.47413714633262
 30
0.0
 40
60.0
 50
90.00000299999769
 51
270.0
  0
ARC
  5
3182
  8
AM_0
 10
963.31926088240505
 20
474.72722214633228
 30
0.0
 40
5.0
 50
322.9032099999983
 51
45.00000100000149
  0
ARC
  5
3183
  8
AM_0
 10
1027.128710882404
 20
426.47413714633262
 30
0.0
 40
60.0
 50
270.0
 51
90.00000299999769
  0
CIRCLE
  5
3184
  8
AM_0
 10
1027.128710882404
 20
426.47413714633262
 30
0.0
 40
140.0
  0
LINE
  5
3185
  8
ﾁｭｳｼﾝｾﾝ
 10
1027.128710882404
 20
219.4489571463325
 30
0.0
 11
1027.128710882404
 21
604.72463194846762
 31
0.0
  0
LINE
  5
3186
  8
AM_0
 10
862.12869088240484
 20
371.47413714633262
 30
0.0
 11
862.12869088240484
 21
481.47414214633261
 31
0.0
  0
LINE
  5
3187
  8
AM_0
 10
1192.1286858824051
 20
371.47413714633262
 30
0.0
 11
1192.1286858824051
 21
481.47414214633261
 31
0.0
  0
LINE
  5
3188
  8
ﾁｭｳｼﾝｾﾝ
 10
851.14699088240479
 20
426.47413714633262
 30
0.0
 11
1204.5552758824051
 21
426.47413714633262
 31
0.0
  0
LINE
  5
3189
  8
AM_0
 10
1082.128680882405
 20
261.47412214633238
 30
0.0
 11
1168.667500882405
 21
266.00943214633241
 31
0.0
  0
LINE
  5
318A
  8
AM_0
 10
1096.328970882405
 20
232.9725821463324
 30
0.0
 11
1119.103840882404
 21
248.9197071463326
 31
0.0
  0
LINE
  5
318B
  8
ﾁｭｳｼﾝｾﾝ
 10
952.12871088240468
 20
381.47413714633268
 30
0.0
 11
1102.1286808824041
 21
381.47413714633268
 31
0.0
  0
ARC
  5
318C
  8
AM_0
 10
1027.128710882404
 20
426.47413714633262
 30
0.0
 40
75.0
 50
0.0
 51
37.096792999999472
  0
ARC
  5
318D
  8
AM_0
 10
886.63661588240484
 20
285.98201214633252
 30
0.0
 40
20.000000499999999
 50
183.00000999999961
 51
267.0000000000008
  0
ARC
  5
318E
  8
ﾁｭｳｼﾝｾﾝ1
 10
1027.128710882404
 20
426.47413714633262
 30
0.0
 40
195.0000049999999
 50
218.16532000000149
 51
232.1288600000004
  0
LINE
  5
318F
  8
ﾁｭｳｼﾝｾﾝ1
 10
905.45222588240483
 20
304.7976521463325
 30
0.0
 11
875.01214088240511
 21
274.35759214633242
 31
0.0
  0
LINE
  5
3190
  8
AM_0
 10
862.12869088240484
 20
371.4742021463324
 30
0.0
 11
866.66404088240495
 21
284.93531714633252
 31
0.0
  0
LINE
  5
3191
  8
AM_0
 10
699.30948690278444
 20
457.97414214633238
 30
0.0
 11
699.30948690278444
 21
398.97413714633262
 31
0.0
  0
LINE
  5
3192
  8
AM_0
 10
637.30948690278387
 20
457.97414214633238
 30
0.0
 11
699.30948690278444
 21
457.97414214633238
 31
0.0
  0
LINE
  5
3193
  8
AM_0
 10
637.30948690278387
 20
457.97414214633238
 30
0.0
 11
637.30948690278387
 21
453.97414214633238
 31
0.0
  0
LINE
  5
3194
  8
AM_0
 10
965.28166588240492
 20
230.6541421463325
 30
0.0
 11
1088.975695882405
 21
230.6541421463325
 31
0.0
  0
LINE
  5
3195
  8
AM_0
 10
972.12871088240479
 20
261.4741371463324
 30
0.0
 11
1082.128680882405
 21
261.4741371463324
 31
0.0
  0
ARC
  5
3196
  8
AM_0
 10
994.12868088240509
 20
333.14494714633253
 30
0.0
 40
102.81999499999991
 50
222.01518000000081
 51
235.0000000000025
  0
ARC
  5
3197
  8
AM_0
 10
965.28166588240492
 20
243.4741371463324
 30
0.0
 40
12.82
 50
235.0000000000025
 51
270.0
  0
LINE
  5
3198
  8
AM_0
 10
957.92845588240471
 20
232.9725971463325
 30
0.0
 11
935.15358088240475
 21
248.91972214633239
 31
0.0
  0
LINE
  5
3199
  8
AM_0
 10
972.12868088240464
 20
261.47412214633238
 30
0.0
 11
885.58986088240465
 21
266.00943214633241
 31
0.0
  0
CIRCLE
  5
319A
  8
AM_0
 10
889.24287588240509
 20
288.5883321463325
 30
0.0
 40
9.5
  0
ARC
  5
319B
  8
AM_0
 10
1088.975695882405
 20
243.4741371463324
 30
0.0
 40
12.82
 50
270.0
 51
304.99999999999739
  0
LINE
  5
319C
  8
AM_0
 10
900.52302588240468
 20
411.47413714633262
 30
0.0
 11
947.12871088240479
 21
411.47413714633262
 31
0.0
  0
ARC
  5
319D
  8
AM_0
 10
900.52302588240468
 20
416.47413714633262
 30
0.0
 40
5.0
 50
184.5161599999995
 51
270.0
  0
ARC
  5
319E
  8
AM_0
 10
1027.128710882404
 20
426.47413714633262
 30
0.0
 40
75.0
 50
142.9032099999981
 51
180.00001000000091
  0
LINE
  5
319F
  8
AM_0
 10
952.12871088240468
 20
426.47413714633262
 30
0.0
 11
952.12871088240468
 21
416.47413714633262
 31
0.0
  0
ARC
  5
31A0
  8
AM_0
 10
947.12871088240479
 20
416.47413714633262
 30
0.0
 40
5.0
 50
270.0
 51
0.0
  0
ARC
  5
31A1
  8
AM_0
 10
1027.128710882404
 20
426.47413714633262
 30
0.0
 40
27.500000499999999
 50
106.9123899999975
 51
73.087596999998908
  0
CIRCLE
  5
31A2
  8
AM_5
 10
1027.128710882404
 20
426.47413714633262
 30
0.0
 40
6.0
  0
CIRCLE
  5
31A3
  8
AM_0
 10
1027.128710882404
 20
426.47413714633262
 30
0.0
 40
4.500000049999997
  0
LINE
  5
31A4
  8
AM_0
 10
1019.128680882404
 20
447.9741421463325
 30
0.0
 11
1035.1286808824041
 21
447.9741421463325
 31
0.0
  0
LINE
  5
31A5
  8
AM_0
 10
1019.128680882404
 20
457.97414214633238
 30
0.0
 11
1035.1286808824041
 21
457.97414214633238
 31
0.0
  0
LINE
  5
31A6
  8
AM_0
 10
1019.128680882404
 20
447.9741421463325
 30
0.0
 11
1019.128680882404
 21
457.97414214633238
 31
0.0
  0
LINE
  5
31A7
  8
AM_0
 10
1035.1286808824041
 20
447.9741421463325
 30
0.0
 11
1035.1286808824041
 21
457.97414214633238
 31
0.0
  0
LINE
  5
31A8
  8
AM_0
 10
1192.128700882404
 20
371.47416714633249
 30
0.0
 11
1187.593390882404
 21
284.93531714633252
 31
0.0
  0
ARC
  5
31A9
  8
AM_0
 10
1060.128680882405
 20
333.14494714633253
 30
0.0
 40
102.81999499999991
 50
304.99999999999739
 51
317.9848199999991
  0
CIRCLE
  5
31AA
  8
AM_0
 10
1165.014515882405
 20
288.5883321463325
 30
0.0
 40
9.5
  0
ARC
  5
31AB
  8
AM_0
 10
1167.6207958824041
 20
285.98201214633252
 30
0.0
 40
20.000000499999999
 50
272.99999999999909
 51
357.00000000000108
  0
ARC
  5
31AC
  8
AM_0
 10
1153.734380882405
 20
416.47413714633262
 30
0.0
 40
5.0
 50
270.0
 51
355.48384999999831
  0
LINE
  5
31AD
  8
AM_0
 10
1153.734380882405
 20
411.47413714633262
 30
0.0
 11
1107.128680882405
 21
411.47413714633262
 31
0.0
  0
LINE
  5
31AE
  8
AM_0
 10
1102.1286808824041
 20
426.47413714633262
 30
0.0
 11
1102.1286808824041
 21
416.47413714633262
 31
0.0
  0
ARC
  5
31AF
  8
AM_0
 10
1107.128680882405
 20
416.47413714633262
 30
0.0
 40
5.0
 50
179.9999899999988
 51
270.0
  0
LINE
  5
31B0
  8
AM_0
 10
1082.128710882404
 20
591.47417714633252
 30
0.0
 11
1168.667515882405
 21
586.93882714633264
 31
0.0
  0
LINE
  5
31B1
  8
AM_0
 10
1087.402575882405
 20
478.26274714633252
 30
0.0
 11
1120.836385882405
 21
511.69655214633241
 31
0.0
  0
LINE
  5
31B2
  8
AM_0
 10
1078.9173158824051
 20
486.7480071463325
 30
0.0
 11
1112.3511258824051
 21
520.18182714633235
 31
0.0
  0
ARC
  5
31B3
  8
AM_0
 10
886.63661588240484
 20
566.96622714633224
 30
0.0
 40
20.000000499999999
 50
92.999999000001679
 51
176.99999000000011
  0
LINE
  5
31B4
  8
AM_0
 10
862.12869088240484
 20
481.47417214633248
 30
0.0
 11
866.66399088240473
 21
568.01297714633245
 31
0.0
  0
ARC
  5
31B5
  8
AM_0
 10
1027.128710882404
 20
426.47413714633262
 30
0.0
 40
75.0
 50
52.903206000003003
 51
127.0967900000017
  0
LINE
  5
31B6
  8
AM_0
 10
972.12871088240479
 20
591.47417714633252
 30
0.0
 11
1082.128680882405
 21
591.47417714633252
 31
0.0
  0
LINE
  5
31B7
  8
AM_0
 10
966.85484588240524
 20
478.26271214633249
 30
0.0
 11
933.42094588240525
 21
511.69661214633271
 31
0.0
  0
ARC
  5
31B8
  8
AM_0
 10
929.88542588240477
 20
508.16106214633231
 30
0.0
 40
5.0
 50
45.00000100000149
 51
139.96884999999969
  0
LINE
  5
31B9
  8
AM_0
 10
975.34010588240483
 20
486.74797714633229
 30
0.0
 11
941.90620588240483
 21
520.18187714633245
 31
0.0
  0
ARC
  5
31BA
  8
AM_0
 10
978.87560088240446
 20
490.28355714633261
 30
0.0
 40
5.0
 50
225.0
 51
307.0967900000017
  0
ARC
  5
31BB
  8
AM_0
 10
945.44179088240514
 20
523.71737714633264
 30
0.0
 40
5.0
 50
130.03114999999761
 51
225.0
  0
LINE
  5
31BC
  8
AM_0
 10
972.12868088240464
 20
591.47412714633265
 30
0.0
 11
885.58986088240465
 21
586.93882714633264
 31
0.0
  0
CIRCLE
  5
31BD
  8
AM_0
 10
889.24287588240509
 20
564.35997714633243
 30
0.0
 40
9.5
  0
ARC
  5
31BE
  8
AM_0
 10
1075.381765882405
 20
490.28355714633261
 30
0.0
 40
5.0
 50
232.90320999999821
 51
315.0
  0
ARC
  5
31BF
  8
AM_0
 10
1027.128710882404
 20
594.47412714633265
 30
0.0
 40
5.0
 50
359.999989999999
 51
179.9999899999988
  0
LINE
  5
31C0
  8
AM_0
 10
1022.128710882403
 20
594.47412714633265
 30
0.0
 11
1022.128710882403
 21
591.47417714633252
 31
0.0
  0
LINE
  5
31C1
  8
AM_0
 10
1032.128710882404
 20
594.47412714633265
 30
0.0
 11
1032.128710882404
 21
591.47417714633252
 31
0.0
  0
LINE
  5
31C2
  8
ﾁｭｳｼﾝｾﾝ1
 10
1149.707190882405
 20
549.05257714633251
 30
0.0
 11
1179.2452158824051
 21
578.59062714633251
 31
0.0
  0
LINE
  5
31C3
  8
AM_0
 10
1192.1286858824051
 20
481.47414214633261
 30
0.0
 11
1187.5933758824031
 21
568.01297714633245
 31
0.0
  0
ARC
  5
31C4
  8
AM_0
 10
1124.3719408824029
 20
508.16106214633231
 30
0.0
 40
5.0
 50
40.031148000000073
 51
135.0
  0
ARC
  5
31C5
  8
AM_0
 10
1108.8156008824051
 20
523.71737714633264
 30
0.0
 40
5.0
 50
315.0
 51
49.96885100000106
  0
ARC
  5
31C6
  8
ﾁｭｳｼﾝｾﾝ1
 10
1027.128710882404
 20
426.47413714633262
 30
0.0
 40
195.0000049999999
 50
39.367218999999267
 51
50.896189000000447
  0
CIRCLE
  5
31C7
  8
AM_0
 10
1165.014515882405
 20
564.35997714633243
 30
0.0
 40
9.5
  0
ARC
  5
31C8
  8
AM_0
 10
1167.6207958824041
 20
566.96622714633224
 30
0.0
 40
20.000000499999999
 50
3.0000000999988461
 51
86.99999899999699
  0
LINE
  5
31C9
  8
AM_0
 10
295.30960690278431
 20
766.63432483548115
 30
0.0
 11
295.30960690278431
 21
888.63432483548115
 31
0.0
  0
LINE
  5
31CA
  8
AM_0
 10
279.30960690278448
 20
763.63432483548115
 30
0.0
 11
279.30960690278448
 21
1013.63432483548
 31
0.0
  0
LINE
  5
31CB
  8
AM_0
 10
298.30960690278431
 20
831.85853583548135
 30
0.0
 11
384.30960690278442
 21
831.85853583548135
 31
0.0
  0
LINE
  5
31CC
  8
AM_0
 10
381.41430490278429
 20
804.92043483548127
 30
0.0
 11
298.2049079027845
 21
802.01469883548111
 31
0.0
  0
LINE
  5
31CD
  8
AM_0
 10
380.56446690278449
 20
815.49735983548123
 30
0.0
 11
299.08610290278432
 21
812.65207283548125
 31
0.0
  0
LINE
  5
31CE
  8
AM_0
 10
385.30960690278448
 20
791.13432483548115
 30
0.0
 11
300.17872190278439
 21
788.90509383548124
 31
0.0
  0
ARC
  5
31CF
  8
AM_0
 10
300.30960690278431
 20
783.90680683548123
 30
0.0
 40
5.0
 50
91.499999999996206
 51
180.0
  0
ARC
  5
31D0
  8
AM_0
 10
292.30960690278431
 20
766.63432483548115
 30
0.0
 40
3.0
 50
270.0
 51
0.0
  0
LINE
  5
31D1
  8
AM_0
 10
279.30960690278448
 20
763.63432483548115
 30
0.0
 11
292.30960690278431
 21
763.63432483548115
 31
0.0
  0
ARC
  5
31D2
  8
AM_0
 10
298.30960690278431
 20
799.01652683548127
 30
0.0
 40
3.0
 50
91.999999999997087
 51
180.0
  0
ARC
  5
31D3
  8
AM_0
 10
298.30960690278431
 20
828.85853583548112
 30
0.0
 40
3.0
 50
90.0
 51
180.0
  0
LINE
  5
31D4
  8
AM_0
 10
384.30960690278442
 20
807.91860783548145
 30
0.0
 11
384.30960690278442
 21
831.85853583548135
 31
0.0
  0
ARC
  5
31D5
  8
AM_0
 10
381.30960690278442
 20
807.91860783548145
 30
0.0
 40
3.0
 50
271.99999999999687
 51
0.0
  0
LINE
  5
31D6
  8
AM_0
 10
382.39149290278459
 20
791.13432483548115
 30
0.0
 11
385.30960690278448
 21
791.13432483548115
 31
0.0
  0
LINE
  5
31D7
  8
AM_0
 10
385.30960690278448
 20
986.13432483548115
 30
0.0
 11
300.17872190278439
 21
988.3635548354813
 31
0.0
  0
LINE
  5
31D8
  8
AM_0
 10
380.56446690278449
 20
961.77128883548141
 30
0.0
 11
299.08610290278432
 21
964.61657583548151
 31
0.0
  0
LINE
  5
31D9
  8
AM_0
 10
381.41430490278429
 20
972.34821383548115
 30
0.0
 11
298.2049079027845
 21
975.25394983548154
 31
0.0
  0
LINE
  5
31DA
  8
AM_0
 10
298.30960690278431
 20
945.41011283548164
 30
0.0
 11
384.30960690278442
 21
945.41011283548164
 31
0.0
  0
LINE
  5
31DB
  8
AM_0
 10
295.30960690278431
 20
1010.63432483548
 30
0.0
 11
295.30960690278431
 21
888.63432483548115
 31
0.0
  0
ARC
  5
31DC
  8
AM_0
 10
298.30960690278431
 20
948.4101128354813
 30
0.0
 40
3.0
 50
180.0
 51
270.0
  0
ARC
  5
31DD
  8
AM_0
 10
300.30960690278431
 20
993.36184183548141
 30
0.0
 40
5.0
 50
180.0
 51
268.4999999999971
  0
ARC
  5
31DE
  8
AM_0
 10
298.30960690278431
 20
978.25212183548115
 30
0.0
 40
3.0
 50
180.0
 51
268.0000000000029
  0
ARC
  5
31DF
  8
AM_0
 10
292.30960690278431
 20
1010.63432483548
 30
0.0
 40
3.0
 50
0.0
 51
90.0
  0
LINE
  5
31E0
  8
AM_0
 10
279.30960690278448
 20
1013.63432483548
 30
0.0
 11
292.30960690278431
 21
1013.63432483548
 31
0.0
  0
LINE
  5
31E1
  8
AM_0
 10
384.30960690278442
 20
969.35004083548131
 30
0.0
 11
384.30960690278442
 21
945.41011283548164
 31
0.0
  0
ARC
  5
31E2
  8
AM_0
 10
381.30960690278442
 20
969.35004083548131
 30
0.0
 40
3.0
 50
0.0
 51
88.000000000002899
  0
LINE
  5
31E3
  8
ﾁｭｳｼﾝｾﾝ1
 10
904.55023088240478
 20
549.05257714633251
 30
0.0
 11
875.01220588240449
 21
578.59062714633251
 31
0.0
  0
ARC
  5
31E4
  8
ﾁｭｳｼﾝｾﾝ1
 10
1027.128710882404
 20
426.47413714633262
 30
0.0
 40
195.0000049999999
 50
129.1038109999995
 51
140.6327810000007
  0
ARC
  5
31E5
  8
ﾁｭｳｼﾝｾﾝ1
 10
1027.128710882404
 20
426.47413714633262
 30
0.0
 40
195.0000049999999
 50
307.87113999999951
 51
321.83467999999817
  0
LINE
  5
31E6
  8
ﾁｭｳｼﾝｾﾝ1
 10
1148.805195882403
 20
304.7976521463325
 30
0.0
 11
1179.2452808824039
 21
274.35759214633242
 31
0.0
  0
TEXT
  5
33F3
  8
AM_0
 10
884.47851653249916
 20
942.82094642142044
 30
0.0
 40
20.0
  1
VX37-040AF~VX37-060AF
  0
ENDSEC
  0
EOF
